  0
SECTION
  2
HEADER
  9
$ACADVER
  1
AC1009
  9
$INSBASE
 10
2583.5102334888929363
 20
153.5996086006011012
 30
0.0
  9
$EXTMIN
 10
2574.1346583112508597
 20
144.552597631907588
 30
-0.0000000000112498
  9
$EXTMAX
 10
2597.92041586082496
 20
155.0572544267994033
 30
0.0000000000002956
  9
$LIMMIN
 10
0.0
 20
0.0
  9
$LIMMAX
 10
11.6929133858000007
 20
8.2677165353999982
  9
$ORTHOMODE
 70
     1
  9
$REGENMODE
 70
     1
  9
$FILLMODE
 70
     1
  9
$QTEXTMODE
 70
     0
  9
$MIRRTEXT
 70
     0
  9
$DRAGMODE
 70
     2
  9
$LTSCALE
 40
0.6431102362
  9
$OSMODE
 70
  3999
  9
$ATTMODE
 70
     1
  9
$TEXTSIZE
 40
0.2
  9
$TRACEWID
 40
0.05
  9
$TEXTSTYLE
  7
STANDARD
  9
$CLAYER
  8
0
  9
$CELTYPE
  6
BYLAYER
  9
$CECOLOR
 62
   256
  9
$DIMSCALE
 40
1.0
  9
$DIMASZ
 40
0.1875
  9
$DIMEXO
 40
0.0625
  9
$DIMDLI
 40
0.4443307087
  9
$DIMRND
 40
0.0
  9
$DIMDLE
 40
0.0
  9
$DIMEXE
 40
0.125
  9
$DIMTP
 40
0.01
  9
$DIMTM
 40
0.01
  9
$DIMTXT
 40
2.0
  9
$DIMCEN
 40
0.1052362205
  9
$DIMTSZ
 40
0.0
  9
$DIMTOL
 70
     1
  9
$DIMLIM
 70
     0
  9
$DIMTIH
 70
     1
  9
$DIMTOH
 70
     1
  9
$DIMSE1
 70
     0
  9
$DIMSE2
 70
     0
  9
$DIMTAD
 70
     0
  9
$DIMZIN
 70
     0
  9
$DIMBLK
  1

  9
$DIMASO
 70
     1
  9
$DIMSHO
 70
     1
  9
$DIMPOST
  1
\X
  9
$DIMAPOST
  1

  9
$DIMALT
 70
     1
  9
$DIMALTD
 70
     2
  9
$DIMALTF
 40
25.3999999999999986
  9
$DIMLFAC
 40
1.0
  9
$DIMTOFL
 70
     0
  9
$DIMTVP
 40
0.0
  9
$DIMTIX
 70
     0
  9
$DIMSOXD
 70
     0
  9
$DIMSAH
 70
     0
  9
$DIMBLK1
  1

  9
$DIMBLK2
  1

  9
$DIMSTYLE
  2
STANDARD
  9
$DIMCLRD
 70
     0
  9
$DIMCLRE
 70
     0
  9
$DIMCLRT
 70
     0
  9
$DIMTFAC
 40
1.0
  9
$DIMGAP
 40
0.09
  9
$LUNITS
 70
     2
  9
$LUPREC
 70
     4
  9
$SKETCHINC
 40
0.1
  9
$FILLETRAD
 40
0.0
  9
$AUNITS
 70
     0
  9
$AUPREC
 70
     0
  9
$MENU
  1
.
  9
$ELEVATION
 40
0.0
  9
$PELEVATION
 40
0.0
  9
$THICKNESS
 40
0.0
  9
$LIMCHECK
 70
     0
  9
$BLIPMODE
 70
     0
  9
$CHAMFERA
 40
0.0
  9
$CHAMFERB
 40
0.0
  9
$SKPOLY
 70
     0
  9
$TDCREATE
 40
2458060.468368056230247
  9
$TDUPDATE
 40
2460167.4421296301297843
  9
$TDINDWG
 40
0.7044283565
  9
$TDUSRTIMER
 40
0.7044283565
  9
$USRTIMER
 70
     1
  9
$ANGBASE
 50
0.0
  9
$ANGDIR
 70
     0
  9
$PDMODE
 70
     0
  9
$PDSIZE
 40
0.3125
  9
$PLINEWID
 40
0.0
  9
$COORDS
 70
     1
  9
$SPLFRAME
 70
     0
  9
$SPLINETYPE
 70
     6
  9
$SPLINESEGS
 70
     8
  9
$ATTDIA
 70
     1
  9
$ATTREQ
 70
     1
  9
$HANDLING
 70
     1
  9
$HANDSEED
  5
4ABB0
  9
$SURFTAB1
 70
     6
  9
$SURFTAB2
 70
     6
  9
$SURFTYPE
 70
     6
  9
$SURFU
 70
     6
  9
$SURFV
 70
     6
  9
$UCSNAME
  2

  9
$UCSORG
 10
0.0
 20
0.0
 30
0.0
  9
$UCSXDIR
 10
1.0
 20
0.0
 30
0.0
  9
$UCSYDIR
 10
0.0
 20
1.0
 30
0.0
  9
$PUCSNAME
  2

  9
$PUCSORG
 10
0.0
 20
0.0
 30
0.0
  9
$PUCSXDIR
 10
1.0
 20
0.0
 30
0.0
  9
$PUCSYDIR
 10
0.0
 20
1.0
 30
0.0
  9
$USERI1
 70
     0
  9
$USERI2
 70
     0
  9
$USERI3
 70
     0
  9
$USERI4
 70
     0
  9
$USERI5
 70
     0
  9
$USERR1
 40
0.0
  9
$USERR2
 40
0.0
  9
$USERR3
 40
0.0
  9
$USERR4
 40
0.0
  9
$USERR5
 40
0.0
  9
$WORLDVIEW
 70
     1
  9
$SHADEDGE
 70
     3
  9
$SHADEDIF
 70
    70
  9
$TILEMODE
 70
     1
  9
$MAXACTVP
 70
    64
  9
$PLIMCHECK
 70
     0
  9
$PEXTMIN
 10
1.0000000000000000E+20
 20
1.0000000000000000E+20
 30
1.0000000000000000E+20
  9
$PEXTMAX
 10
-1.0000000000000000E+20
 20
-1.0000000000000000E+20
 30
-1.0000000000000000E+20
  9
$PLIMMIN
 10
0.0
 20
0.0
  9
$PLIMMAX
 10
12.0
 20
9.0
  9
$UNITMODE
 70
     0
  9
$VISRETAIN
 70
     1
  9
$PLINEGEN
 70
     0
  9
$PSLTSCALE
 70
     1
  0
ENDSEC
  0
SECTION
  2
TABLES
  0
TABLE
  2
VPORT
 70
     1
  0
VPORT
  2
*ACTIVE
 70
     0
 10
0.0
 20
0.0
 11
1.0
 21
1.0
 12
-717.6655781483373175
 22
-45.4565855465342281
 13
0.0
 23
0.0
 14
1.0
 24
1.0
 15
0.0
 25
0.0
 16
0.0
 26
0.0
 36
96.5995694866707311
 17
3303.693115234375
 27
195.2615115758877096
 37
0.0
 40
10.6240776450760901
 41
2.2458823529411762
 42
50.0
 43
0.0
 44
0.0
 50
0.0
 51
0.0
 71
     0
 72
   100
 73
     1
 74
     1
 75
     0
 76
     0
 77
     0
 78
     0
  0
ENDTAB
  0
TABLE
  2
LTYPE
 70
     2
  0
LTYPE
  2
CONTINUOUS
 70
     0
  3
Solid line
 72
    65
 73
     0
 40
0.0
  0
LTYPE
  2
PHANTOM2
 70
     0
  3
___ _ _ ___ _ _ ___ _ _ ___ _ _
 72
    65
 73
     6
 40
1.25
 49
0.625
 49
-0.125
 49
0.125
 49
-0.125
 49
0.125
 49
-0.125
  0
ENDTAB
  0
TABLE
  2
LAYER
 70
     2
  0
LAYER
  2
0
 70
     0
 62
   255
  6
CONTINUOUS
  0
LAYER
  2
DEFPOINTS
 70
     0
 62
     7
  6
CONTINUOUS
  0
ENDTAB
  0
TABLE
  2
STYLE
 70
     1
  0
STYLE
  2
STANDARD
 70
     0
 40
0.0
 41
0.8
 50
0.0
 71
     0
 42
0.2
  3
txt
  4

  0
ENDTAB
  0
TABLE
  2
VIEW
 70
     0
  0
ENDTAB
  0
TABLE
  2
UCS
 70
     0
  0
ENDTAB
  0
TABLE
  2
APPID
 70
     9
  0
APPID
  2
ACAD
 70
     0
  0
APPID
  2
ACAD_MLEADERVER
 70
     0
  0
APPID
  2
ACAD_EXEMPT_FROM_CAD_STANDARDS
 70
     0
  0
APPID
  2
ACAD_NAV_VCDISPLAY
 70
     0
  0
APPID
  2
ACAECLAYERSTANDARD
 70
     0
  0
APPID
  2
ACCMTRANSPARENCY
 70
     0
  0
APPID
  2
ACAD_DSTYLE_DIMJAG
 70
     0
  0
APPID
  2
ACAD_DSTYLE_DIMTALN
 70
     0
  0
APPID
  2
ACDBATTR
 70
     0
  0
ENDTAB
  0
TABLE
  2
DIMSTYLE
 70
     1
  0
DIMSTYLE
  2
STANDARD
 70
     0
  3

  4

  5

  6

  7

 40
1.0
 41
0.1875
 42
0.0625
 43
0.38
 44
0.125
 45
0.0
 46
0.0
 47
0.01
 48
0.01
140
0.15625
141
0.09
142
0.0
143
25.3999999999999986
144
1.0
145
0.0
146
1.0
147
0.09
 71
     1
 72
     0
 73
     1
 74
     1
 75
     0
 76
     0
 77
     0
 78
     4
170
     0
171
     2
172
     0
173
     0
174
     0
175
     0
176
     0
177
     0
178
     0
  0
ENDTAB
  0
ENDSEC
  0
SECTION
  2
BLOCKS
  0
BLOCK
  8
0
  2
$MODEL_SPACE
 70
     0
 10
0.0
 20
0.0
 30
0.0
  3
$MODEL_SPACE
  1

  0
ENDBLK
  5
21
  8
0
  0
BLOCK
 67
     1
  8
0
  2
$PAPER_SPACE
 70
     0
 10
0.0
 20
0.0
 30
0.0
  3
$PAPER_SPACE
  1

  0
ENDBLK
  5
1D
 67
     1
  8
0
  0
BLOCK
  8
0
  2
_FILLED
 70
     0
 10
0.0
 20
0.0
 30
0.0
  3
_FILLED
  1

  0
SOLID
  5
4A4C7
  8
0
  6
BYBLOCK
 62
     0
 10
0.0
 20
0.0
 30
0.0
 11
-1.0
 21
0.1666666667
 31
0.0
 12
-1.0
 22
-0.1666666667
 32
0.0
 13
-1.0
 23
-0.1666666667
 33
0.0
  0
ENDBLK
  5
4A4C8
  8
0
  6
BYBLOCK
 62
     0
  0
ENDSEC
  0
SECTION
  2
ENTITIES
  0
ATTDEF
  5
4A06B
  8
DEFPOINTS
 10
2583.511427064694999
 20
153.6044042608843938
 30
0.0
 40
0.001
  1
K-EX27109T-4
  3

  2
MODELNUMBER
 70
     0
1001
ACDBATTR
1070
     0
1070
     1
  0
ATTDEF
  5
4A06C
  8
DEFPOINTS
 10
2583.511427064694999
 20
153.6027375942177002
 30
0.0
 40
0.001
  1
OCCASION
  3

  2
TRADENAME
 70
     0
1001
ACDBATTR
1070
     0
1070
     1
  0
ATTDEF
  5
4A06D
  8
DEFPOINTS
 10
2583.511427064694999
 20
153.6010709275510067
 30
0.0
 40
0.001
  1
BATH FAUCET WITH HANDSHOWER 
  3

  2
PRODUCT
 70
     0
1001
ACDBATTR
1070
     0
1070
     1
  0
LINE
  5
4A653
  8
0
 10
2582.869012865993227
 20
153.7240016651317092
 30
0.0
 11
2582.869012865993227
 21
145.0100964554827101
 31
0.0
  0
ARC
  5
4A654
  8
0
 10
2583.5136591326167945
 20
154.9829900031461989
 30
0.0
 40
0.0647887992911685
 50
93.0308710445152656
 51
106.5394473772091004
  0
ARC
  5
4A655
  8
0
 10
2584.4647173750190632
 20
152.2136183321703982
 30
0.0
 40
2.992860143304644
 50
108.9012644952553046
 51
143.1254033378675103
  0
ARC
  5
4A656
  8
0
 10
2582.1143817777838194
 20
153.9809301439231888
 30
0.0
 40
0.0523153409473775
 50
146.8593036976317023
 51
177.4810941567762086
  0
ARC
  5
4A657
  8
0
 10
2585.0596645173700381
 20
154.0308314340354912
 30
0.0
 40
2.9979254769446122
 50
180.9098001210184066
 51
215.1012459877007075
  0
ARC
  5
4A658
  8
0
 10
2583.5955432363680302
 20
155.4804296737607103
 30
0.0
 40
3.332642202679851
 50
253.1734104754789882
 51
257.4081563761831148
  0
ARC
  5
4A659
  8
0
 10
2582.644563025466141
 20
152.3359059939861879
 30
0.0
 40
0.0474645006079876
 50
217.585614840487608
 51
253.1734104754789882
  0
LINE
  5
4A65A
  8
0
 10
2582.869012865993227
 20
152.6418997830749902
 30
0.0
 11
2582.6166975210630881
 21
152.2974821409474941
 31
0.0
  0
LINE
  5
4A65B
  8
0
 10
2582.0645791288711735
 20
153.9969486038883986
 30
0.0
 11
2582.8703031305308286
 21
153.7330250792450101
 31
0.0
  0
ARC
  5
4A65C
  8
0
 10
2583.5102334636198975
 20
154.1605783677171928
 30
0.0
 40
0.0390000010145155
 50
89.9999628711902631
 51
106.5734011364930041
  0
ARC
  5
4A65D
  8
0
 10
2583.8294397611639397
 20
153.0880036725069999
 30
0.0
 40
1.1580661908339549
 50
106.5734011364930041
 51
145.4265988808124064
  0
ARC
  5
4A65E
  8
0
 10
2582.9080007784491499
 20
153.7230307101644939
 30
0.0
 40
0.0390000009134753
 50
145.4265988808110137
 51
178.5734007950154023
  0
ARC
  5
4A65F
  8
0
 10
2583.0111191109949687
 20
153.6897478033241953
 30
0.0
 40
0.0790168069850931
 50
145.8875479243974951
 51
178.7768682654553913
  0
ARC
  5
4A660
  8
0
 10
2583.8746499701719586
 20
153.0257716596655087
 30
0.0
 40
1.1681724010019729
 50
109.2713840144435977
 51
142.67586677193691
  0
ARC
  5
4A661
  8
0
 10
2583.5125343934651028
 20
154.0511627023319932
 30
0.0
 40
0.0807961517046088
 50
91.6318839931431768
 51
106.8584270494364006
  0
ARC
  5
4A662
  8
0
 10
2583.5103200768489842
 20
154.142685569447309
 30
0.0
 40
1.1637426954084831
 50
253.254097720390007
 51
269.9957369231890993
  0
ARC
  5
4A663
  8
0
 10
2583.1943583327952183
 20
153.0925874998266067
 30
0.0
 40
0.0671398595891788
 50
215.1950102562068139
 51
253.2540977203896091
  0
ARC
  5
4A664
  8
0
 10
2584.0670949579312037
 20
153.7081063303326118
 30
0.0
 40
1.135097090732885
 50
180.8415666356328018
 51
215.1943784728044022
  0
ARC
  5
4A665
  8
0
 10
2583.5102674673348702
 20
153.9924601187219082
 30
0.0
 40
0.0215427745255381
 50
90.0903700748603882
 51
111.5723223306538046
  0
ARC
  5
4A666
  8
0
 10
2583.9137316105648097
 20
152.9719860490442898
 30
0.0
 40
1.118880754255013
 50
111.5723223306538046
 51
140.4276099500854968
  0
ARC
  5
4A667
  8
0
 10
2583.0678116862140996
 20
153.6711055315441001
 30
0.0
 40
0.0214525929502448
 50
140.4276099500866906
 51
183.5712093567832994
  0
ARC
  5
4A668
  8
0
 10
2584.1630269486790894
 20
153.7394581380218028
 30
0.0
 40
1.1187987324836259
 50
183.5712093567832994
 51
212.4287428093126948
  0
ARC
  5
4A669
  8
0
 10
2583.2367994664150501
 20
153.1510043148767863
 30
0.0
 40
0.0214495397123582
 50
212.4287428093140875
 51
255.5724935383246077
  0
ARC
  5
4A66A
  8
0
 10
2583.5156375207520796
 20
154.2348464223744031
 30
0.0
 40
1.1405850875937289
 50
255.5724935383246077
 51
269.7285346093652265
  0
LINE
  5
4A66B
  8
0
 10
2583.2241877982969527
 20
153.1336460354903011
 30
0.0
 11
2583.1571793121929659
 21
153.036575287631706
 31
0.0
  0
LINE
  5
4A66C
  8
0
 10
2582.9359070627970141
 20
153.7139718325522892
 30
0.0
 11
2583.0474028569660732
 21
153.6777376812366072
 31
0.0
  0
LINE
  5
4A66D
  8
0
 10
2583.5102334888929363
 20
154.1319260849284944
 30
0.0
 11
2583.5102336349341385
 21
154.0140028664507952
 31
0.0
  0
LINE
  5
4A66E
  8
0
 10
2583.5102334588050326
 20
154.199578368731693
 30
0.0
 11
2583.5102334588050326
 21
155.0476881748861047
 31
0.0
  0
ARC
  5
4A66F
  8
0
 10
2582.8428623394729584
 20
154.4477337075068135
 30
0.0
 40
0.1644805459097936
 50
126.3732047282391022
 51
161.7014624032860013
  0
ARC
  5
4A670
  8
0
 10
2582.8608574958980171
 20
154.4417828880604873
 30
0.0
 40
0.1834341183131095
 50
161.7014624032860013
 51
189.5823409260356982
  0
ARC
  5
4A671
  8
0
 10
2582.8017108169538005
 20
154.4317977261902115
 30
0.0
 40
0.1234505114891019
 50
189.5823409260356982
 51
226.5656910624842055
  0
ARC
  5
4A672
  8
0
 10
2582.7750296953868201
 20
154.4036170524676095
 30
0.0
 40
0.0846428753903661
 50
226.5656910624842055
 51
264.4483325122731117
  0
ARC
  5
4A673
  8
0
 10
2582.7828768756940008
 20
154.484349978054297
 30
0.0
 40
0.1657562744842545
 50
264.4483325122731117
 51
294.1063907126394952
  0
ARC
  5
4A674
  8
0
 10
2582.7279726779238445
 20
154.6070531296527975
 30
0.0
 40
0.3001829621059459
 50
294.1063907126394952
 51
310.7464725707420143
  0
ARC
  5
4A675
  8
0
 10
2582.7811931274509334
 20
154.5452800673191973
 30
0.0
 40
0.2186456854903857
 50
310.7464725707420143
 51
333.1832548284468771
  0
ARC
  5
4A676
  8
0
 10
2582.8781876998459666
 20
154.4962489972849085
 30
0.0
 40
0.1099626927880621
 50
333.1832548284455129
 51
4.5515308340442919
  0
ARC
  5
4A677
  8
0
 10
2582.8968500431501525
 20
154.4977346453086113
 30
0.0
 40
0.0912413090872581
 50
4.5515308340442919
 51
37.3429105533630974
  0
ARC
  5
4A678
  8
0
 10
2582.8391711353551727
 20
154.4501899175322137
 30
0.0
 40
0.1603209980051551
 50
104.354126805642295
 51
125.831615297439896
  0
ARC
  5
4A679
  8
0
 10
2582.8429729274380406
 20
154.4353335447779045
 30
0.0
 40
0.1756561026496348
 50
80.1174525231071755
 51
104.354126805642295
  0
ARC
  5
4A67A
  8
0
 10
2582.843209752572875
 20
154.436692936304695
 30
0.0
 40
0.1742762361822556
 50
57.6653144015970227
 51
80.1174525231071755
  0
ARC
  5
4A67B
  8
0
 10
2582.8718630653102082
 20
154.4819573032555979
 30
0.0
 40
0.1207050195983252
 50
36.1022917924224132
 51
57.6653144015961487
  0
ARC
  5
4A67C
  8
0
 10
2582.8672258304459319
 20
154.4414078136449007
 30
0.0
 40
0.1521761603188757
 50
49.1109358997722012
 51
62.5919976375394782
  0
ARC
  5
4A67D
  8
0
 10
2582.8572011252199445
 20
154.4220748060832875
 30
0.0
 40
0.17395366927278
 50
62.5919976375394782
 51
83.9358616337489565
  0
ARC
  5
4A67E
  8
0
 10
2582.8548277353111189
 20
154.3997341087932114
 30
0.0
 40
0.1964200827620012
 50
83.9358616337489565
 51
105.2623803953042056
  0
ARC
  5
4A67F
  8
0
 10
2582.8411330152948722
 20
154.4499230229716886
 30
0.0
 40
0.1443963145138789
 50
105.2623803953046036
 51
136.666241757603899
  0
ARC
  5
4A680
  8
0
 10
2582.8657615469251141
 20
154.4266868565441939
 30
0.0
 40
0.1782560841604979
 50
136.666241757603899
 51
157.4328296821610138
  0
ARC
  5
4A681
  8
0
 10
2582.8686386223421323
 20
154.4254911793435951
 30
0.0
 40
0.1813717232476339
 50
157.4328296821610138
 51
179.9468112847893053
  0
ARC
  5
4A682
  8
0
 10
2582.8641167705409316
 20
154.425495377062191
 30
0.0
 40
0.1768498694982823
 50
179.9468112847908969
 51
195.76269806414291
  0
ARC
  5
4A683
  8
0
 10
2582.8008168523060704
 20
154.4076278082517035
 30
0.0
 40
0.111076549195061
 50
195.7626980641443879
 51
203.4274979702479982
  0
LINE
  5
4A684
  8
0
 10
2583.5102334888929363
 20
152.9789428767388131
 30
0.0
 11
2583.5102334888929363
 21
144.5567953477566903
 31
0.0
  0
ARC
  5
4A685
  8
0
 10
2583.5101967367090765
 20
144.5968008009701009
 30
0.0
 40
0.0400054700951001
 50
254.4387004160903132
 51
270.052636433929024
  0
ARC
  5
4A686
  8
0
 10
2583.8101742973058208
 20
145.6740082813236086
 30
0.0
 40
1.1582015587089449
 50
216.2596564137824942
 51
254.4387004160898016
  0
ARC
  5
4A687
  8
0
 10
2582.9065245956080616
 20
145.0111907007263028
 30
0.0
 40
0.0375276861982598
 50
181.6708869645964057
 51
216.2596564137824942
  0
ARC
  5
4A688
  8
0
 10
2595.3347532398679505
 20
154.7564275836002992
 30
0.0
 40
0.1242042379110925
 50
96.2381340446754052
 51
105.1863301691704038
  0
ARC
  5
4A689
  8
0
 10
2596.0698133819678333
 20
152.497054589333402
 30
0.0
 40
2.4999973923050591
 50
107.880873617938903
 51
144.1191249171151014
  0
ARC
  5
4A68A
  8
0
 10
2595.3293676109551598
 20
154.8299560116342946
 30
0.0
 40
2.5301606347511041
 50
251.9110838448058018
 51
257.6858697492880879
  0
ARC
  5
4A68B
  8
0
 10
2594.5629928460170959
 20
152.483692556256301
 30
0.0
 40
0.0619056879564208
 50
216.0852377777243021
 51
251.9110838448058018
  0
ARC
  5
4A68C
  8
0
 10
2596.5369797284520246
 20
153.9223696523293086
 30
0.0
 40
2.504530505400218
 50
180.135380410033406
 51
216.0852377777243021
  0
ARC
  5
4A68D
  8
0
 10
2594.1268284965299245
 20
153.9166748547017107
 30
0.0
 40
0.0943725455445702
 50
151.0830341109628989
 51
180.135380410033406
  0
ARC
  5
4A68E
  8
0
 10
2595.3236946832321337
 20
154.7568059315599953
 30
0.0
 40
0.0370285132500951
 50
93.7745315928925152
 51
104.4441121539202015
  0
ARC
  5
4A68F
  8
0
 10
2596.0702361073490465
 20
152.496470477272311
 30
0.0
 40
2.417375574663319
 50
108.2186347243253977
 51
143.7813139608632866
  0
ARC
  5
4A690
  8
0
 10
2594.1375189137670532
 20
153.9119738238075001
 30
0.0
 40
0.0217450784427947
 50
143.7813139608607003
 51
180.2182982745368918
  0
ARC
  5
4A691
  8
0
 10
2596.5330939920609126
 20
153.9211010656568135
 30
0.0
 40
2.4173375442610889
 50
180.2182982745368918
 51
215.781557283265812
  0
ARC
  5
4A692
  8
0
 10
2594.5896644783169904
 20
152.5204062310224913
 30
0.0
 40
0.0217448629690673
 50
215.781557283265812
 51
252.2262091899702057
  0
ARC
  5
4A693
  8
0
 10
2595.3242874541938363
 20
154.8120900120306942
 30
0.0
 40
2.4282953961643701
 50
252.2262091899702057
 51
257.2835771711095276
  0
ARC
  5
4A694
  8
0
 10
2595.3212570856931052
 20
153.5273534491317093
 30
0.0
 40
0.5315007056946253
 50
90.0000003180025345
 51
211.5871520278894025
  0
ARC
  5
4A695
  8
0
 10
2595.3212570856931052
 20
153.5273534491317093
 30
0.0
 40
0.4527559055000015
 50
90.0000003733175475
 51
193.9720807279263113
  0
ARC
  5
4A696
  8
0
 10
2595.3372296331740472
 20
153.1061996539800134
 30
0.0
 40
0.6089009618430486
 50
91.5031421726310441
 51
121.5206397044342026
  0
ARC
  5
4A697
  8
0
 10
2595.1721805317802136
 20
153.3929450671951997
 30
0.0
 40
0.2783282976191084
 50
123.4181037149986935
 51
166.103754331071201
  0
ARC
  5
4A698
  8
0
 10
2595.3690655392288136
 20
152.7733705366964045
 30
0.0
 40
0.8871842174886069
 50
93.0890430666207038
 51
107.304539273218893
  0
ARC
  5
4A699
  8
0
 10
2595.2531486260459133
 20
153.2243903271956924
 30
0.0
 40
0.4227521631466172
 50
110.4892294815339966
 51
146.1634384714602106
  0
ARC
  5
4A69A
  8
0
 10
2595.0381088709841606
 20
153.3685456977509887
 30
0.0
 40
0.1638644131134301
 50
146.1634384714602106
 51
166.379317833159206
  0
ARC
  5
4A69B
  8
0
 10
2595.1728700756980288
 20
153.2244908413354096
 30
0.0
 40
0.3459003664798184
 50
129.9027644080221933
 51
151.6341946009393098
  0
ARC
  5
4A69C
  8
0
 10
2595.5022081340821387
 20
152.5508413662938096
 30
0.0
 40
1.088841888877728
 50
104.0008017975222003
 51
120.4145067780536067
  0
ARC
  5
4A69D
  8
0
 10
2595.321210943126971
 20
152.9335818812602952
 30
0.0
 40
0.6787783983395363
 50
89.9961053485610165
 51
96.9753387036235353
  0
ARC
  5
4A69E
  8
0
 10
2595.3212570861628592
 20
152.7623150425754091
 30
0.0
 40
0.679284313671039
 50
90.0000002884821271
 51
96.9740388755862739
  0
ARC
  5
4A69F
  8
0
 10
2594.6882600387111779
 20
154.3738360813480028
 30
0.0
 40
1.0869829190834961
 50
283.9866693215840883
 51
300.428639262095885
  0
ARC
  5
4A6A0
  8
0
 10
2595.1666070268329349
 20
153.0588418027217017
 30
0.0
 40
0.3379632026412041
 50
129.6443633815044052
 51
151.8925956273718896
  0
LINE
  5
4A6A1
  8
0
 10
2594.8685011800930624
 20
153.3888278089318078
 30
0.0
 11
2594.8685011800930624
 21
153.0848104223503015
 31
0.0
  0
ARC
  5
4A6A2
  8
0
 10
2595.0935801857490333
 20
153.0107569032686001
 30
0.0
 40
0.2369482696191265
 50
161.7882141866687959
 51
175.2932418916568054
  0
ARC
  5
4A6A3
  8
0
 10
2595.1802696172649121
 20
152.9822351073229925
 30
0.0
 40
0.3282091614651443
 50
134.33654451718769
 51
161.7882141866687959
  0
ARC
  5
4A6A4
  8
0
 10
2595.2579600952940382
 20
152.9027242376573099
 30
0.0
 40
0.4393747531359563
 50
106.7493120250023964
 51
134.3365445171864963
  0
ARC
  5
4A6A5
  8
0
 10
2595.3325285186951987
 20
152.6549497261192982
 30
0.0
 40
0.6981268706855384
 50
90.9250951316819709
 51
106.7493123575829941
  0
ARC
  5
4A6A6
  8
0
 10
2593.8957821225940279
 20
153.1130212795185059
 30
0.0
 40
0.9652087262632253
 50
348.2791212271162067
 51
355.0775876041900005
  0
ARC
  5
4A6A7
  8
0
 10
2450.9192107873268469
 20
182.7763854557684056
 30
0.0
 40
146.9864918497910082
 50
348.2220514003241192
 51
348.2791212271162067
  0
ARC
  5
4A6A8
  8
0
 10
2595.8028377403561535
 20
152.5664698139742939
 30
0.0
 40
1.013185103068176
 50
168.2032701405580895
 51
179.1772854729310041
  0
LINE
  5
4A6A9
  8
0
 10
2594.7897570863160581
 20
152.5810177172558895
 30
0.0
 11
2594.7897570863160581
 21
150.5753103724752862
 31
0.0
  0
ARC
  5
4A6AA
  8
0
 10
2593.8866356218850342
 20
150.5952903072619904
 30
0.0
 40
0.9033424474200955
 50
350.0684102784121023
 51
358.7326408739500039
  0
ARC
  5
4A6AB
  8
0
 10
2595.3308702596368676
 20
149.7301924975120073
 30
0.0
 40
0.9043245311992937
 50
90.6090787308623362
 51
119.7099877844188001
  0
ARC
  5
4A6AC
  8
0
 10
2595.2533489469151391
 20
149.8863371375587974
 30
0.0
 40
0.7303547534201239
 50
120.4989060750202015
 51
130.7667605790481957
  0
ARC
  5
4A6AD
  8
0
 10
2595.2762460684589314
 20
149.8597794341432916
 30
0.0
 40
0.765420260484966
 50
130.7667605790481957
 51
144.6283670741900096
  0
ARC
  5
4A6AE
  8
0
 10
2595.1779127445670383
 20
149.929588043251897
 30
0.0
 40
0.6448272072303192
 50
144.6283670741900096
 51
168.3341111615715988
  0
ARC
  5
4A6AF
  8
0
 10
2595.1694621707811166
 20
149.9313328267683971
 30
0.0
 40
0.6361983911569226
 50
168.3341111615715988
 51
193.6910949278127987
  0
ARC
  5
4A6B0
  8
0
 10
2595.1912675951280107
 20
149.9366448259214053
 30
0.0
 40
0.6586415162951555
 50
193.6910949278127987
 51
226.3871734460936977
  0
ARC
  5
4A6B1
  8
0
 10
2595.3165849104248082
 20
150.0681819946827034
 30
0.0
 40
0.8403183069943867
 50
226.3871734460936977
 51
247.7220552799795996
  0
ARC
  5
4A6B2
  8
0
 10
2595.3200159504999647
 20
150.0991265196194888
 30
0.0
 40
0.8702957672561678
 50
248.2853561920543939
 51
270.0817097659370916
  0
ARC
  5
4A6B3
  8
0
 10
2595.3564480576628739
 20
149.7364217922190051
 30
0.0
 40
0.8603153519208323
 50
101.9094438925084063
 51
123.0805187988621014
  0
ARC
  5
4A6B4
  8
0
 10
2595.3210310961680989
 20
149.8175125021637939
 30
0.0
 40
0.7738687986830078
 50
92.0669838790685162
 51
100.5825410756490044
  0
ARC
  5
4A6B5
  8
0
 10
2595.2933540376561723
 20
150.5727067931678107
 30
0.0
 40
0.0181725008386868
 50
1.941982435476354
 51
90.7400810621949887
  0
ARC
  5
4A6B6
  8
0
 10
2576.5454449058011051
 20
150.2925450009921065
 30
0.0
 40
18.7681715725891216
 50
359.7142505326473838
 51
0.8571944411019321
  0
ARC
  5
4A6B7
  8
0
 10
2596.277984776987978
 20
150.1758654159528135
 30
0.0
 40
0.9648777382738085
 50
178.6294625382732875
 51
181.3705374617267125
  0
ARC
  5
4A6B8
  8
0
 10
2595.2993521326980044
 20
150.1524516743967013
 30
0.0
 40
0.0140349522988326
 50
336.5056969899085857
 51
1.3705374617283539
  0
ARC
  5
4A6B9
  8
0
 10
2595.2619779031329017
 20
149.9462374424219036
 30
0.0
 40
0.2373994429728265
 50
181.122100654757503
 51
208.3485994007581894
  0
ARC
  5
4A6BA
  8
0
 10
2595.2641072838300715
 20
149.946279150293293
 30
0.0
 40
0.2395292320934121
 50
144.7497327298748928
 51
181.122100654757503
  0
ARC
  5
4A6BB
  8
0
 10
2595.3052035396581232
 20
149.9172349007367018
 30
0.0
 40
0.2898528912941587
 50
112.4042118061086057
 51
144.7497327298748928
  0
ARC
  5
4A6BC
  8
0
 10
2595.3230111130301339
 20
149.8740395021524989
 30
0.0
 40
0.3365749645384608
 50
95.8947002370344563
 51
112.4042118061086057
  0
ARC
  5
4A6BD
  8
0
 10
2595.3130010259569644
 20
149.9709928200929028
 30
0.0
 40
0.239106263393661
 50
94.2464420260146625
 51
95.8947002370344563
  0
ARC
  5
4A6BE
  8
0
 10
2595.2938229731080355
 20
150.229281717539294
 30
0.0
 40
0.0198936444349299
 50
274.2464420260146767
 51
351.532188447628414
  0
ARC
  5
4A6BF
  8
0
 10
2595.3183954593359886
 20
149.8671972043852918
 30
0.0
 40
0.2797274217383589
 50
91.2642705283364108
 51
98.5539525541666848
  0
ARC
  5
4A6C0
  8
0
 10
2595.3195908503830651
 20
149.8592498558390957
 30
0.0
 40
0.287764169132136
 50
98.5539525541666848
 51
149.7392567825590106
  0
ARC
  5
4A6C1
  8
0
 10
2595.2302039754467842
 20
149.9114012037377108
 30
0.0
 40
0.1842761191042291
 50
149.7392567825604033
 51
175.3382514106801011
  0
ARC
  5
4A6C2
  8
0
 10
2595.3034848145348406
 20
149.9054256732974864
 30
0.0
 40
0.2578001855151984
 50
175.3382514106801011
 51
205.4392324114807025
  0
ARC
  5
4A6C3
  8
0
 10
2595.2338918840719089
 20
149.8723221044853915
 30
0.0
 40
0.1807351335224706
 50
205.4392324114807025
 51
222.9154985355447138
  0
ARC
  5
4A6C4
  8
0
 10
2595.3351980932579863
 20
149.9665127229908137
 30
0.0
 40
0.3190638024026093
 50
222.9154985355447138
 51
245.7338736367420893
  0
ARC
  5
4A6C5
  8
0
 10
2595.3208243551648593
 20
149.9574865950795015
 30
0.0
 40
0.3050725868778398
 50
247.4984896002706023
 51
270.0810996537180131
  0
ARC
  5
4A6C6
  8
0
 10
2595.2631747137547791
 20
149.8728744262060957
 30
0.0
 40
0.2372178450741692
 50
165.3302744338820958
 51
172.1777841438562859
  0
ARC
  5
4A6C7
  8
0
 10
2595.2710049125539626
 20
149.8708246335363015
 30
0.0
 40
0.2453118961757501
 50
144.5389162836758032
 51
165.3302744338820958
  0
ARC
  5
4A6C8
  8
0
 10
2595.2775192982257977
 20
149.8661846400680133
 30
0.0
 40
0.2533098184100582
 50
131.7937028594722904
 51
144.5389162836758032
  0
ARC
  5
4A6C9
  8
0
 10
2595.0372025839101298
 20
149.8279837739835898
 30
0.0
 40
0.0167811200038876
 50
352.337227287777182
 51
18.7856638686557602
  0
ARC
  5
4A6CA
  8
0
 10
2595.0378048887009754
 20
149.8279027376404997
 30
0.0
 40
0.0161733881949984
 50
296.1062189068316002
 51
352.337227287777182
  0
LINE
  5
4A6CB
  8
0
 10
2595.0449217720929482
 20
149.8133793614317142
 30
0.0
 11
2594.7304461786029606
 21
149.6763009366360961
 31
0.0
  0
ARC
  5
4A6CC
  8
0
 10
2594.7224083076139323
 20
149.6965151567247005
 30
0.0
 40
0.021753667975507
 50
219.9656075329484111
 51
291.6844743702358755
  0
ARC
  5
4A6CD
  8
0
 10
2595.2827099909250137
 20
149.9140477032127023
 30
0.0
 40
0.6721548643694978
 50
126.0794897553228964
 51
142.2723572832082937
  0
ARC
  5
4A6CE
  8
0
 10
2595.1749684824608266
 20
149.9845517452382069
 30
0.0
 40
0.5438919924173292
 50
141.2015447565960926
 51
159.0154701218800142
  0
ARC
  5
4A6CF
  8
0
 10
2595.210701083190088
 20
149.9655394107232951
 30
0.0
 40
0.5840843416487244
 50
158.5294061776598085
 51
183.2505114441823082
  0
ARC
  5
4A6D0
  8
0
 10
2595.1865214121330609
 20
149.9710825326604891
 30
0.0
 40
0.5603004283517686
 50
183.9566517032820911
 51
200.9522185614090972
  0
ARC
  5
4A6D1
  8
0
 10
2596.833443377761796
 20
150.7615176344849033
 30
0.0
 40
2.3856504896696489
 50
204.5390518905657871
 51
206.8898845572716141
  0
ARC
  5
4A6D2
  8
0
 10
2595.0629849458528042
 20
149.7398229842322905
 30
0.0
 40
0.0189103556500938
 50
40.7634056984909989
 51
113.6433056995153947
  0
ARC
  5
4A6D3
  8
0
 10
2595.37414408959512
 20
150.0080617367680986
 30
0.0
 40
0.3919083891707026
 50
220.7634056984909989
 51
233.1986142992466
  0
ARC
  5
4A6D4
  8
0
 10
2595.3160739288728109
 20
149.953830093295096
 30
0.0
 40
0.314010398787459
 50
235.7559151568486016
 51
257.4083950387441746
  0
ARC
  5
4A6D5
  8
0
 10
2595.3211780684491714
 20
149.9726801268024019
 30
0.0
 40
0.3335209085456358
 50
257.2585819816944195
 51
270.0135730474646039
  0
ARC
  5
4A6D6
  8
0
 10
2593.3502046870908089
 20
153.5231480548648904
 30
0.0
 40
4.1340617186915223
 50
293.4967368338205915
 51
294.3603950983713844
  0
ARC
  5
4A6D7
  8
0
 10
2610.6539791224781766
 20
113.7209924763276945
 30
0.0
 40
39.2667700522412702
 50
113.4967368338207052
 51
113.9051891547146056
  0
ARC
  5
4A6D8
  8
0
 10
2594.7495424706407903
 20
149.6026198881880873
 30
0.0
 40
0.0183014077720851
 50
113.9051891547139945
 51
153.8324045429546914
  0
ARC
  5
4A6D9
  8
0
 10
2594.7472301317848178
 20
149.6037560759901055
 30
0.0
 40
0.0157250084035637
 50
153.832404542950286
 51
191.4164763455331979
  0
ARC
  5
4A6DA
  8
0
 10
2594.7574068263252229
 20
149.6058111031869089
 30
0.0
 40
0.0261071203543474
 50
191.4164763455331979
 51
206.3886141986772884
  0
ARC
  5
4A6DB
  8
0
 10
2595.3202678906391156
 20
150.07469962852511
 30
0.0
 40
0.7685436851464813
 50
250.658758096332491
 51
270.0737453828622847
  0
ARC
  5
4A6DC
  8
0
 10
2595.3036432364528991
 20
150.0273363873720029
 30
0.0
 40
0.7183475125899496
 50
229.7793975408843039
 51
250.658758096332491
  0
ARC
  5
4A6DD
  8
0
 10
2595.2392059543999494
 20
149.9511407533397005
 30
0.0
 40
0.6185580443886284
 50
215.2426670549621974
 51
229.7793975408843039
  0
LINE
  5
4A6DE
  8
0
 10
2594.7167353583899967
 20
149.6755142110912971
 30
0.0
 11
2594.7167353583899967
 21
149.5991146266279088
 31
0.0
  0
LINE
  5
4A6DF
  8
0
 10
2595.0540093787931255
 20
149.8286156830316997
 30
0.0
 11
2595.0554011078929761
 21
149.7571460022317069
 31
0.0
  0
ARC
  5
4A6E0
  8
0
 10
2595.175389062494105
 20
149.9276238978956997
 30
0.0
 40
0.5627706816508585
 50
158.944279163757102
 51
172.6621372272616952
  0
ARC
  5
4A6E1
  8
0
 10
2595.1752553757778514
 20
149.9276411133606075
 30
0.0
 40
0.5626358910348844
 50
172.6621372272616952
 51
192.9180429401326933
  0
ARC
  5
4A6E2
  8
0
 10
2595.1893372925469521
 20
149.930870970311787
 30
0.0
 40
0.5770834636968745
 50
192.9180429401326933
 51
209.258769800702396
  0
ARC
  5
4A6E3
  8
0
 10
2595.2390977686040969
 20
149.9587481819158086
 30
0.0
 40
0.6341206787782956
 50
209.258769800702396
 51
221.9035708847956982
  0
ARC
  5
4A6E4
  8
0
 10
2595.2737102317241806
 20
149.9898080629463095
 30
0.0
 40
0.6806259345331139
 50
221.9035708847945045
 51
245.6877886065979055
  0
ARC
  5
4A6E5
  8
0
 10
2595.3301545909657762
 20
150.119002629023214
 30
0.0
 40
0.8216034472584716
 50
245.8099595165454048
 51
269.3795064565052826
  0
ARC
  5
4A6E6
  8
0
 10
2595.145748443796947
 20
149.866139458527698
 30
0.0
 40
0.5362571479497255
 50
164.8990807470927962
 51
173.7971677405909929
  0
LINE
  5
4A6E7
  8
0
 10
2594.6167682891291406
 20
149.9541833379007016
 30
0.0
 11
2594.6266845847508193
 21
149.9566372924016093
 31
0.0
  0
ARC
  5
4A6E8
  8
0
 10
2595.3198746469729485
 20
149.7520938362355025
 30
0.0
 40
0.8332386148318168
 50
88.8951006617866142
 51
90.9178758141926551
  0
ARC
  5
4A6E9
  8
0
 10
2595.3212767481609262
 20
150.3980368456450094
 30
0.0
 40
0.1546421293630322
 50
267.1369776307653865
 51
272.8484338519435823
  0
LINE
  5
4A6EA
  8
0
 10
2595.0404087038409671
 20
149.9544512644077088
 30
0.0
 11
2595.0513051698071649
 21
149.9555928931468998
 31
0.0
  0
LINE
  5
4A6EB
  8
0
 10
2595.0838263524660761
 20
150.0294295691338959
 30
0.0
 11
2595.0842565599841691
 21
150.0248577928429938
 31
0.0
  0
LINE
  5
4A6EC
  8
0
 10
2595.2387786556928404
 20
153.607336311331693
 30
0.0
 11
2595.2387786556928404
 21
153.4365735147555938
 31
0.0
  0
LINE
  5
4A6ED
  8
0
 10
2594.9509796100928725
 20
153.4898428430317097
 30
0.0
 11
2594.9509796100928725
 21
153.3190800464317078
 31
0.0
  0
LINE
  5
4A6EE
  8
0
 10
2594.0354170677451293
 20
153.9401296631641003
 30
0.0
 11
2594.1165562825840425
 21
153.9177545270862026
 31
0.0
  0
LINE
  5
4A6EF
  8
0
 10
2594.5266039879697928
 20
152.4336109707039952
 30
0.0
 11
2594.5768843608798306
 21
152.5028134011240013
 31
0.0
  0
LINE
  5
4A6F0
  8
0
 10
2595.3212570827431591
 20
154.8798963912317106
 30
0.0
 11
2595.3212570827431591
 21
154.7937541236316861
 31
0.0
  0
ARC
  5
4A6F1
  8
0
 10
2595.3191345255008855
 20
148.3031494813417908
 30
0.0
 40
2.8289228203596331
 50
246.0541526500622069
 51
270.0429893605522125
  0
ARC
  5
4A6F2
  8
0
 10
2595.1878533564440659
 20
148.0075352294377922
 30
0.0
 40
2.5054687567310712
 50
214.4399098278807116
 51
246.0541498416224897
  0
ARC
  5
4A6F3
  8
0
 10
2594.8049829709120786
 20
147.7449864928395016
 30
0.0
 40
2.0412257479453921
 50
187.2602129396753128
 51
214.4399098278807116
  0
ARC
  5
4A6F4
  8
0
 10
2594.9952927837580319
 20
147.7692314313293878
 30
0.0
 40
2.2330737135527992
 50
179.8338160814369076
 51
187.2602129396753128
  0
ARC
  5
4A6F5
  8
0
 10
2596.6038470710191177
 20
147.7645658764392067
 30
0.0
 40
3.8416347669387738
 50
164.4429033879245026
 51
179.8338160814369076
  0
ARC
  5
4A6F6
  8
0
 10
2595.1128901723081981
 20
147.9946706251838862
 30
0.0
 40
2.350352306900076
 50
126.8992296694169966
 51
160.0947068295297981
  0
ARC
  5
4A6F7
  8
0
 10
2595.2590612010899349
 20
147.8172499582015007
 30
0.0
 40
2.5800176228691312
 50
112.0764642877185935
 51
127.1294524837285991
  0
ARC
  5
4A6F8
  8
0
 10
2595.323513173381798
 20
147.6600955598069049
 30
0.0
 40
2.7498738904716351
 50
103.6627145202754008
 51
112.090238257193505
  0
LINE
  5
4A6F9
  8
0
 10
2584.1514541117931003
 20
153.7240016651317092
 30
0.0
 11
2584.1514541117931003
 21
145.0100964554827101
 31
0.0
  0
ARC
  5
4A6FA
  8
0
 10
2583.5068078451681686
 20
154.9829900031461989
 30
0.0
 40
0.0647887992911685
 50
73.4605526227909138
 51
86.9691289554847344
  0
ARC
  5
4A6FB
  8
0
 10
2582.5557496027668094
 20
152.2136183321703982
 30
0.0
 40
2.992860143304644
 50
36.874596662132447
 51
71.098735504744667
  0
ARC
  5
4A6FC
  8
0
 10
2584.9060852000011437
 20
153.9809301439231888
 30
0.0
 40
0.0523153409473775
 50
2.518905843223791
 51
33.1406963023682621
  0
ARC
  5
4A6FD
  8
0
 10
2581.960802460414925
 20
154.0308314340354912
 30
0.0
 40
2.9979254769446122
 50
324.8987540122993209
 51
359.0901998789814797
  0
ARC
  5
4A6FE
  8
0
 10
2583.4249237414169329
 20
155.4804296737607103
 30
0.0
 40
3.332642202679851
 50
282.5918436238168852
 51
286.8265895245208981
  0
ARC
  5
4A6FF
  8
0
 10
2584.3759039523188221
 20
152.3359059939861879
 30
0.0
 40
0.0474645006079876
 50
286.8265895245208981
 51
322.4143851595122783
  0
LINE
  5
4A700
  8
0
 10
2584.1514541117931003
 20
152.6418997830749902
 30
0.0
 11
2584.403769456721875
 21
152.2974821409474941
 31
0.0
  0
LINE
  5
4A701
  8
0
 10
2584.9558878489151539
 20
153.9969486038883986
 30
0.0
 11
2584.1501638472550439
 21
153.7330250792450101
 31
0.0
  0
ARC
  5
4A702
  8
0
 10
2583.5102335141650656
 20
154.1605783677171928
 30
0.0
 40
0.0390000010145155
 50
73.4265988635069675
 51
90.0000371288097369
  0
ARC
  5
4A703
  8
0
 10
2583.1910272166210234
 20
153.0880036725069999
 30
0.0
 40
1.1580661908339549
 50
34.5734011191876078
 51
73.4265988635069675
  0
ARC
  5
4A704
  8
0
 10
2584.1124661993358131
 20
153.7230307101644939
 30
0.0
 40
0.0390000009134753
 50
1.4265992049846461
 51
34.5734011191889508
  0
ARC
  5
4A705
  8
0
 10
2584.0092048491601417
 20
153.6896781030627039
 30
0.0
 40
0.0791743092076188
 50
1.641448350159902
 51
34.0961699682005488
  0
ARC
  5
4A706
  8
0
 10
2583.145817007613914
 20
153.0257716596655087
 30
0.0
 40
1.1681724010019729
 50
37.3241332280631468
 51
70.7286159855563881
  0
ARC
  5
4A707
  8
0
 10
2583.5079325843198603
 20
154.0511627023319932
 30
0.0
 40
0.0807961517046088
 50
73.1415729505635426
 51
88.3681160068568232
  0
ARC
  5
4A708
  8
0
 10
2583.5101469009359789
 20
154.142685569447309
 30
0.0
 40
1.1637426954084831
 50
270.0042630768109007
 51
286.745902279609993
  0
ARC
  5
4A709
  8
0
 10
2583.8261086449901995
 20
153.0925874998266067
 30
0.0
 40
0.0671398595891788
 50
286.745902279609993
 51
324.8049897437931008
  0
ARC
  5
4A70A
  8
0
 10
2582.9534469031691515
 20
153.7080688319946091
 30
0.0
 40
1.1350142838009101
 50
324.8049897437931008
 51
359.186090016828814
  0
ARC
  5
4A70B
  8
0
 10
2583.5101995104500929
 20
153.9924601187219082
 30
0.0
 40
0.0215427745255381
 50
68.4276776693462381
 51
89.909629925139626
  0
ARC
  5
4A70C
  8
0
 10
2583.1067353672201534
 20
152.9719860490442898
 30
0.0
 40
1.118880754255013
 50
39.5723900499145103
 51
68.4276776693462381
  0
ARC
  5
4A70D
  8
0
 10
2583.952655291571773
 20
153.6711055315441001
 30
0.0
 40
0.0214525929502448
 50
356.4287906432165869
 51
39.5723900499132526
  0
ARC
  5
4A70E
  8
0
 10
2582.8574400291067832
 20
153.7394581380218028
 30
0.0
 40
1.1187987324836259
 50
327.5712571906872768
 51
356.4287906432165869
  0
ARC
  5
4A70F
  8
0
 10
2583.7836675113708225
 20
153.1510043148767863
 30
0.0
 40
0.0214495397123582
 50
284.4275064616754207
 51
327.5712571906844914
  0
ARC
  5
4A710
  8
0
 10
2583.5048294570328835
 20
154.2348464223744031
 30
0.0
 40
1.1405850875937289
 50
270.2714653906347735
 51
284.4275064616754207
  0
LINE
  5
4A711
  8
0
 10
2583.7962791794889199
 20
153.1336460354903011
 30
0.0
 11
2583.8632876655929067
 21
153.036575287631706
 31
0.0
  0
LINE
  5
4A712
  8
0
 10
2584.084559914987949
 20
153.7139718325522892
 30
0.0
 11
2583.9730641208197994
 21
153.6777376812366072
 31
0.0
  0
ARC
  5
4A713
  8
0
 10
2583.5102702410758866
 20
144.5968008009701009
 30
0.0
 40
0.0400054700951001
 50
269.947363566070976
 51
285.5612995839097152
  0
ARC
  5
4A714
  8
0
 10
2583.2102926804791423
 20
145.6740082813236086
 30
0.0
 40
1.1582015587089449
 50
285.5612995839097152
 51
323.7403435862174774
  0
ARC
  5
4A715
  8
0
 10
2584.1139423821769014
 20
145.0111907007263028
 30
0.0
 40
0.0375276861982598
 50
323.7403435862174774
 51
358.3291130354036227
  0
ARC
  5
4A716
  8
0
 10
2595.3165852013457879
 20
154.8030741549661116
 30
0.0
 40
0.0769641634829266
 50
72.0556456879966731
 51
86.5198900981790615
  0
ARC
  5
4A717
  8
0
 10
2594.5727007835180302
 20
152.497054589333402
 30
0.0
 40
2.4999973923050591
 50
35.8808750828848417
 51
72.1191263820610544
  0
ARC
  5
4A718
  8
0
 10
2595.3131465545311585
 20
154.8299560116342946
 30
0.0
 40
2.5301606347511041
 50
282.3141302507119121
 51
288.0889161551942266
  0
ARC
  5
4A719
  8
0
 10
2596.0795213194692224
 20
152.483692556256301
 30
0.0
 40
0.0619056879564208
 50
288.0889161551942266
 51
323.9147622222757263
  0
ARC
  5
4A71A
  8
0
 10
2594.1055344370329294
 20
153.9223696523293086
 30
0.0
 40
2.504530505400218
 50
323.9147622222757263
 51
359.8646195899648887
  0
ARC
  5
4A71B
  8
0
 10
2596.5156856689550295
 20
153.9166748547017107
 30
0.0
 40
0.0943725455445702
 50
359.8646195899648887
 51
28.9169658890370087
  0
ARC
  5
4A71C
  8
0
 10
2595.3196637378059677
 20
154.7620713094121072
 30
0.0
 40
0.0317228539850764
 50
74.6603648185581932
 51
87.1209914346354992
  0
ARC
  5
4A71D
  8
0
 10
2594.5722780581359075
 20
152.496470477272311
 30
0.0
 40
2.417375574663319
 50
36.2186860391366778
 51
71.781365275674645
  0
ARC
  5
4A71E
  8
0
 10
2596.5049952517188103
 20
153.9119738238075001
 30
0.0
 40
0.0217450784427947
 50
359.7817017254629945
 51
36.2186860391393068
  0
ARC
  5
4A71F
  8
0
 10
2594.1094201734240414
 20
153.9211010656568135
 30
0.0
 40
2.4173375442610889
 50
324.2184427167341028
 51
359.7817017254629945
  0
ARC
  5
4A720
  8
0
 10
2596.0528496871679636
 20
152.5204062310224913
 30
0.0
 40
0.0217448629690673
 50
287.7737908100298796
 51
324.2184427167341028
  0
ARC
  5
4A721
  8
0
 10
2595.3182267112911177
 20
154.8120900120306942
 30
0.0
 40
2.4282953961643701
 50
282.7164228288904724
 51
287.7737908100298796
  0
ARC
  5
4A722
  8
0
 10
2595.3212570797918488
 20
153.5273534491317093
 30
0.0
 40
0.5315007056946253
 50
328.412847972110626
 51
89.9999996819974513
  0
ARC
  5
4A723
  8
0
 10
2595.3212570797918488
 20
153.5273534491317093
 30
0.0
 40
0.4527559055000015
 50
346.0279192720736887
 51
89.9999996266824667
  0
ARC
  5
4A724
  8
0
 10
2595.3095260798631898
 20
153.1205079734274932
 30
0.0
 40
0.5944988650132275
 50
58.1068856826977083
 51
88.8693324402519238
  0
ARC
  5
4A725
  8
0
 10
2595.4703336337051951
 20
153.3929450671951997
 30
0.0
 40
0.2783282976191084
 50
13.8962456689287599
 51
56.5818962850012781
  0
ARC
  5
4A726
  8
0
 10
2595.3113920183827759
 20
152.9843188289785871
 30
0.0
 40
0.6750189313853515
 50
70.4437966559499387
 51
89.162621004209285
  0
ARC
  5
4A727
  8
0
 10
2595.3893655394390407
 20
153.2243903271956924
 30
0.0
 40
0.4227521631466172
 50
33.8365615285397965
 51
69.5107705184659608
  0
ARC
  5
4A728
  8
0
 10
2595.6044052945021576
 20
153.3685456977509887
 30
0.0
 40
0.1638644131134301
 50
13.6206821668407692
 51
33.8365615285397965
  0
ARC
  5
4A729
  8
0
 10
2595.4696440897869252
 20
153.2244908413354096
 30
0.0
 40
0.3459003664798184
 50
28.3658053990606902
 51
50.0972355919777996
  0
ARC
  5
4A72A
  8
0
 10
2595.1403060314041795
 20
152.5508413662938096
 30
0.0
 40
1.088841888877728
 50
59.585493221946372
 51
75.9991982024777428
  0
ARC
  5
4A72B
  8
0
 10
2595.3213032211169775
 20
152.9335818608757904
 30
0.0
 40
0.6787784187239817
 50
83.0246614013212678
 51
90.0038945465150846
  0
ARC
  5
4A72C
  8
0
 10
2595.3212570793220948
 20
152.7623150425754091
 30
0.0
 40
0.679284313671039
 50
83.0259611244137403
 51
89.9999997115178871
  0
ARC
  5
4A72D
  8
0
 10
2595.9542541267751403
 20
154.3738360813480028
 30
0.0
 40
1.0869829190834961
 50
239.5713607379040866
 51
256.013330678415798
  0
ARC
  5
4A72E
  8
0
 10
2595.4759071386520191
 20
153.0588418027217017
 30
0.0
 40
0.3379632026412041
 50
28.1074043726281104
 51
50.355636618495538
  0
LINE
  5
4A72F
  8
0
 10
2595.7740129853928011
 20
153.3888278089318078
 30
0.0
 11
2595.7740129853928011
 21
153.0848104223503015
 31
0.0
  0
ARC
  5
4A730
  8
0
 10
2595.5489339797368302
 20
153.0107569032686001
 30
0.0
 40
0.2369482696191265
 50
4.7067581083431618
 51
18.2117858133312289
  0
ARC
  5
4A731
  8
0
 10
2595.4622445482209514
 20
152.9822351073229925
 30
0.0
 40
0.3282091614651443
 50
18.2117858133312289
 51
45.6634554828123171
  0
ARC
  5
4A732
  8
0
 10
2595.3845540701909158
 20
152.9027242376573099
 30
0.0
 40
0.4393747531359563
 50
45.6634554828134469
 51
73.2506879749975326
  0
ARC
  5
4A733
  8
0
 10
2595.30998564679021
 20
152.6549497261194119
 30
0.0
 40
0.6981268706853847
 50
73.2506876424169917
 51
89.0749048683180433
  0
ARC
  5
4A734
  8
0
 10
2596.7467320428918356
 20
153.1130212795185059
 30
0.0
 40
0.9652087262632253
 50
184.9224123958101131
 51
191.7208787728837933
  0
ARC
  5
4A735
  8
0
 10
2739.7233033781581071
 20
182.7763854557684056
 30
0.0
 40
146.9864918497910082
 50
191.7208787728837933
 51
191.7779485996757955
  0
ARC
  5
4A736
  8
0
 10
2594.8396764251301647
 20
152.5664698139742939
 30
0.0
 40
1.013185103068176
 50
0.8227145270689643
 51
11.7967298594418999
  0
LINE
  5
4A737
  8
0
 10
2595.8527570791688959
 20
152.5810177172558895
 30
0.0
 11
2595.8527570791688959
 21
150.5753103724752862
 31
0.0
  0
ARC
  5
4A738
  8
0
 10
2597.6178870234011811
 20
150.6798029944447137
 30
0.0
 40
1.7682201299817131
 50
183.38785665675681
 51
187.8110921908802879
  0
ARC
  5
4A739
  8
0
 10
2595.3064454512809789
 20
149.711005457143898
 30
0.0
 40
0.9235792512238166
 50
60.5998371423651889
 51
89.0810963423727884
  0
ARC
  5
4A73A
  8
0
 10
2595.3891652185698149
 20
149.8863371375587974
 30
0.0
 40
0.7303547534201239
 50
49.2332394209528701
 51
59.501093924979763
  0
ARC
  5
4A73B
  8
0
 10
2595.3662680970260226
 20
149.8597794341432916
 30
0.0
 40
0.765420260484966
 50
35.3716329258099478
 51
49.2332394209517972
  0
ARC
  5
4A73C
  8
0
 10
2595.4646014209179157
 20
149.929588043251897
 30
0.0
 40
0.6448272072303192
 50
11.6658888384283994
 51
35.3716329258099478
  0
ARC
  5
4A73D
  8
0
 10
2595.4730519947038374
 20
149.9313328267683971
 30
0.0
 40
0.6361983911569226
 50
346.3089050721856097
 51
11.6658888384283994
  0
ARC
  5
4A73E
  8
0
 10
2595.4512465703569433
 20
149.9366448259214053
 30
0.0
 40
0.6586415162951555
 50
313.6128265539063023
 51
346.3089050721856097
  0
ARC
  5
4A73F
  8
0
 10
2595.3259292550601458
 20
150.0681819946827034
 30
0.0
 40
0.8403183069943867
 50
292.2779447200202867
 51
313.6128265539063023
  0
ARC
  5
4A740
  8
0
 10
2595.3224982149858988
 20
150.0991265196194888
 30
0.0
 40
0.8702957672561678
 50
269.9182902340629084
 51
291.7146438079456061
  0
ARC
  5
4A741
  8
0
 10
2595.2860661078220801
 20
149.7364217922190051
 30
0.0
 40
0.8603153519208323
 50
56.9194812011379199
 51
78.0905561074916221
  0
ARC
  5
4A742
  8
0
 10
2595.3214830693182193
 20
149.8175125021637939
 30
0.0
 40
0.7738687986830078
 50
79.4174589243509956
 51
87.9330161209314696
  0
ARC
  5
4A743
  8
0
 10
2595.3491601278301459
 20
150.5727067931678107
 30
0.0
 40
0.0181725008386868
 50
89.2599189378049829
 51
178.0580175645235954
  0
ARC
  5
4A744
  8
0
 10
2614.0970692596838489
 20
150.2925450009921065
 30
0.0
 40
18.7681715725891216
 50
179.1428055588980897
 51
180.2857494673509109
  0
ARC
  5
4A745
  8
0
 10
2594.364529388496976
 20
150.1758654159528135
 30
0.0
 40
0.9648777382738085
 50
358.6294625382731738
 51
1.3705374617267261
  0
ARC
  5
4A746
  8
0
 10
2595.3431620327878591
 20
150.1524516743967013
 30
0.0
 40
0.0140349522988326
 50
178.6294625382716106
 51
203.4943030100913859
  0
ARC
  5
4A747
  8
0
 10
2595.3805362623520523
 20
149.9462374424219036
 30
0.0
 40
0.2373994429728265
 50
331.6514005992416969
 51
358.8778993452407917
  0
ARC
  5
4A748
  8
0
 10
2595.3784068816548825
 20
149.946279150293293
 30
0.0
 40
0.2395292320934121
 50
358.8778993452423833
 51
35.2502672701237572
  0
ARC
  5
4A749
  8
0
 10
2595.3373106258268308
 20
149.9172349007367018
 30
0.0
 40
0.2898528912941587
 50
35.250267270125093
 51
67.5957881938913943
  0
ARC
  5
4A74A
  8
0
 10
2595.3195030524561844
 20
149.8740395021524989
 30
0.0
 40
0.3365749645384608
 50
67.5957881938913943
 51
84.1052997629655437
  0
ARC
  5
4A74B
  8
0
 10
2595.3295131395279896
 20
149.9709928200929028
 30
0.0
 40
0.239106263393661
 50
84.1052997629655437
 51
85.7535579739853375
  0
ARC
  5
4A74C
  8
0
 10
2595.3486911923769185
 20
150.229281717539294
 30
0.0
 40
0.0198936444349299
 50
188.4678115523715007
 51
265.7535579739853233
  0
ARC
  5
4A74D
  8
0
 10
2595.3241187061489654
 20
149.8671972043852918
 30
0.0
 40
0.2797274217383589
 50
81.4460474458333437
 51
88.7357294716635749
  0
ARC
  5
4A74E
  8
0
 10
2595.3229233151018889
 20
149.8592498558390957
 30
0.0
 40
0.287764169132136
 50
30.260743217441
 51
81.4460474458333437
  0
ARC
  5
4A74F
  8
0
 10
2595.4123101900390793
 20
149.9114012037377108
 30
0.0
 40
0.1842761191042291
 50
4.6617485893198438
 51
30.2607432174395896
  0
ARC
  5
4A750
  8
0
 10
2595.3390293509501134
 20
149.9054256732974864
 30
0.0
 40
0.2578001855151984
 50
334.5607675885191838
 51
4.6617485893198438
  0
ARC
  5
4A751
  8
0
 10
2595.4086222814139546
 20
149.8723221044853915
 30
0.0
 40
0.1807351335224706
 50
317.0845014644552862
 51
334.5607675885191838
  0
ARC
  5
4A752
  8
0
 10
2595.3073160722269677
 20
149.9665127229908137
 30
0.0
 40
0.3190638024026093
 50
294.2661263632579107
 51
317.0845014644552862
  0
ARC
  5
4A753
  8
0
 10
2595.3216898103200947
 20
149.9574865950795015
 30
0.0
 40
0.3050725868778398
 50
269.9189003462819869
 51
292.5015103997293977
  0
ARC
  5
4A754
  8
0
 10
2595.3793394517310844
 20
149.8728744262060957
 30
0.0
 40
0.2372178450741692
 50
7.8222158561437301
 51
14.6697255661178296
  0
ARC
  5
4A755
  8
0
 10
2595.3715092529309914
 20
149.8708246335363015
 30
0.0
 40
0.2453118961757501
 50
14.6697255661178296
 51
35.4610837163241683
  0
ARC
  5
4A756
  8
0
 10
2595.3649948672591563
 20
149.8661846400680133
 30
0.0
 40
0.2533098184100582
 50
35.4610837163241683
 51
48.206297140527731
  0
ARC
  5
4A757
  8
0
 10
2595.6053115815761885
 20
149.8279837739835898
 30
0.0
 40
0.0167811200038876
 50
161.2143361313441972
 51
187.6627727122211979
  0
ARC
  5
4A758
  8
0
 10
2595.6047092767839786
 20
149.8279027376404997
 30
0.0
 40
0.0161733881949984
 50
187.6627727122227896
 51
243.8937810931682861
  0
LINE
  5
4A759
  8
0
 10
2595.5975923933929153
 20
149.8133793614317142
 30
0.0
 11
2595.9120679868829029
 21
149.6763009366360961
 31
0.0
  0
ARC
  5
4A75A
  8
0
 10
2595.9201058578710217
 20
149.6965151567247005
 30
0.0
 40
0.021753667975507
 50
248.3155256297640108
 51
320.0343924670514753
  0
ARC
  5
4A75B
  8
0
 10
2595.3598041745599403
 20
149.9140477032127023
 30
0.0
 40
0.6721548643694978
 50
37.7276427167916779
 51
53.9205102446770823
  0
ARC
  5
4A75C
  8
0
 10
2595.4675456830241274
 20
149.9845517452382069
 30
0.0
 40
0.5438919924173292
 50
20.98452987812
 51
38.7984552434039074
  0
ARC
  5
4A75D
  8
0
 10
2595.431813082294866
 20
149.9655394107232951
 30
0.0
 40
0.5840843416487244
 50
356.7494885558160149
 51
21.4705938223402306
  0
ARC
  5
4A75E
  8
0
 10
2595.4559927533528025
 20
149.9710825326604891
 30
0.0
 40
0.5603004283517686
 50
339.0477814385894249
 51
356.0433482967177952
  0
ARC
  5
4A75F
  8
0
 10
2593.809070787723158
 20
150.7615176344849033
 30
0.0
 40
2.3856504896696489
 50
333.1101154427284996
 51
335.4609481094325929
  0
ARC
  5
4A760
  8
0
 10
2595.5795292196321498
 20
149.7398229842322905
 30
0.0
 40
0.0189103556500938
 50
66.3566943004845626
 51
139.2365943015090011
  0
ARC
  5
4A761
  8
0
 10
2595.2683700758911982
 20
150.0080617367680986
 30
0.0
 40
0.3919083891707026
 50
306.8013857007524052
 51
319.2365943015090011
  0
ARC
  5
4A762
  8
0
 10
2595.3264402366121431
 20
149.953830093295096
 30
0.0
 40
0.314010398787459
 50
282.5916049612558254
 51
304.2440848431514269
  0
ARC
  5
4A763
  8
0
 10
2595.3213360970357826
 20
149.9726801268024019
 30
0.0
 40
0.3335209085456358
 50
269.9864269525353961
 51
282.7414180183056942
  0
ARC
  5
4A764
  8
0
 10
2597.2923094783941451
 20
153.5231480548648904
 30
0.0
 40
4.1340617186915223
 50
245.6396049016287009
 51
246.5032631661792948
  0
ARC
  5
4A765
  8
0
 10
2579.9885350430067774
 20
113.7209924763276945
 30
0.0
 40
39.2667700522412702
 50
66.0948108452853234
 51
66.5032631661793232
  0
ARC
  5
4A766
  8
0
 10
2595.8929716948450732
 20
149.6026198881880873
 30
0.0
 40
0.0183014077720851
 50
26.1675954570452589
 51
66.0948108452859913
  0
ARC
  5
4A767
  8
0
 10
2595.8952840337010457
 20
149.6037560759901055
 30
0.0
 40
0.0157250084035637
 50
348.5835236544667737
 51
26.1675954570496501
  0
ARC
  5
4A768
  8
0
 10
2595.8851073391601858
 20
149.6058111031869089
 30
0.0
 40
0.0261071203543474
 50
333.6113858013212052
 51
348.5835236544667737
  0
ARC
  5
4A769
  8
0
 10
2595.3222462748472026
 20
150.07469962852511
 30
0.0
 40
0.7685436851464813
 50
269.9262546171377153
 51
289.3412419036674805
  0
ARC
  5
4A76A
  8
0
 10
2595.3388709290320548
 20
150.0273363873720029
 30
0.0
 40
0.7183475125899496
 50
289.3412419036674805
 51
310.2206024591155824
  0
ARC
  5
4A76B
  8
0
 10
2595.4033082110850046
 20
149.9511407533397005
 30
0.0
 40
0.6185580443886284
 50
310.2206024591155824
 51
324.7573329450378878
  0
LINE
  5
4A76C
  8
0
 10
2595.9257788070949573
 20
149.6755142110912971
 30
0.0
 11
2595.9257788070949573
 21
149.5991146266279088
 31
0.0
  0
LINE
  5
4A76D
  8
0
 10
2595.5885047866931927
 20
149.8286156830316997
 30
0.0
 11
2595.5871130575928873
 21
149.7571460022317069
 31
0.0
  0
ARC
  5
4A76E
  8
0
 10
2595.4671251029922132
 20
149.9276238978956997
 30
0.0
 40
0.5627706816508585
 50
7.337862772738295
 51
21.0557208362428412
  0
ARC
  5
4A76F
  8
0
 10
2595.4672587897071026
 20
149.9276411133606075
 30
0.0
 40
0.5626358910348844
 50
347.0819570598673067
 51
7.337862772738295
  0
ARC
  5
4A770
  8
0
 10
2595.4531768729380019
 20
149.930870970311787
 30
0.0
 40
0.5770834636968745
 50
330.741230199297604
 51
347.0819570598673067
  0
ARC
  5
4A771
  8
0
 10
2595.4034163968808571
 20
149.9587481819158086
 30
0.0
 40
0.6341206787782956
 50
318.0964291152042165
 51
330.741230199297604
  0
ARC
  5
4A772
  8
0
 10
2595.3688039337621376
 20
149.9898080629463095
 30
0.0
 40
0.6806259345331139
 50
294.3122113934020945
 51
318.0964291152042165
  0
ARC
  5
4A773
  8
0
 10
2595.3123595743891201
 20
150.119002629615693
 30
0.0
 40
0.8216034478523841
 50
270.6204935521195125
 51
294.1900404748017763
  0
ARC
  5
4A774
  8
0
 10
2595.496765721688007
 20
149.866139458527698
 30
0.0
 40
0.5362571479497255
 50
6.2028322594090319
 51
15.1009192529071399
  0
LINE
  5
4A775
  8
0
 10
2596.0257458763571776
 20
149.9541833379007016
 30
0.0
 11
2596.0158295807341347
 21
149.9566372924016093
 31
0.0
  0
LINE
  5
4A776
  8
0
 10
2595.6021054616439869
 20
149.9544512644077088
 30
0.0
 11
2595.5912089956777891
 21
149.9555928931468998
 31
0.0
  0
LINE
  5
4A777
  8
0
 10
2595.5586878130188779
 20
150.0294295691338959
 30
0.0
 11
2595.5582576055007848
 21
150.0248577928429938
 31
0.0
  0
LINE
  5
4A778
  8
0
 10
2595.4037355097930231
 20
153.607336311331693
 30
0.0
 11
2595.4037355097930231
 21
153.4365735147555938
 31
0.0
  0
LINE
  5
4A779
  8
0
 10
2595.691534555392991
 20
153.4898428430317097
 30
0.0
 11
2595.691534555392991
 21
153.3190800464317078
 31
0.0
  0
LINE
  5
4A77A
  8
0
 10
2596.6070970977398247
 20
153.9401296631641003
 30
0.0
 11
2596.5259578829009115
 21
153.9177545270862026
 31
0.0
  0
LINE
  5
4A77B
  8
0
 10
2596.1159101775151612
 20
152.4336109707039952
 30
0.0
 11
2596.0656298046051234
 21
152.5028134011240013
 31
0.0
  0
LINE
  5
4A77C
  8
0
 10
2595.3212570827431591
 20
154.8798963912317106
 30
0.0
 11
2595.3212570827431591
 21
154.7937541236316861
 31
0.0
  0
ARC
  5
4A77D
  8
0
 10
2595.3233796399840685
 20
148.3031494813417908
 30
0.0
 40
2.8289228203596548
 50
269.9570106394479012
 51
293.9458473499378215
  0
ARC
  5
4A77E
  8
0
 10
2595.4546608090408881
 20
148.0075352294377922
 30
0.0
 40
2.5054687567310712
 50
293.9458501583774819
 51
325.5600901721180094
  0
ARC
  5
4A77F
  8
0
 10
2595.8375311945728754
 20
147.7449864928395016
 30
0.0
 40
2.0412257479453921
 50
325.5600901721180094
 51
352.739787060324602
  0
ARC
  5
4A780
  8
0
 10
2595.6472213817278316
 20
147.7692314313293878
 30
0.0
 40
2.2330737135527992
 50
352.739787060324602
 51
0.1661839185647555
  0
ARC
  5
4A781
  8
0
 10
2594.0386670944658363
 20
147.7645658764392067
 30
0.0
 40
3.8416347669387738
 50
0.1661839185647555
 51
15.5570966120754708
  0
ARC
  5
4A782
  8
0
 10
2595.5296239931772107
 20
147.9946706251838862
 30
0.0
 40
2.350352306900076
 50
19.9052931704686387
 51
53.1007703305829466
  0
ARC
  5
4A783
  8
0
 10
2595.3834529643950191
 20
147.8172499582015007
 30
0.0
 40
2.5800176228691312
 50
52.8705475162713725
 51
67.9235357122813923
  0
ARC
  5
4A784
  8
0
 10
2595.3190009921040655
 20
147.6600955598069049
 30
0.0
 40
2.7498738904716351
 50
67.909761742806495
 51
76.3372854797245139
  0
ARC
  5
4A787
  8
0
 10
2578.4247410444118032
 20
152.3836577525250107
 30
0.0
 40
2.6320495811361782
 50
108.4559799724256948
 51
143.2464467851895051
  0
ARC
  5
4A788
  8
0
 10
2576.3439483147021747
 20
153.9348331021855074
 30
0.0
 40
0.0367700806786103
 50
139.7144314578085016
 51
184.2855866199901129
  0
ARC
  5
4A789
  8
0
 10
2638.1550545489872093
 20
155.800445108103105
 30
0.0
 40
61.8759877144506518
 50
181.730322315551291
 51
181.7793130774230974
  0
LINE
  5
4A78A
  8
0
 10
2576.3089778880748781
 20
153.9461956764828017
 30
0.0
 11
2576.5100347992852221
 21
153.8800843672752023
 31
0.0
  0
ARC
  5
4A78B
  8
0
 10
2576.784706905999883
 20
152.3980154203713084
 30
0.0
 40
2.618659433668197
 50
36.5804679565854229
 51
71.4298930697440397
  0
ARC
  5
4A78C
  8
0
 10
2578.8594952215257763
 20
153.9348331021855074
 30
0.0
 40
0.0367700806786103
 50
355.7144133800097734
 51
40.2855685421914629
  0
ARC
  5
4A78D
  8
0
 10
2517.0483889872411964
 20
155.800445108103105
 30
0.0
 40
61.8759877144506518
 50
358.1929719131068168
 51
358.2696776844485953
  0
LINE
  5
4A78E
  8
0
 10
2578.8944703060737993
 20
153.9461813308546994
 30
0.0
 11
2577.947984631719919
 21
153.6330622545588938
 31
0.0
  0
ARC
  5
4A78F
  8
0
 10
2578.9345859110121637
 20
153.9546474681339134
 30
0.0
 40
2.6235921980404511
 50
197.2950287586778018
 51
215.2288011716858875
  0
ARC
  5
4A790
  8
0
 10
2576.8285088667557829
 20
152.4673874898329018
 30
0.0
 40
0.0453170460444161
 50
215.2288011716858875
 51
251.8869554096505112
  0
ARC
  5
4A791
  8
0
 10
2577.640590474793953
 20
155.2498195634792921
 30
0.0
 40
2.943811661372159
 50
253.7012081332418916
 51
269.3018632917464856
  0
LINE
  5
4A792
  8
0
 10
2576.801590067664165
 20
152.4309318603959866
 30
0.0
 11
2577.3390311485759412
 21
153.1708427180863907
 31
0.0
  0
ARC
  5
4A793
  8
0
 10
2576.2360218670028189
 20
153.9626956776218947
 30
0.0
 40
2.6600025684283559
 50
325.1120928613731849
 51
357.5564698699089945
  0
ARC
  5
4A794
  8
0
 10
2578.3809316720130482
 20
152.4673874898329018
 30
0.0
 40
0.0453170460444161
 50
288.1130445903494888
 51
324.771198828314084
  0
ARC
  5
4A795
  8
0
 10
2577.5485850602722167
 20
155.3854394204747109
 30
0.0
 40
3.0797246544117249
 50
271.0444336142746238
 51
285.9525535891233972
  0
LINE
  5
4A796
  8
0
 10
2578.407850471105121
 20
152.4309318603959866
 30
0.0
 11
2577.820529840780182
 21
153.2395133528746101
 31
0.0
  0
LINE
  5
4A797
  8
0
 10
2577.9642240148359633
 20
153.527204067421394
 30
0.0
 11
2574.281201652593154
 21
153.527204067421394
 31
0.0
  0
ARC
  5
4A798
  8
0
 10
2577.604719895703056
 20
154.8464801249045024
 30
0.0
 40
0.0366103394275993
 50
67.622501018979321
 51
89.4402483055483941
  0
ARC
  5
4A799
  8
0
 10
2588.7820499299591575
 20
-2669.9327518323361801
 30
0.0
 40
2823.8395025640270433
 50
90.2276388485354914
 51
90.2530813465611743
  0
ARC
  5
4A79A
  8
0
 10
2575.3379134565548156
 20
-406.3844757545961102
 30
0.0
 40
560.2645202558153414
 50
89.9007013202276966
 51
90.100273501646754
  0
ARC
  5
4A79B
  8
0
 10
2574.3572162676268817
 20
153.8389129863898006
 30
0.0
 40
0.0402738991164038
 50
89.747893475335232
 51
135.857236602892101
  0
LINE
  5
4A79C
  8
0
 10
2574.3283154479931909
 20
153.8669616864397085
 30
0.0
 11
2574.2916312313841445
 21
153.829163003230093
 31
0.0
  0
ARC
  5
4A79D
  8
0
 10
2574.321793976292156
 20
153.8019952639818086
 30
0.0
 40
0.0405940541975553
 50
137.9904741649147013
 51
179.4709537956642009
  0
LINE
  5
4A79E
  8
0
 10
2574.281201652593154
 20
153.8023700878397051
 30
0.0
 11
2574.281201652593154
 21
153.2517637713943941
 31
0.0
  0
ARC
  5
4A79F
  8
0
 10
2574.3210744498560416
 20
153.2522582077540108
 30
0.0
 40
0.0398758627359441
 50
180.7104509008370883
 51
223.6997901735159928
  0
LINE
  5
4A7A0
  8
0
 10
2574.2922454102931624
 20
153.2247087811396966
 30
0.0
 11
2574.3283071513119467
 21
153.1874667213004955
 31
0.0
  0
ARC
  5
4A7A1
  8
0
 10
2574.3573576692588176
 20
153.2158038793974129
 30
0.0
 40
0.0405822559906676
 50
224.2980491489524013
 51
270.0505532148090992
  0
LINE
  5
4A7A2
  8
0
 10
2574.3564922231189485
 20
153.8791803765410009
 30
0.0
 11
2574.3564922231189485
 21
153.175230852590488
 31
0.0
  0
ARC
  5
4A7A3
  8
0
 10
2577.6044679980777801
 20
153.5243787018885087
 30
0.0
 40
0.3624878137135738
 50
89.8328319508386954
 51
96.6012401164289969
  0
ARC
  5
4A7A4
  8
0
 10
2577.6041718092387782
 20
153.525281762598695
 30
0.0
 40
0.3615857444928106
 50
67.9107869891075495
 51
89.7854814588725247
  0
ARC
  5
4A7A5
  8
0
 10
2577.6050866887849224
 20
153.5275360566697032
 30
0.0
 40
0.3591528765672694
 50
19.7112371854231512
 51
67.9107869891075495
  0
ARC
  5
4A7A6
  8
0
 10
2577.5393175095309743
 20
153.5161951612107032
 30
0.0
 40
0.4250490962999588
 50
1.4841448009004821
 51
18.1600274783296918
  0
ARC
  5
4A7A7
  8
0
 10
2588.7820499299591575
 20
2976.9871599671778313
 30
0.0
 40
2823.8395025640270433
 50
269.746918653438911
 51
269.7723611514645086
  0
ARC
  5
4A7A8
  8
0
 10
2575.3379134565548156
 20
713.4388838894388982
 30
0.0
 40
560.2645202558153414
 50
269.899726498353175
 51
270.0992986797722892
  0
ARC
  5
4A7A9
  8
0
 10
2577.6044679980777801
 20
153.5300294329543078
 30
0.0
 40
0.3624878137135738
 50
263.3987598835710173
 51
270.1671680491612051
  0
ARC
  5
4A7AA
  8
0
 10
2577.6041718092387782
 20
153.5291263722440931
 30
0.0
 40
0.3615857444928106
 50
270.2145185411275179
 51
292.0892130108924789
  0
ARC
  5
4A7AB
  8
0
 10
2577.6050866887849224
 20
153.5268720781729996
 30
0.0
 40
0.3591528765672694
 50
292.0892130108924789
 51
340.2887628145767849
  0
ARC
  5
4A7AC
  8
0
 10
2577.5393175095309743
 20
153.5382129736321133
 30
0.0
 40
0.4250490962999588
 50
341.8399725216702905
 51
358.5158551990995193
  0
LINE
  5
4A7AD
  8
0
 10
2577.6050775550929757
 20
154.8830887172397013
 30
0.0
 11
2577.6050775550929757
 21
153.886866003088187
 31
0.0
  0
ARC
  5
4A7AE
  8
0
 10
2577.6054352144828954
 20
154.8464801249045024
 30
0.0
 40
0.0366103394275993
 50
90.5597516944516343
 51
112.3774989810206932
  0
ARC
  5
4A7AF
  8
0
 10
2588.5957259333740694
 20
152.3836577525250107
 30
0.0
 40
2.6320495811361782
 50
36.7535532148105091
 51
71.5440200275742626
  0
ARC
  5
4A7B0
  8
0
 10
2590.6765186630827884
 20
153.9348331021855074
 30
0.0
 40
0.0367700806786103
 50
355.7144133800097734
 51
40.2855685421914629
  0
ARC
  5
4A7B1
  8
0
 10
2528.8654124287982086
 20
155.800445108103105
 30
0.0
 40
61.8759877144506518
 50
358.2206869225768742
 51
358.2696776844485953
  0
LINE
  5
4A7B2
  8
0
 10
2590.711489089710085
 20
153.9461956764828017
 30
0.0
 11
2590.5104321785001957
 21
153.8800843672752023
 31
0.0
  0
ARC
  5
4A7B3
  8
0
 10
2590.2357600717850801
 20
152.3980154203713084
 30
0.0
 40
2.618659433668197
 50
108.5701069302560029
 51
143.4195320434145913
  0
ARC
  5
4A7B4
  8
0
 10
2588.1609717562600963
 20
153.9348331021855074
 30
0.0
 40
0.0367700806786103
 50
139.7144314578085016
 51
184.2855866199901129
  0
ARC
  5
4A7B5
  8
0
 10
2649.9720779905451309
 20
155.800445108103105
 30
0.0
 40
61.8759877144506518
 50
181.730322315551291
 51
181.8070280868932116
  0
LINE
  5
4A7B6
  8
0
 10
2588.1259966717111638
 20
153.9461813308546994
 30
0.0
 11
2589.0724823460659536
 21
153.6330622545588938
 31
0.0
  0
ARC
  5
4A7B7
  8
0
 10
2588.0858810667727994
 20
153.9546474681339134
 30
0.0
 40
2.6235921980404511
 50
324.771198828314084
 51
342.7049712413220846
  0
ARC
  5
4A7B8
  8
0
 10
2590.1919581110291801
 20
152.4673874898329018
 30
0.0
 40
0.0453170460444161
 50
288.1130445903494888
 51
324.771198828314084
  0
ARC
  5
4A7B9
  8
0
 10
2589.3798765029910101
 20
155.2498195634792921
 30
0.0
 40
2.943811661372159
 50
270.6981367082535144
 51
286.2987918667581084
  0
LINE
  5
4A7BA
  8
0
 10
2590.2188769101207981
 20
152.4309318603959866
 30
0.0
 11
2589.6814358292090219
 21
153.1708427180863907
 31
0.0
  0
ARC
  5
4A7BB
  8
0
 10
2590.7844451107830537
 20
153.9626956776218947
 30
0.0
 40
2.6600025684283559
 50
182.4435301300908918
 51
214.8879071386267015
  0
ARC
  5
4A7BC
  8
0
 10
2588.6395353057719149
 20
152.4673874898329018
 30
0.0
 40
0.0453170460444161
 50
215.2288011716858875
 51
251.8869554096505112
  0
ARC
  5
4A7BD
  8
0
 10
2589.4718819175132012
 20
155.3854394204747109
 30
0.0
 40
3.0797246544117249
 50
254.0474464108766028
 51
268.9555663857253762
  0
LINE
  5
4A7BE
  8
0
 10
2588.6126165066798421
 20
152.4309318603959866
 30
0.0
 11
2589.1999371370047811
 21
153.2395133528746101
 31
0.0
  0
LINE
  5
4A7BF
  8
0
 10
2589.0562429629499093
 20
153.527204067421394
 30
0.0
 11
2592.7392653251931733
 21
153.527204067421394
 31
0.0
  0
ARC
  5
4A7C0
  8
0
 10
2589.4157470820828166
 20
154.8464801249045024
 30
0.0
 40
0.0366103394275993
 50
90.5597516944516343
 51
112.3774989810206932
  0
ARC
  5
4A7C1
  8
0
 10
2578.2384170478258056
 20
-2669.9327518323361801
 30
0.0
 40
2823.8395025640270433
 50
89.7469186534388257
 51
89.7723611514645086
  0
ARC
  5
4A7C2
  8
0
 10
2591.6825535212310569
 20
-406.3844757545961102
 30
0.0
 40
560.2645202558153414
 50
89.899726498353246
 51
90.0992986797722892
  0
ARC
  5
4A7C3
  8
0
 10
2592.6632507101580813
 20
153.8389129863898006
 30
0.0
 40
0.0402738991164038
 50
44.1427633971079416
 51
90.2521065246647822
  0
LINE
  5
4A7C4
  8
0
 10
2592.6921515297931364
 20
153.8669616864397085
 30
0.0
 11
2592.7288357464008186
 21
153.829163003230093
 31
0.0
  0
ARC
  5
4A7C5
  8
0
 10
2592.6986730014941713
 20
153.8019952639818086
 30
0.0
 40
0.0405940541975553
 50
0.5290462043357951
 51
42.0095258350852987
  0
LINE
  5
4A7C6
  8
0
 10
2592.7392653251931733
 20
153.8023700878397051
 30
0.0
 11
2592.7392653251931733
 21
153.2517637713943941
 31
0.0
  0
ARC
  5
4A7C7
  8
0
 10
2592.6993925279289215
 20
153.2522582077540108
 30
0.0
 40
0.0398758627359441
 50
316.3002098264839788
 51
359.2895490991629117
  0
LINE
  5
4A7C8
  8
0
 10
2592.7282215674931649
 20
153.2247087811396966
 30
0.0
 11
2592.6921598264730164
 21
153.1874667213004955
 31
0.0
  0
ARC
  5
4A7C9
  8
0
 10
2592.6631093085261455
 20
153.2158038793974129
 30
0.0
 40
0.0405822559906676
 50
269.9494467851909008
 51
315.7019508510476271
  0
LINE
  5
4A7CA
  8
0
 10
2592.6639747546669241
 20
153.8791803765410009
 30
0.0
 11
2592.6639747546669241
 21
153.175230852590488
 31
0.0
  0
ARC
  5
4A7CB
  8
0
 10
2589.415998979707183
 20
153.5243787018885087
 30
0.0
 40
0.3624878137135738
 50
83.3987598835710315
 51
90.1671680491613188
  0
ARC
  5
4A7CC
  8
0
 10
2589.4162951685461849
 20
153.525281762598695
 30
0.0
 40
0.3615857444928106
 50
90.2145185411274753
 51
112.0892130108923936
  0
ARC
  5
4A7CD
  8
0
 10
2589.4153802890000406
 20
153.5275360566697032
 30
0.0
 40
0.3591528765672694
 50
112.0892130108923936
 51
160.2887628145768133
  0
ARC
  5
4A7CE
  8
0
 10
2589.4811494682539887
 20
153.5161951612107032
 30
0.0
 40
0.4250490962999588
 50
161.8399725216702905
 51
178.5158551990994908
  0
ARC
  5
4A7CF
  8
0
 10
2578.2384170478258056
 20
2976.9871599671778313
 30
0.0
 40
2823.8395025640270433
 50
270.2276388485353777
 51
270.2530813465612027
  0
ARC
  5
4A7D0
  8
0
 10
2591.6825535212310569
 20
713.4388838894388982
 30
0.0
 40
560.2645202558153414
 50
269.9007013202277108
 51
270.100273501646825
  0
ARC
  5
4A7D1
  8
0
 10
2589.415998979707183
 20
153.5300294329543078
 30
0.0
 40
0.3624878137135738
 50
269.8328319508386812
 51
276.6012401164289827
  0
ARC
  5
4A7D2
  8
0
 10
2589.4162951685461849
 20
153.5291263722440931
 30
0.0
 40
0.3615857444928106
 50
247.9107869891074927
 51
269.7854814588724821
  0
ARC
  5
4A7D3
  8
0
 10
2589.4153802890000406
 20
153.5268720781729996
 30
0.0
 40
0.3591528765672694
 50
199.7112371854231014
 51
247.9107869891074927
  0
ARC
  5
4A7D4
  8
0
 10
2589.4811494682539887
 20
153.5382129736321133
 30
0.0
 40
0.4250490962999588
 50
181.4841448009005092
 51
198.1600274783295959
  0
LINE
  5
4A7D5
  8
0
 10
2589.4153894226928969
 20
154.8830887172397013
 30
0.0
 11
2589.4153894226928969
 21
153.886866003088187
 31
0.0
  0
ARC
  5
4A7D6
  8
0
 10
2589.4150317633029772
 20
154.8464801249045024
 30
0.0
 40
0.0366103394275993
 50
67.622501018979321
 51
89.4402483055483941
  0
ENDSEC
  0
EOF
