  0
SECTION
  2
HEADER
  9
$ACADVER
  1
AC1009
  9
$INSBASE
 10
2608.1361924176922003
 20
135.0075420551492016
 30
0.0
  9
$EXTMIN
 10
2598.9112140378720142
 20
135.0022417722587136
 30
-0.0015258207003583
  9
$EXTMAX
 10
2609.6623605088620934
 20
142.1306932668707077
 30
0.0000000349246037
  9
$LIMMIN
 10
0.0
 20
0.0
  9
$LIMMAX
 10
11.6929133858000007
 20
8.2677165353999982
  9
$ORTHOMODE
 70
     1
  9
$REGENMODE
 70
     1
  9
$FILLMODE
 70
     1
  9
$QTEXTMODE
 70
     0
  9
$MIRRTEXT
 70
     0
  9
$DRAGMODE
 70
     2
  9
$LTSCALE
 40
0.6431102362
  9
$OSMODE
 70
  3999
  9
$ATTMODE
 70
     1
  9
$TEXTSIZE
 40
0.2
  9
$TRACEWID
 40
0.05
  9
$TEXTSTYLE
  7
STANDARD
  9
$CLAYER
  8
0
  9
$CELTYPE
  6
BYLAYER
  9
$CECOLOR
 62
   256
  9
$DIMSCALE
 40
1.0
  9
$DIMASZ
 40
0.1875
  9
$DIMEXO
 40
0.0625
  9
$DIMDLI
 40
0.4443307087
  9
$DIMRND
 40
0.0
  9
$DIMDLE
 40
0.0
  9
$DIMEXE
 40
0.125
  9
$DIMTP
 40
0.01
  9
$DIMTM
 40
0.01
  9
$DIMTXT
 40
2.0
  9
$DIMCEN
 40
0.1052362205
  9
$DIMTSZ
 40
0.0
  9
$DIMTOL
 70
     1
  9
$DIMLIM
 70
     0
  9
$DIMTIH
 70
     1
  9
$DIMTOH
 70
     1
  9
$DIMSE1
 70
     0
  9
$DIMSE2
 70
     0
  9
$DIMTAD
 70
     0
  9
$DIMZIN
 70
     0
  9
$DIMBLK
  1

  9
$DIMASO
 70
     1
  9
$DIMSHO
 70
     1
  9
$DIMPOST
  1
\X
  9
$DIMAPOST
  1

  9
$DIMALT
 70
     1
  9
$DIMALTD
 70
     2
  9
$DIMALTF
 40
25.3999999999999986
  9
$DIMLFAC
 40
1.0
  9
$DIMTOFL
 70
     0
  9
$DIMTVP
 40
0.0
  9
$DIMTIX
 70
     0
  9
$DIMSOXD
 70
     0
  9
$DIMSAH
 70
     0
  9
$DIMBLK1
  1

  9
$DIMBLK2
  1

  9
$DIMSTYLE
  2
STANDARD
  9
$DIMCLRD
 70
     0
  9
$DIMCLRE
 70
     0
  9
$DIMCLRT
 70
     0
  9
$DIMTFAC
 40
1.0
  9
$DIMGAP
 40
0.09
  9
$LUNITS
 70
     2
  9
$LUPREC
 70
     4
  9
$SKETCHINC
 40
0.1
  9
$FILLETRAD
 40
0.0
  9
$AUNITS
 70
     0
  9
$AUPREC
 70
     0
  9
$MENU
  1
.
  9
$ELEVATION
 40
0.0
  9
$PELEVATION
 40
0.0
  9
$THICKNESS
 40
0.0
  9
$LIMCHECK
 70
     0
  9
$BLIPMODE
 70
     0
  9
$CHAMFERA
 40
0.0
  9
$CHAMFERB
 40
0.0
  9
$SKPOLY
 70
     0
  9
$TDCREATE
 40
2458060.468368056230247
  9
$TDUPDATE
 40
2460167.4420023150742054
  9
$TDINDWG
 40
0.7031552083
  9
$TDUSRTIMER
 40
0.7031552083
  9
$USRTIMER
 70
     1
  9
$ANGBASE
 50
0.0
  9
$ANGDIR
 70
     0
  9
$PDMODE
 70
     0
  9
$PDSIZE
 40
0.3125
  9
$PLINEWID
 40
0.0
  9
$COORDS
 70
     1
  9
$SPLFRAME
 70
     0
  9
$SPLINETYPE
 70
     6
  9
$SPLINESEGS
 70
     8
  9
$ATTDIA
 70
     1
  9
$ATTREQ
 70
     1
  9
$HANDLING
 70
     1
  9
$HANDSEED
  5
4AB97
  9
$SURFTAB1
 70
     6
  9
$SURFTAB2
 70
     6
  9
$SURFTYPE
 70
     6
  9
$SURFU
 70
     6
  9
$SURFV
 70
     6
  9
$UCSNAME
  2

  9
$UCSORG
 10
0.0
 20
0.0
 30
0.0
  9
$UCSXDIR
 10
1.0
 20
0.0
 30
0.0
  9
$UCSYDIR
 10
0.0
 20
1.0
 30
0.0
  9
$PUCSNAME
  2

  9
$PUCSORG
 10
0.0
 20
0.0
 30
0.0
  9
$PUCSXDIR
 10
1.0
 20
0.0
 30
0.0
  9
$PUCSYDIR
 10
0.0
 20
1.0
 30
0.0
  9
$USERI1
 70
     0
  9
$USERI2
 70
     0
  9
$USERI3
 70
     0
  9
$USERI4
 70
     0
  9
$USERI5
 70
     0
  9
$USERR1
 40
0.0
  9
$USERR2
 40
0.0
  9
$USERR3
 40
0.0
  9
$USERR4
 40
0.0
  9
$USERR5
 40
0.0
  9
$WORLDVIEW
 70
     1
  9
$SHADEDGE
 70
     3
  9
$SHADEDIF
 70
    70
  9
$TILEMODE
 70
     1
  9
$MAXACTVP
 70
    64
  9
$PLIMCHECK
 70
     0
  9
$PEXTMIN
 10
1.0000000000000000E+20
 20
1.0000000000000000E+20
 30
1.0000000000000000E+20
  9
$PEXTMAX
 10
-1.0000000000000000E+20
 20
-1.0000000000000000E+20
 30
-1.0000000000000000E+20
  9
$PLIMMIN
 10
0.0
 20
0.0
  9
$PLIMMAX
 10
12.0
 20
9.0
  9
$UNITMODE
 70
     0
  9
$VISRETAIN
 70
     1
  9
$PLINEGEN
 70
     0
  9
$PSLTSCALE
 70
     1
  0
ENDSEC
  0
SECTION
  2
TABLES
  0
TABLE
  2
VPORT
 70
     1
  0
VPORT
  2
*ACTIVE
 70
     0
 10
0.0
 20
0.0
 11
1.0
 21
1.0
 12
-699.4063279610080599
 22
-56.69504405632307
 13
0.0
 23
0.0
 14
1.0
 24
1.0
 15
0.0
 25
0.0
 16
0.0
 26
0.0
 36
96.5995694866707311
 17
3303.693115234375
 27
195.2615115758877096
 37
0.0
 40
7.1787108471004748
 41
2.2458823529411762
 42
50.0
 43
0.0
 44
0.0
 50
0.0
 51
0.0
 71
     0
 72
   100
 73
     1
 74
     1
 75
     0
 76
     0
 77
     0
 78
     0
  0
ENDTAB
  0
TABLE
  2
LTYPE
 70
     2
  0
LTYPE
  2
CONTINUOUS
 70
     0
  3
Solid line
 72
    65
 73
     0
 40
0.0
  0
LTYPE
  2
PHANTOM2
 70
     0
  3
___ _ _ ___ _ _ ___ _ _ ___ _ _
 72
    65
 73
     6
 40
1.25
 49
0.625
 49
-0.125
 49
0.125
 49
-0.125
 49
0.125
 49
-0.125
  0
ENDTAB
  0
TABLE
  2
LAYER
 70
     2
  0
LAYER
  2
0
 70
     0
 62
   255
  6
CONTINUOUS
  0
LAYER
  2
DEFPOINTS
 70
     0
 62
     7
  6
CONTINUOUS
  0
ENDTAB
  0
TABLE
  2
STYLE
 70
     1
  0
STYLE
  2
STANDARD
 70
     0
 40
0.0
 41
0.8
 50
0.0
 71
     0
 42
0.2
  3
txt
  4

  0
ENDTAB
  0
TABLE
  2
VIEW
 70
     0
  0
ENDTAB
  0
TABLE
  2
UCS
 70
     0
  0
ENDTAB
  0
TABLE
  2
APPID
 70
     9
  0
APPID
  2
ACAD
 70
     0
  0
APPID
  2
ACAD_MLEADERVER
 70
     0
  0
APPID
  2
ACAD_EXEMPT_FROM_CAD_STANDARDS
 70
     0
  0
APPID
  2
ACAD_NAV_VCDISPLAY
 70
     0
  0
APPID
  2
ACAECLAYERSTANDARD
 70
     0
  0
APPID
  2
ACCMTRANSPARENCY
 70
     0
  0
APPID
  2
ACAD_DSTYLE_DIMJAG
 70
     0
  0
APPID
  2
ACAD_DSTYLE_DIMTALN
 70
     0
  0
APPID
  2
ACDBATTR
 70
     0
  0
ENDTAB
  0
TABLE
  2
DIMSTYLE
 70
     1
  0
DIMSTYLE
  2
STANDARD
 70
     0
  3

  4

  5

  6

  7

 40
1.0
 41
0.1875
 42
0.0625
 43
0.38
 44
0.125
 45
0.0
 46
0.0
 47
0.01
 48
0.01
140
0.15625
141
0.09
142
0.0
143
25.3999999999999986
144
1.0
145
0.0
146
1.0
147
0.09
 71
     1
 72
     0
 73
     1
 74
     1
 75
     0
 76
     0
 77
     0
 78
     4
170
     0
171
     2
172
     0
173
     0
174
     0
175
     0
176
     0
177
     0
178
     0
  0
ENDTAB
  0
ENDSEC
  0
SECTION
  2
BLOCKS
  0
BLOCK
  8
0
  2
$MODEL_SPACE
 70
     0
 10
0.0
 20
0.0
 30
0.0
  3
$MODEL_SPACE
  1

  0
ENDBLK
  5
21
  8
0
  0
BLOCK
 67
     1
  8
0
  2
$PAPER_SPACE
 70
     0
 10
0.0
 20
0.0
 30
0.0
  3
$PAPER_SPACE
  1

  0
ENDBLK
  5
1D
 67
     1
  8
0
  0
BLOCK
  8
0
  2
_FILLED
 70
     0
 10
0.0
 20
0.0
 30
0.0
  3
_FILLED
  1

  0
SOLID
  5
4A7F9
  8
0
  6
BYBLOCK
 62
     0
 10
0.0
 20
0.0
 30
0.0
 11
-1.0
 21
0.1666666667
 31
0.0
 12
-1.0
 22
-0.1666666667
 32
0.0
 13
-1.0
 23
-0.1666666667
 33
0.0
  0
ENDBLK
  5
4A7FA
  8
0
  6
BYBLOCK
 62
     0
  0
ENDSEC
  0
SECTION
  2
ENTITIES
  0
ATTDEF
  5
4A068
  8
DEFPOINTS
 10
2608.1367081622729529
 20
135.0118440323414859
 30
0.0
 40
0.001
  1
K-EX27109T-4
  3

  2
MODELNUMBER
 70
     0
1001
ACDBATTR
1070
     0
1070
     1
  0
ATTDEF
  5
4A069
  8
DEFPOINTS
 10
2608.1367081622729529
 20
135.0101773656747923
 30
0.0
 40
0.001
  1
OCCASION
  3

  2
TRADENAME
 70
     0
1001
ACDBATTR
1070
     0
1070
     1
  0
ATTDEF
  5
4A06A
  8
DEFPOINTS
 10
2608.1367081622729529
 20
135.0085106990082124
 30
0.0
 40
0.001
  1
BATH FAUCET WITH HANDSHOWER 
  3

  2
PRODUCT
 70
     0
1001
ACDBATTR
1070
     0
1070
     1
  0
LINE
  5
4A949
  8
0
 10
2606.7894301998780975
 20
135.0075420551492016
 30
0.0
 11
2609.4829546355058483
 21
135.0075420551492016
 31
0.0
  0
LINE
  5
4A94A
  8
0
 10
2608.652811143470899
 20
142.0692168648083964
 30
0.0
 11
2607.5279127753369721
 21
142.0692168648083964
 31
0.0
  0
LINE
  5
4A94B
  8
0
 10
2607.7269417073071054
 20
141.3868097717491992
 30
0.0
 11
2608.3995198034858731
 21
141.3868097717491992
 31
0.0
  0
LINE
  5
4A94C
  8
0
 10
2607.7213892359059173
 20
141.32654205514919
 30
0.0
 11
2608.3983600493070298
 21
141.32654205514919
 31
0.0
  0
LINE
  5
4A94D
  8
0
 10
2607.0095644832081234
 20
141.227271832028606
 30
0.0
 11
2601.4409822552452169
 21
141.227271832028606
 31
0.0
  0
LINE
  5
4A94E
  8
0
 10
2606.9203210499740635
 20
135.325861055149204
 30
0.0
 11
2609.329957302906223
 21
135.325861055149204
 31
0.0
  0
ARC
  5
4A94F
  8
0
 10
2607.5545470503420802
 20
142.098253517487592
 30
0.0
 40
0.0394019263981581
 50
135.0481761438124124
 51
227.4709621550153997
  0
ARC
  5
4A950
  8
0
 10
2607.2181413229618556
 20
141.7315044220750053
 30
0.0
 40
0.4582663490632677
 50
30.8685081633054317
 51
47.4709621550154566
  0
ARC
  5
4A951
  8
0
 10
2607.1261678126929837
 20
141.6892796770551968
 30
0.0
 40
0.5589829393104976
 50
13.3528394180963605
 51
29.7465403167753806
  0
ARC
  5
4A952
  8
0
 10
2606.0247016227522181
 20
141.4617124915662032
 30
0.0
 40
1.6835511860701531
 50
2.235351304090734
 51
12.2308715715764809
  0
ARC
  5
4A953
  8
0
 10
2604.9819327365539721
 20
141.4210090019338963
 30
0.0
 40
2.727114180858266
 50
359.9117754874915249
 51
2.235351304090734
  0
LINE
  5
4A954
  8
0
 10
2607.7090436844059695
 20
141.4168097707490972
 30
0.0
 11
2607.7090278013529314
 21
141.4064948232559118
 31
0.0
  0
ARC
  5
4A955
  8
0
 10
2607.728767009592957
 20
141.4064644286366956
 30
0.0
 40
0.0197392316417115
 50
179.9117754874883133
 51
264.6942343065954901
  0
ARC
  5
4A956
  8
0
 10
2600.7422098875340453
 20
140.2378554632570911
 30
0.0
 40
1.1919222909584879
 50
65.9777197480928947
 51
86.8766439753059956
  0
ARC
  5
4A957
  8
0
 10
2587.409161588427196
 20
111.3212924594233044
 30
0.0
 40
33.0342185235314219
 50
62.8314844670965229
 51
65.2725861937602616
  0
ARC
  5
4A958
  8
0
 10
2666.6001552051461658
 20
263.8363937139695281
 30
0.0
 40
138.8152132704937003
 50
242.4955625490302111
 51
243.0700813388347115
  0
ARC
  5
4A959
  8
0
 10
2599.8836579833691758
 20
132.5010114699894075
 30
0.0
 40
8.4942352747901513
 50
57.6274093018927331
 51
63.0700813388347115
  0
ARC
  5
4A95A
  8
0
 10
2603.3168497085739546
 20
138.0255925633857998
 30
0.0
 40
1.990908159259777
 50
47.2475915997145819
 51
55.9474282708219874
  0
ARC
  5
4A95B
  8
0
 10
2603.8737976463371524
 20
138.6770603667901867
 30
0.0
 40
1.1349532528570221
 50
36.9943211844877098
 51
45.5676105686502027
  0
ARC
  5
4A95C
  8
0
 10
2604.4877242002989988
 20
139.139591813813297
 30
0.0
 40
0.3662913290284443
 50
12.2437602518953401
 51
36.9943211844864024
  0
ARC
  5
4A95D
  8
0
 10
2604.4494835855061865
 20
139.1312933232287037
 30
0.0
 40
0.4054220019810903
 50
355.2633473261959125
 51
12.2437602518953401
  0
ARC
  5
4A95E
  8
0
 10
2604.218612368050799
 20
139.1504230891810892
 30
0.0
 40
0.6370844007306318
 50
341.5410631807584991
 51
355.2633473261959125
  0
ARC
  5
4A95F
  8
0
 10
2602.0822552654340143
 20
139.8635360705962114
 30
0.0
 40
2.8893170250758091
 50
335.4287986891437185
 51
341.5410631807584991
  0
ARC
  5
4A960
  8
0
 10
2606.4694303154101362
 20
137.8575972557887042
 30
0.0
 40
1.934695355493228
 50
155.4287986891436049
 51
166.5403446038550896
  0
ARC
  5
4A961
  8
0
 10
2606.3955690544771642
 20
137.8747310252173008
 30
0.0
 40
1.8588747720988019
 50
166.5240449297778014
 51
170.7329119159572031
  0
ARC
  5
4A962
  8
0
 10
2600.8072191259898318
 20
140.9218542474037008
 30
0.0
 40
0.5061529614926313
 50
90.007509309848075
 51
116.3829681662037956
  0
ARC
  5
4A963
  8
0
 10
2600.8637702849860034
 20
140.8678175310409131
 30
0.0
 40
0.580303207645772
 50
119.0150395382510027
 51
141.7258446104459892
  0
ARC
  5
4A964
  8
0
 10
2601.9080136992388361
 20
140.1041513000336067
 30
0.0
 40
1.8737239129912291
 50
143.1726641061931105
 51
150.288127656139693
  0
ARC
  5
4A965
  8
0
 10
2634.8922010006399432
 20
122.5993866609422014
 30
0.0
 40
39.2141946850954923
 50
151.9610963967348027
 51
152.8433299634141918
  0
LINE
  5
4A966
  8
0
 10
2604.5451345538172063
 20
138.1690400687492115
 30
0.0
 11
2600.0060549121180884
 21
140.4818166634491945
 31
0.0
  0
ARC
  5
4A967
  8
0
 10
2600.01141700695689
 20
140.4923403671145934
 30
0.0
 40
0.0118110287407682
 50
152.8372931505618908
 51
243.0000000002881109
  0
ARC
  5
4A968
  8
0
 10
2600.8763630650892082
 20
139.4792622966760973
 30
0.0
 40
1.7493422542146471
 50
107.4382415409382929
 51
143.4651545209457879
  0
ARC
  5
4A969
  8
0
 10
2600.8608948018718365
 20
139.4907227741194049
 30
0.0
 40
1.730091028014987
 50
143.4651545209457879
 51
162.0485815108173995
  0
LINE
  5
4A96A
  8
0
 10
2599.2150277328360062
 20
140.0239549527071858
 30
0.0
 11
2599.0834983533809464
 21
139.6243923897229138
 31
0.0
  0
ARC
  5
4A96B
  8
0
 10
2599.1097085730662002
 20
139.6158761734982932
 30
0.0
 40
0.0275590558352177
 50
162.0000379405971103
 51
206.9999995705113065
  0
ARC
  5
4A96C
  8
0
 10
2599.1097205427258814
 20
139.6158822723446917
 30
0.0
 40
0.0275724896986713
 50
206.9999995705113065
 51
252.9680079389704872
  0
LINE
  5
4A96D
  8
0
 10
2599.1016444053179839
 20
139.5895190746491892
 30
0.0
 11
2600.2729955656409402
 21
139.2089240114135862
 31
0.0
  0
ARC
  5
4A96E
  8
0
 10
2600.281511782016878
 20
139.2351342303491037
 30
0.0
 40
0.0275590550999761
 50
251.9999999981733083
 51
270.0
  0
ARC
  5
4A96F
  8
0
 10
2600.281511782016878
 20
139.235134230349189
 30
0.0
 40
0.027559055100006
 50
270.0
 51
341.9999999999877218
  0
LINE
  5
4A970
  8
0
 10
2600.3077220009531629
 20
139.2266180139743028
 30
0.0
 11
2600.437710430036077
 21
139.6266812621869917
 31
0.0
  0
ARC
  5
4A971
  8
0
 10
2600.8690145600539836
 20
139.4865420552775959
 30
0.0
 40
0.4534999998715861
 50
89.9999999793903953
 51
161.9999999999876081
  0
LINE
  5
4A972
  8
0
 10
2600.8690145602167831
 20
139.9400420551492061
 30
0.0
 11
2601.0693474501367746
 21
139.9400420550771003
 31
0.0
  0
LINE
  5
4A973
  8
0
 10
2599.3713927233047798
 20
139.5018716124853029
 30
0.0
 11
2599.3726944533668757
 21
139.4857185768032934
 31
0.0
  0
LINE
  5
4A974
  8
0
 10
2599.3726944533668757
 20
139.4857185768032934
 30
0.0
 11
2600.0466711519488854
 21
139.2667302726366074
 31
0.0
  0
LINE
  5
4A975
  8
0
 10
2600.0466711519488854
 20
139.2667302726366074
 30
0.0
 11
2600.0572187898437733
 21
139.2790332152812027
 31
0.0
  0
ARC
  5
4A976
  8
0
 10
2599.7915116130529896
 20
139.4446393621734046
 30
0.0
 40
0.2810704159885768
 50
306.0079943563828238
 51
323.2487535986045941
  0
LINE
  5
4A977
  8
0
 10
2599.9567523841578804
 20
139.2172716724973043
 30
0.0
 11
2599.4267964715450034
 21
139.3915573482973116
 31
0.0
  0
ARC
  5
4A978
  8
0
 10
2599.5978799462081952
 20
139.4861566991189079
 30
0.0
 40
0.195495760769657
 50
182.9822191548890942
 51
208.9400775997011124
  0
LINE
  5
4A979
  8
0
 10
2600.9399513364169252
 20
140.0059726680491963
 30
0.0
 11
2600.8690145602167831
 21
140.0059726680491963
 31
0.0
  0
ARC
  5
4A97A
  8
0
 10
2600.8690145602167831
 20
139.4865420550896999
 30
0.0
 40
0.5194306129595159
 50
90.0
 51
161.9999999997949942
  0
LINE
  5
4A97B
  8
0
 10
2600.3750066909988163
 20
139.6470549418945097
 30
0.0
 11
2600.2450182619741099
 21
139.2469916938632934
 31
0.0
  0
ARC
  5
4A97C
  8
0
 10
2600.217800188432193
 20
139.2558353820504919
 30
0.0
 40
0.0286187761452765
 50
267.6407361716364903
 51
341.9999999997918962
  0
ARC
  5
4A97D
  8
0
 10
2599.5310561091291675
 20
139.4670866669951863
 30
0.0
 40
0.0173975329240097
 50
184.8369451798135117
 51
231.123293760480891
  0
ARC
  5
4A97E
  8
0
 10
2599.5622790503571196
 20
139.4697288067119985
 30
0.0
 40
0.0487320659696266
 50
163.0083156612610082
 51
184.8369451798149896
  0
LINE
  5
4A97F
  8
0
 10
2599.5156742765170748
 20
139.4839699200491907
 30
0.0
 11
2599.64566270553496
 21
139.8840331682019951
 31
0.0
  0
ARC
  5
4A980
  8
0
 10
2600.8690145922191732
 20
139.4865420299302912
 30
0.0
 40
1.286308302041665
 50
130.3662981356060016
 51
162.0029007650095991
  0
LINE
  5
4A981
  8
0
 10
2600.3527779131190982
 20
140.3051524705157931
 30
0.0
 11
2600.353610642482181
 21
140.289263048408003
 31
0.0
  0
ARC
  5
4A982
  8
0
 10
2600.3614738671481064
 20
140.2896751425687967
 30
0.0
 40
0.007874015731115
 50
183.0000001307157049
 51
242.9999998692823056
  0
LINE
  5
4A983
  8
0
 10
2600.3578991387939823
 20
140.2826593431888966
 30
0.0
 11
2600.4515269497260306
 21
140.2349535904698996
 31
0.0
  0
ARC
  5
4A984
  8
0
 10
2600.4551017953481278
 20
140.2419696200047099
 30
0.0
 40
0.0078742740401169
 50
242.9999998692836982
 51
302.9989162808217884
  0
LINE
  5
4A985
  8
0
 10
2600.4593903074528498
 20
140.2353656170072043
 30
0.0
 11
2600.4727348956589594
 21
140.2440313350678878
 31
0.0
  0
LINE
  5
4A986
  8
0
 10
2600.5036935044181519
 20
140.2282571360491943
 30
0.0
 11
2600.5045262337830536
 21
140.2123677139080087
 31
0.0
  0
ARC
  5
4A987
  8
0
 10
2600.5123894586308779
 20
140.2127798080782952
 30
0.0
 40
0.0078740159146227
 50
183.0000001307236914
 51
243.0000637543664084
  0
LINE
  5
4A988
  8
0
 10
2600.5088147380170085
 20
140.2057640045491951
 30
0.0
 11
2600.6024427192601252
 21
140.1580582965507915
 31
0.0
  0
ARC
  5
4A989
  8
0
 10
2600.6060175067268574
 20
140.1650742312876048
 30
0.0
 40
0.0078741631723038
 50
243.0000637543670905
 51
302.998398910989124
  0
LINE
  5
4A98A
  8
0
 10
2600.6103058988169323
 20
140.1584702825491888
 30
0.0
 11
2600.6236501773169039
 21
140.1671361583491944
 31
0.0
  0
ARC
  5
4A98B
  8
0
 10
2608.6287984120308465
 20
142.1004210461248931
 30
0.0
 40
0.0393731695223435
 50
307.9406978066025999
 51
46.6780704642035786
  0
ARC
  5
4A98C
  8
0
 10
2609.0134585090199835
 20
141.6070268124663016
 30
0.0
 40
0.5862475302816655
 50
127.9406978066025999
 51
144.7388285445175882
  0
ARC
  5
4A98D
  8
0
 10
2609.1076204502069231
 20
141.5925936898779014
 30
0.0
 40
0.672814197191994
 50
148.3668748061245992
 51
169.2715987478075874
  0
ARC
  5
4A98E
  8
0
 10
2609.8694750006579852
 20
141.4316640860334076
 30
0.0
 40
1.451401126719609
 50
168.6283351000977859
 51
180.1443598830464907
  0
LINE
  5
4A98F
  8
0
 10
2608.4180784807990676
 20
141.4280072045490897
 30
0.0
 11
2608.4180429894968256
 21
141.4064623834543113
 31
0.0
  0
ARC
  5
4A990
  8
0
 10
2608.3983087653818984
 20
141.4065068518767134
 30
0.0
 40
0.01973427421617
 50
273.5182949641912842
 51
359.8708918781763941
  0
ARC
  5
4A991
  8
0
 10
2607.8076375044061024
 20
141.3671247323491968
 30
0.0
 40
0.019685039399997
 50
359.9999999999919282
 51
90.0
  0
LINE
  5
4A992
  8
0
 10
2607.8273225438060763
 20
141.3671247323491968
 30
0.0
 11
2607.8273225438060763
 21
141.32654205514919
 31
0.0
  0
ARC
  5
4A993
  8
0
 10
2607.7213927376178617
 20
141.3068550207975989
 30
0.0
 40
0.0196870346630104
 50
90.0101911381761397
 51
153.214680446255187
  0
ARC
  5
4A994
  8
0
 10
2607.4273319850121879
 20
141.4553012376480865
 30
0.0
 40
0.3097184988665847
 50
317.2934150308436188
 51
333.2146804462552154
  0
ARC
  5
4A995
  8
0
 10
2607.4953406208687738
 20
141.3925302014177134
 30
0.0
 40
0.2171691739606718
 50
283.3348479965324032
 51
317.2934150308436188
  0
ARC
  5
4A996
  8
0
 10
2607.4760303372518138
 20
141.473997097174788
 30
0.0
 40
0.3008933768990389
 50
260.2477452952057888
 51
283.3348479965324032
  0
ARC
  5
4A997
  8
0
 10
2608.3015208240421998
 20
146.2769363193293088
 30
0.0
 40
5.1742556367244648
 50
259.2284110492876152
 51
260.2477452952057888
  0
ARC
  5
4A998
  8
0
 10
2606.9770562295771015
 20
139.3150962460528035
 30
0.0
 40
1.912451896952085
 50
79.2284110492876437
 51
89.0260275604042164
  0
LINE
  5
4A999
  8
0
 10
2602.3712915573710234
 20
140.7728503172490946
 30
0.0
 11
2606.9950430162061821
 21
140.7728503172490946
 31
0.0
  0
ARC
  5
4A99A
  8
0
 10
2606.9950430162061821
 20
139.4865420551491866
 30
0.0
 40
1.2863082620999999
 50
0.0
 51
90.0
  0
LINE
  5
4A99B
  8
0
 10
2607.48600974721694
 20
136.957904830749186
 30
0.0
 11
2605.3541449241170085
 21
139.0897707041492026
 31
0.0
  0
ARC
  5
4A99C
  8
0
 10
2606.9789376498838465
 20
140.7145626294336012
 30
0.0
 40
2.29780334279772
 50
219.9879401872142921
 51
224.9999858861204132
  0
ARC
  5
4A99D
  8
0
 10
2605.5474110035161175
 20
139.5138825211178926
 30
0.0
 40
0.4294079719605621
 50
193.6264701505668029
 51
219.9879401872142921
  0
ARC
  5
4A99E
  8
0
 10
2605.3739930841747992
 20
139.4718434948744061
 30
0.0
 40
0.250967353052786
 50
167.2289735586246024
 51
193.6264701505668029
  0
ARC
  5
4A99F
  8
0
 10
2605.473128411163998
 20
139.442207168309892
 30
0.0
 40
0.3542704070144764
 50
152.5285595614022895
 51
166.0986143649278119
  0
ARC
  5
4A9A0
  8
0
 10
2605.1481905796317733
 20
139.6107896177591101
 30
0.0
 40
0.011800300502877
 50
334.0954408007950178
 51
63.0212400151512995
  0
LINE
  5
4A9A1
  8
0
 10
2605.1535439059070995
 20
139.6213057477390009
 30
0.0
 11
2603.7699921791167981
 21
140.3262602706491862
 31
0.0
  0
ARC
  5
4A9A2
  8
0
 10
2603.7646303163592165
 20
140.3157358009212885
 30
0.0
 40
0.011811605957334
 50
63.0026545225568313
 51
151.9972237821087901
  0
LINE
  5
4A9A3
  8
0
 10
2603.7542015560111395
 20
140.3212815193523113
 30
0.0
 11
2603.7055165626311464
 21
140.2297290659097087
 31
0.0
  0
ARC
  5
4A9A4
  8
0
 10
2603.5906253879529686
 20
140.2908249280989139
 30
0.0
 40
0.1301256561773407
 50
248.2903742901524993
 51
331.9972237821103249
  0
LINE
  5
4A9A5
  8
0
 10
2604.1651358466888269
 20
140.1249245993761861
 30
0.0
 11
2604.1994170277171179
 21
140.1907781354491931
 31
0.0
  0
ARC
  5
4A9A6
  8
0
 10
2604.216859605981881
 20
140.1816981039312964
 30
0.0
 40
0.0196644478410835
 50
69.4007097202535164
 51
152.5000000093913002
  0
LINE
  5
4A9A7
  8
0
 10
2604.2237781497169635
 20
140.2001052835491919
 30
0.0
 11
2605.1058594606352017
 21
139.7508168877575088
 31
0.0
  0
ARC
  5
4A9A8
  8
0
 10
2605.0965752494571461
 20
139.7334626449608947
 30
0.0
 40
0.0196816239230852
 50
333.4942443112685169
 51
61.8540112229227788
  0
LINE
  5
4A9A9
  8
0
 10
2605.11418812871716
 20
139.7246789780492122
 30
0.0
 11
2605.0810547933110684
 21
139.6582405028811991
 31
0.0
  0
LINE
  5
4A9AA
  8
0
 10
2604.734356467735779
 20
139.9400420551492061
 30
0.0
 11
2606.9950430162061821
 21
139.9400420551492061
 31
0.0
  0
ARC
  5
4A9AB
  8
0
 10
2606.9950430162061821
 20
139.4865420551491866
 30
0.0
 40
0.4535000000000001
 50
0.0
 51
90.0
  0
LINE
  5
4A9AC
  8
0
 10
2607.4485430162058037
 20
139.4865420551491866
 30
0.0
 11
2607.4485430162058037
 21
138.1561696102569954
 31
0.0
  0
LINE
  5
4A9AD
  8
0
 10
2607.4485430162058037
 20
138.1561696102569954
 30
0.0
 11
2607.4485430162058037
 21
136.9953715802190004
 31
0.0
  0
ARC
  5
4A9AE
  8
0
 10
2604.550576880204062
 20
138.1798850979984934
 30
0.0
 40
0.0121339843383041
 50
243.3512754140043057
 51
269.2794939679628214
  0
ARC
  5
4A9AF
  8
0
 10
2604.5504277885761439
 20
138.1797832668700892
 30
0.0
 40
0.0120311943210679
 50
269.9833717742693011
 51
295.8387337784224087
  0
ARC
  5
4A9B0
  8
0
 10
2604.5508748759348236
 20
138.1791884417457936
 30
0.0
 40
0.0113018853332402
 50
295.1130493613997032
 51
333.1194581461645043
  0
ARC
  5
4A9B1
  8
0
 10
2604.6597813138318998
 20
138.1220483104027892
 30
0.0
 40
0.1116855456252702
 50
130.546904092739311
 51
152.2341875571250114
  0
ARC
  5
4A9B2
  8
0
 10
2604.6587334759360601
 20
138.1232731391650077
 30
0.0
 40
0.1100736617112519
 50
99.5958663389327938
 51
130.546904092739311
  0
ARC
  5
4A9B3
  8
0
 10
2604.6589517808702112
 20
138.1219818763484
 30
0.0
 40
0.1113832481749035
 50
67.7822522991837246
 51
99.5958663389327938
  0
ARC
  5
4A9B4
  8
0
 10
2604.6595802289189123
 20
138.1235204787651014
 30
0.0
 40
0.1097212480708277
 50
46.9536378750943513
 51
67.7822522991837246
  0
LINE
  5
4A9B5
  8
0
 10
2604.7344748476798486
 20
138.2037049433372999
 30
0.0
 11
2606.7347162339801798
 21
136.2058895462513988
 31
0.0
  0
ARC
  5
4A9B6
  8
0
 10
2607.8720799038860605
 20
137.374406189186999
 30
0.0
 40
1.6306524039289489
 50
225.7740320591190937
 51
236.1873863432437872
  0
ARC
  5
4A9B7
  8
0
 10
2604.317711682620029
 20
132.3851299576691929
 30
0.0
 40
4.4961532251838268
 50
51.1286675797700028
 51
53.9342477348372924
  0
ARC
  5
4A9B8
  8
0
 10
2608.0531283982681998
 20
136.9465109849481053
 30
0.0
 40
1.4001357603599329
 50
229.2609417876950033
 51
232.866505747600911
  0
ARC
  5
4A9B9
  8
0
 10
2607.2157542720010497
 20
135.8391025127743035
 30
0.0
 40
0.0118110236387468
 50
228.3352463842159068
 51
314.9999999253147962
  0
LINE
  5
4A9BA
  8
0
 10
2607.2241059268972094
 20
135.8307508578556906
 30
0.0
 11
2607.8644967982168055
 21
136.4681541426492117
 31
0.0
  0
ARC
  5
4A9BB
  8
0
 10
2607.8561451431100977
 20
136.4765057975349123
 30
0.0
 40
0.0118110237641025
 50
315.0000007588853919
 51
41.6647529517464932
  0
ARC
  5
4A9BC
  8
0
 10
2609.7800372332380903
 20
138.188509234979108
 30
0.0
 40
2.5635174104897991
 50
215.2748454843261925
 51
221.6647529517464932
  0
ARC
  5
4A9BD
  8
0
 10
2605.7865340144107904
 20
135.3833191245639966
 30
0.0
 40
2.316794749761458
 50
34.8763672848617006
 51
42.8154949327167529
  0
LINE
  5
4A9BE
  8
0
 10
2607.9340452577171163
 20
136.3985083538491949
 30
0.0
 11
2607.8783675584168122
 21
136.4541860531491864
 31
0.0
  0
LINE
  5
4A9BF
  8
0
 10
2607.8783675584168122
 20
136.4541860531491864
 30
0.0
 11
2607.2380740164171584
 21
135.813892950049194
 31
0.0
  0
LINE
  5
4A9C0
  8
0
 10
2607.2380740164171584
 20
135.813892950049194
 30
0.0
 11
2607.2937514138739061
 21
135.7582136853536099
 31
0.0
  0
LINE
  5
4A9C1
  8
0
 10
2607.2937514138739061
 20
135.7582136853536099
 30
0.0
 11
2607.2849271524169126
 21
135.7252810974491979
 31
0.0
  0
LINE
  5
4A9C2
  8
0
 10
2607.2849271524169126
 20
135.7252810974491979
 30
0.0
 11
2607.4556897791740084
 21
135.5545182566378912
 31
0.0
  0
LINE
  5
4A9C3
  8
0
 10
2607.4556897791740084
 20
135.5545182566378912
 30
0.0
 11
2607.4886236633169574
 21
135.5633428642491936
 31
0.0
  0
LINE
  5
4A9C4
  8
0
 10
2607.4886236633169574
 20
135.5633428642491936
 30
0.0
 11
2607.5443013626168067
 21
135.5076654565133936
 31
0.0
  0
LINE
  5
4A9C5
  8
0
 10
2607.5443013626168067
 20
135.5076654565133936
 30
0.0
 11
2607.5999790914070218
 21
135.5076654565133936
 31
0.0
  0
LINE
  5
4A9C6
  8
0
 10
2607.5999790914070218
 20
135.5076654565133936
 30
0.0
 11
2608.1845949046169153
 21
136.0922810076492055
 31
0.0
  0
LINE
  5
4A9C7
  8
0
 10
2608.1845949046169153
 20
136.0922810076492055
 30
0.0
 11
2608.1845949046169153
 21
136.147958706949197
 31
0.0
  0
LINE
  5
4A9C8
  8
0
 10
2608.1845949046169153
 20
136.147958706949197
 30
0.0
 11
2608.128917205317066
 21
136.2036364062491884
 31
0.0
  0
LINE
  5
4A9C9
  8
0
 10
2608.128917205317066
 20
136.2036364062491884
 30
0.0
 11
2608.1377417670169052
 21
136.2365701190491905
 31
0.0
  0
LINE
  5
4A9CA
  8
0
 10
2608.1377417670169052
 20
136.2365701190491905
 30
0.0
 11
2607.9669789722170208
 21
136.4073329172485955
 31
0.0
  0
LINE
  5
4A9CB
  8
0
 10
2607.9669789722170208
 20
136.4073329172485955
 30
0.0
 11
2607.9340452577171163
 21
136.3985083538491949
 31
0.0
  0
LINE
  5
4A9CC
  8
0
 10
2607.9340452577171163
 20
136.3985083538491949
 30
0.0
 11
2607.2937514138739061
 21
135.7582136853536099
 31
0.0
  0
ARC
  5
4A9CD
  8
0
 10
2607.4886286880750959
 20
135.6491209081912075
 30
0.0
 40
0.2146244396492712
 50
112.2260275995034959
 51
157.7739724004952109
  0
LINE
  5
4A9CE
  8
0
 10
2607.4074445598171224
 20
135.8477985048492087
 30
0.0
 11
2607.5084595938669736
 21
135.9488135388992021
 31
0.0
  0
ARC
  5
4A9CF
  8
0
 10
2608.198768919307895
 20
135.4934911502082002
 30
0.0
 40
0.8269494799768558
 50
123.4085176341728953
 51
146.5914823658293074
  0
LINE
  5
4A9D0
  8
0
 10
2607.7434465306168931
 20
136.1838004756490932
 30
0.0
 11
2607.8444615647172213
 21
136.284815509749194
 31
0.0
  0
ARC
  5
4A9D1
  8
0
 10
2608.0471980582651668
 20
136.1995724846742064
 30
0.0
 40
0.2199283045446926
 50
112.8049115211494069
 51
157.1950885276181964
  0
ARC
  5
4A9D2
  8
0
 10
2607.845078109185124
 20
136.4041706615500118
 30
0.0
 40
0.0315932003621717
 50
139.1070919424010981
 51
203.0156349883924918
  0
ARC
  5
4A9D3
  8
0
 10
2607.2864940696508711
 20
135.8377241027804132
 30
0.0
 40
0.0408269485769024
 50
70.2052714713211401
 51
117.993533083108801
  0
ARC
  5
4A9D4
  8
0
 10
2607.3777270446839793
 20
135.7600225515828924
 30
0.0
 40
0.2169773525109321
 50
292.4866257568946253
 51
337.513374243092187
  0
LINE
  5
4A9D5
  8
0
 10
2607.5782073563182166
 20
135.6770357083491945
 30
0.0
 11
2607.6792223903671584
 21
135.7780507423991878
 31
0.0
  0
ARC
  5
4A9D6
  8
0
 10
2607.2301508107379959
 20
136.4621092585381064
 30
0.0
 40
0.8182917189162605
 50
303.2841475993707263
 51
326.7158524250256164
  0
LINE
  5
4A9D7
  8
0
 10
2607.9142093271170779
 20
136.0130376791491926
 30
0.0
 11
2608.0152243612169514
 21
136.1140527132492082
 31
0.0
  0
ARC
  5
4A9D8
  8
0
 10
2607.9326171347870513
 20
136.3141534081501902
 30
0.0
 40
0.2164815048876738
 50
292.4322197688089773
 51
337.5677801824310222
  0
LINE
  5
4A9D9
  8
0
 10
2608.1845949046169153
 20
136.147958706949197
 30
0.0
 11
2607.5443013626168067
 21
135.5076654565133936
 31
0.0
  0
LINE
  5
4A9DA
  8
0
 10
2607.4607138879168815
 20
135.5595422399491952
 30
0.0
 11
2607.4556897791740084
 21
135.5545182566378912
 31
0.0
  0
LINE
  5
4A9DB
  8
0
 10
2608.1327178296169222
 20
136.2315461815491915
 30
0.0
 11
2608.1377417671169496
 21
136.2365701189492029
 31
0.0
  0
LINE
  5
4A9DC
  8
0
 10
2607.9669789722170208
 20
136.4073329172485955
 30
0.0
 11
2607.9619550330171478
 21
136.4023089781491933
 31
0.0
  0
LINE
  5
4A9DD
  8
0
 10
2607.2899510914171515
 20
135.7303050364492094
 30
0.0
 11
2607.2849271524169126
 21
135.7252810974491979
 31
0.0
  0
LINE
  5
4A9DE
  8
0
 10
2607.2899510914171515
 20
135.7303050364492094
 30
0.0
 11
2607.4607117562318308
 21
135.5595401083172931
 31
0.0
  0
LINE
  5
4A9DF
  8
0
 10
2607.5782073563182166
 20
135.6770357083491945
 30
0.0
 11
2607.4074445598171224
 21
135.8477985048492087
 31
0.0
  0
LINE
  5
4A9E0
  8
0
 10
2607.5084595938669736
 20
135.9488135388992021
 30
0.0
 11
2607.6792223903671584
 21
135.7780507423991878
 31
0.0
  0
LINE
  5
4A9E1
  8
0
 10
2607.7434465306168931
 20
136.1838004756490932
 30
0.0
 11
2607.9142093271170779
 21
136.0130376791491926
 31
0.0
  0
LINE
  5
4A9E2
  8
0
 10
2607.8444615647172213
 20
136.284815509749194
 30
0.0
 11
2608.0152243612169514
 21
136.1140527132492082
 31
0.0
  0
LINE
  5
4A9E3
  8
0
 10
2607.9619550330171478
 20
136.4023089781491933
 30
0.0
 11
2608.1327178279170766
 21
136.231546179849687
 31
0.0
  0
LINE
  5
4A9E4
  8
0
 10
2607.5999790619171108
 20
135.325861055149204
 30
0.0
 11
2607.5999790619171108
 21
135.4519874656492107
 31
0.0
  0
LINE
  5
4A9E5
  8
0
 10
2607.5999790619171108
 20
135.4519874656492107
 30
0.0
 11
2608.2402726039172194
 21
136.0922810076492055
 31
0.0
  0
ARC
  5
4A9E6
  8
0
 10
2608.0527349674171091
 20
135.6801917638491943
 30
0.0
 40
0.4527559054999721
 50
17.1758411152471417
 51
65.5301994790259528
  0
ARC
  5
4A9E7
  8
0
 10
2608.0527349674171091
 20
135.6801917638491943
 30
0.0
 40
0.4527559055001191
 50
0.0000000000032569
 51
17.1758411152471417
  0
LINE
  5
4A9E8
  8
0
 10
2608.5054908729171075
 20
135.6801917638491943
 30
0.0
 11
2608.5054908729171075
 21
135.325861055149204
 31
0.0
  0
LINE
  5
4A9E9
  8
0
 10
2608.1149977805171147
 20
136.022683883549206
 30
0.0
 11
2608.1428366301170172
 21
135.9948450338492023
 31
0.0
  0
LINE
  5
4A9EA
  8
0
 10
2607.4886236633169574
 20
135.5633428642491936
 30
0.0
 11
2608.128917205317066
 21
136.2036364062491884
 31
0.0
  0
ARC
  5
4A9EB
  8
0
 10
2608.4436112946377762
 20
135.3058115102379872
 30
0.0
 40
0.0203918394366051
 50
25.916757857660329
 51
79.4871907575201391
  0
LINE
  5
4A9EC
  8
0
 10
2608.4619523264718737
 20
135.3147240669343034
 30
0.0
 11
2608.4772702838108671
 21
135.2706243595299895
 31
0.0
  0
ARC
  5
4A9ED
  8
0
 10
2607.6880411928450485
 20
135.0549115224006016
 30
0.0
 40
0.8181776006029764
 50
13.2360611749736208
 51
15.2867737071668799
  0
LINE
  5
4A9EE
  8
0
 10
2608.4844838966178031
 20
135.2422443965492107
 30
0.0
 11
2608.4844839364641302
 21
135.1922417713001892
 31
0.0
  0
ARC
  5
4A9EF
  8
0
 10
2608.4320277901829286
 20
135.1932254213016051
 30
0.0
 40
0.0524653681012982
 50
342.6851950471771033
 51
358.9257238071106144
  0
LINE
  5
4A9F0
  8
0
 10
2608.4821156338539367
 20
135.1776105960908865
 30
0.0
 11
2608.45300058408111
 21
135.0075420551492016
 31
0.0
  0
LINE
  5
4A9F1
  8
0
 10
2607.6695761860169114
 20
135.5772622890492016
 30
0.0
 11
2607.697415035666836
 21
135.5494234393991917
 31
0.0
  0
LINE
  5
4A9F2
  8
0
 10
2604.6049158634359628
 20
140.0059726680491963
 30
0.0
 11
2606.9950430162061821
 21
140.0059726680491963
 31
0.0
  0
ARC
  5
4A9F3
  8
0
 10
2606.9950430162061821
 20
139.4865420551491866
 30
0.0
 40
0.5194306129000031
 50
0.0
 51
90.0
  0
LINE
  5
4A9F4
  8
0
 10
2607.5144736291058507
 20
139.4865420551491866
 30
0.0
 11
2607.5144736291058507
 21
138.1076809034528878
 31
0.0
  0
LINE
  5
4A9F5
  8
0
 10
2607.5144736291058507
 20
138.1076809034528878
 30
0.0
 11
2607.5144736291058507
 21
136.9266151429893057
 31
0.0
  0
LINE
  5
4A9F6
  8
0
 10
2608.7357679358060523
 20
137.279642348003307
 30
0.0
 11
2608.7357679358060523
 21
138.1876457758501999
 31
0.0
  0
LINE
  5
4A9F7
  8
0
 10
2608.7357679358060523
 20
138.1876457758501999
 30
0.0
 11
2608.7357679358060523
 21
139.4865420551491866
 31
0.0
  0
ARC
  5
4A9F8
  8
0
 10
2606.99504072503305
 20
139.4865420551491866
 30
0.0
 40
1.740727210773261
 50
0.0
 51
24.936509327666819
  0
ARC
  5
4A9F9
  8
0
 10
2609.4760823068850186
 20
140.744863563612796
 30
0.0
 40
1.0438756563936871
 50
183.9143585121460092
 51
210.1566205977136974
  0
ARC
  5
4A9FA
  8
0
 10
2608.3980878993029364
 20
141.3065845547552897
 30
0.0
 40
0.0199593558912773
 50
0.8513978682371933
 51
89.2187358217806263
  0
LINE
  5
4A9FB
  8
0
 10
2608.4180450516169003
 20
141.3068811338021931
 30
0.0
 11
2608.4207849510289634
 21
140.941575721174587
 31
0.0
  0
ARC
  5
4A9FC
  8
0
 10
2611.4595925466451263
 20
140.9643676833456141
 30
0.0
 40
3.038893067666192
 50
180.4297273557806136
 51
185.490522266055109
  0
LINE
  5
4A9FD
  8
0
 10
2608.2997634886060041
 20
141.32654205514919
 30
0.0
 11
2608.2997634886060041
 21
141.3671247323491968
 31
0.0
  0
ARC
  5
4A9FE
  8
0
 10
2608.3194833358111282
 20
141.3671247323491968
 30
0.0
 40
0.0197198472046409
 50
93.4047723246885937
 51
180.0000000000015916
  0
LINE
  5
4A9FF
  8
0
 10
2608.1730895155060352
 20
141.4168033419491906
 30
0.0
 11
2608.1730895155060352
 21
141.3868097717491992
 31
0.0
  0
ARC
  5
4AA00
  8
0
 10
2611.9980152535699744
 20
141.4171448290620958
 30
0.0
 40
3.8249257526390621
 50
175.5756516148088053
 51
180.0050190176723959
  0
ARC
  5
4AA01
  8
0
 10
2609.8465347833121086
 20
141.5836119643606992
 30
0.0
 40
1.667014836721358
 50
166.6142767780110034
 51
175.5756516148088053
  0
ARC
  5
4AA02
  8
0
 10
2608.6836280520860782
 20
141.8603492291084933
 30
0.0
 40
0.4716339019433547
 50
153.6976118315683948
 51
166.6142767780110034
  0
ARC
  5
4AA03
  8
0
 10
2608.1964410635300737
 20
142.1011573034793116
 30
0.0
 40
0.0718177431003137
 50
333.6976118315685085
 51
22.0924537022066083
  0
ARC
  5
4AA04
  8
0
 10
2607.6046459180888633
 20
142.1005865233273084
 30
0.0
 40
0.0401695902026272
 50
136.6550779850304878
 51
231.2211326794125057
  0
ARC
  5
4AA05
  8
0
 10
2607.2486808156468214
 20
141.7074559639378037
 30
0.0
 40
0.4902481875595715
 50
31.0319555857005795
 51
47.5634764039128868
  0
ARC
  5
4AA06
  8
0
 10
2606.8935735719260265
 20
141.5588069418732005
 30
0.0
 40
0.872941560208371
 50
8.7699601391969662
 51
27.3742993102172605
  0
ARC
  5
4AA07
  8
0
 10
2605.9926547194431805
 20
141.4198209624184983
 30
0.0
 40
1.7845181512002981
 50
2.6049146504251399
 51
8.7699601391969662
  0
ARC
  5
4AA08
  8
0
 10
2606.3065123332648909
 20
141.4341001305949135
 30
0.0
 40
1.47033588499547
 50
359.3259655304846092
 51
2.6049146504251399
  0
LINE
  5
4AA09
  8
0
 10
2607.7767464762059717
 20
141.4168033206491941
 30
0.0
 11
2607.7767464762059717
 21
141.3868097717491992
 31
0.0
  0
LINE
  5
4AA0A
  8
0
 10
2600.793298403415065
 20
140.0806960696889121
 30
0.0
 11
2600.7941311327867879
 21
140.064806647513592
 31
0.0
  0
ARC
  5
4AA0B
  8
0
 10
2600.8019943573258388
 20
140.0652187416702077
 30
0.0
 40
0.007874015604268
 50
183.000000149568109
 51
243.0000520288103871
  0
LINE
  5
4AA0C
  8
0
 10
2600.7984196354168489
 20
140.0582029391491972
 30
0.0
 11
2600.8920476100861379
 21
140.010497210364889
 31
0.0
  0
ARC
  5
4AA0D
  8
0
 10
2600.8956223865698121
 20
140.0175131199974032
 30
0.0
 40
0.0078741358182511
 50
243.0000520288089945
 51
302.9986933498938129
  0
LINE
  5
4AA0E
  8
0
 10
2600.8999107977001586
 20
140.0109092162381899
 30
0.0
 11
2600.9132554495740806
 21
140.0195749018255924
 31
0.0
  0
LINE
  5
4AA0F
  8
0
 10
2601.1981305434169371
 20
139.8744237915491908
 30
0.0
 11
2601.1989632727818389
 21
139.8585343695079928
 31
0.0
  0
ARC
  5
4AA10
  8
0
 10
2601.2068264975860075
 20
139.858946463678592
 30
0.0
 40
0.0078740158699096
 50
183.0000001495517949
 51
243.0000018875882972
  0
LINE
  5
4AA11
  8
0
 10
2601.2032517694169655
 20
139.8519306640490925
 30
0.0
 11
2601.2968797142912081
 21
139.8042248472374922
 31
0.0
  0
ARC
  5
4AA12
  8
0
 10
2601.3004544444970634
 20
139.8112406508662957
 30
0.0
 40
0.0078740203585373
 50
243.0000018875896899
 51
302.9999514620178047
  0
LINE
  5
4AA13
  8
0
 10
2601.3047429377529625
 20
139.8046369381071941
 30
0.0
 11
2601.3180872301641102
 21
139.8133028068531871
 31
0.0
  0
LINE
  5
4AA14
  8
0
 10
2601.6853928321129388
 20
139.6261512549205008
 30
0.0
 11
2601.6862255615819777
 21
139.6102618328079927
 31
0.0
  0
ARC
  5
4AA15
  8
0
 10
2601.6940887863338503
 20
139.6106739270254025
 30
0.0
 40
0.0078740158211991
 50
183.0000005091584967
 51
242.9999994908276051
  0
LINE
  5
4AA16
  8
0
 10
2601.6905140578951432
 20
139.6036581275888864
 30
0.0
 11
2601.784141993834055
 21
139.5559523103962931
 31
0.0
  0
ARC
  5
4AA17
  8
0
 10
2601.7877167285159885
 20
139.5629681220844986
 30
0.0
 40
0.0078740295716149
 50
242.999999490804413
 51
302.999949304936024
  0
LINE
  5
4AA18
  8
0
 10
2601.7920052265408231
 20
139.5563644014372073
 30
0.0
 11
2601.8053495195317737
 21
139.5650302698448115
 31
0.0
  0
LINE
  5
4AA19
  8
0
 10
2602.2156101768177905
 20
139.3559920240491863
 30
0.0
 11
2602.216442906183147
 21
139.340102601890095
 31
0.0
  0
ARC
  5
4AA1A
  8
0
 10
2602.2243061308668075
 20
139.3405146960517982
 30
0.0
 40
0.0078740157502923
 50
183.0000001307433024
 51
242.9999999608733958
  0
LINE
  5
4AA1B
  8
0
 10
2602.2207314025181404
 20
139.3334988966491892
 30
0.0
 11
2602.3143593465038066
 21
139.2857930763235004
 31
0.0
  0
ARC
  5
4AA1C
  8
0
 10
2602.3179340748019968
 20
139.2928088756223133
 30
0.0
 40
0.0078740156337639
 50
242.9999999608733958
 51
303.0000006485431072
  0
LINE
  5
4AA1D
  8
0
 10
2602.3222225711529063
 20
139.286205170507202
 30
0.0
 11
2602.335566849551924
 21
139.2948710464397948
 31
0.0
  0
LINE
  5
4AA1E
  8
0
 10
2602.7458275215171852
 20
139.0858327931491942
 30
0.0
 11
2602.7466602508829965
 21
139.0699433709901029
 31
0.0
  0
ARC
  5
4AA1F
  8
0
 10
2602.7545234756480568
 20
139.0703554651560125
 30
0.0
 40
0.0078740158309108
 50
183.0000001307139996
 51
243.0000036856133931
  0
LINE
  5
4AA20
  8
0
 10
2602.750948747718212
 20
139.0633396654490923
 30
0.0
 11
2602.8445766942190858
 21
139.0156338515093921
 31
0.0
  0
ARC
  5
4AA21
  8
0
 10
2602.8481514255008733
 20
139.0226496577951139
 30
0.0
 40
0.0078740232145585
 50
243.000003685612711
 51
302.9999119205601801
  0
LINE
  5
4AA22
  8
0
 10
2602.8524399157549851
 20
139.0160459396811063
 30
0.0
 11
2602.8657842194970726
 21
139.02471180269211
 31
0.0
  0
LINE
  5
4AA23
  8
0
 10
2603.2330898102159153
 20
138.8375602564815097
 30
0.0
 11
2603.2339225395789981
 21
138.8216708343686889
 31
0.0
  0
ARC
  5
4AA24
  8
0
 10
2603.2417857643690695
 20
138.8220829285359059
 30
0.0
 40
0.0078740158560594
 50
183.0000001307188882
 51
243.000014224108412
  0
LINE
  5
4AA25
  8
0
 10
2603.2382110377170648
 20
138.8150671281491952
 30
0.0
 11
2603.3318389899541216
 21
138.7673613329791067
 31
0.0
  0
ARC
  5
4AA26
  8
0
 10
2603.335413731441804
 20
138.7743771624845124
 30
0.0
 40
0.0078740485366894
 50
243.0000142241345884
 51
302.999643057955609
  0
LINE
  5
4AA27
  8
0
 10
2603.33970220449919
 20
138.7677734030096985
 30
0.0
 11
2603.3530465850421933
 21
138.776439226868888
 31
0.0
  0
LINE
  5
4AA28
  8
0
 10
2603.6379219503169224
 20
138.6312879783492065
 30
0.0
 11
2603.6387546796809147
 21
138.6153985562164053
 31
0.0
  0
ARC
  5
4AA29
  8
0
 10
2603.6466179043659395
 20
138.6158106503779948
 30
0.0
 40
0.0078740157497158
 50
183.0000001306977992
 51
238.7219687824747894
  0
LINE
  5
4AA2A
  8
0
 10
2603.642529782706788
 20
138.6090810600987879
 30
0.0
 11
2603.7366711123167988
 21
138.5610890346491999
 31
0.0
  0
ARC
  5
4AA2B
  8
0
 10
2603.7402458483679766
 20
138.5681048303580098
 30
0.0
 40
0.0078740159088164
 50
243.000000364764702
 51
302.9999984694600244
  0
LINE
  5
4AA2C
  8
0
 10
2603.7445343446170227
 20
138.561501124849201
 30
0.0
 11
2603.7578786236140331
 21
138.5701670004484072
 31
0.0
  0
LINE
  5
4AA2D
  8
0
 10
2603.9275268492178839
 20
138.4837269120426981
 30
0.0
 11
2603.9283595785182115
 21
138.4678374899490905
 31
0.0
  0
ARC
  5
4AA2E
  8
0
 10
2603.9362228031450286
 20
138.4682495840768865
 30
0.0
 40
0.0078740156918537
 50
182.999999905243186
 51
243.0000005603394015
  0
LINE
  5
4AA2F
  8
0
 10
2603.9326480748950416
 20
138.4612337846888863
 30
0.0
 11
2604.0262760193431859
 21
138.4135279653617943
 31
0.0
  0
ARC
  5
4AA30
  8
0
 10
2604.029850748204808
 20
138.4205437659508107
 30
0.0
 40
0.0078740170397769
 50
243.000000560338691
 51
302.9999858530018173
  0
LINE
  5
4AA31
  8
0
 10
2604.0341392436171191
 20
138.4139400585492012
 30
0.0
 11
2604.0474835261861699
 21
138.4226059322909919
 31
0.0
  0
LINE
  5
4AA32
  8
0
 10
2604.0784424405169375
 20
138.406831577551003
 30
0.0
 11
2604.0792751698181746
 21
138.3909421554492098
 31
0.0
  0
ARC
  5
4AA33
  8
0
 10
2604.0871383944449917
 20
138.3913542495768922
 30
0.0
 40
0.0078740156918571
 50
182.9999999052203918
 51
243.0000005602825865
  0
LINE
  5
4AA34
  8
0
 10
2604.0835636661950048
 20
138.384338450188892
 30
0.0
 11
2604.177186805582096
 21
138.3366350791623915
 31
0.0
  0
ARC
  5
4AA35
  8
0
 10
2604.1807657767039927
 20
138.3436592056540064
 30
0.0
 40
0.0078833614186549
 50
243.0000005602803128
 51
302.9607677371182035
  0
LINE
  5
4AA36
  8
0
 10
2604.1850548349170822
 20
138.3370447240490932
 30
0.0
 11
2604.1984103270879132
 21
138.3457048862219096
 31
0.0
  0
ARC
  5
4AA37
  8
0
 10
2605.2694617320898942
 20
136.7605941228559061
 30
0.0
 40
2.105921875622764
 50
312.8880589739533775
 51
334.6273241549943123
  0
ARC
  5
4AA38
  8
0
 10
2606.7213821776331315
 20
135.1974884774583927
 30
0.0
 40
0.0274726586489309
 50
132.8880589739341929
 51
203.1270998902872975
  0
LINE
  5
4AA39
  8
0
 10
2606.6961173365061768
 20
135.1866979827491946
 30
0.0
 11
2606.7653971991230719
 21
135.0244862612794066
 31
0.0
  0
ARC
  5
4AA3A
  8
0
 10
2606.7911378644989782
 20
135.0354799782857071
 30
0.0
 40
0.0279900637305168
 50
203.1270998902857912
 51
266.5022310762611255
  0
ARC
  5
4AA3B
  8
0
 10
2606.9203721400172071
 20
135.2865007349712982
 30
0.0
 40
0.0393603202418413
 50
89.9967340669750939
 51
135.0091916264150882
  0
LINE
  5
4AA3C
  8
0
 10
2606.8925357261059617
 20
135.3143282190492016
 30
0.0
 11
2606.8486051436930211
 21
135.270383539322296
 31
0.0
  0
ARC
  5
4AA3D
  8
0
 10
2606.87654595508684
 20
135.2424516912525974
 30
0.0
 40
0.0395079368976212
 50
135.0091916264150882
 51
182.1690712292846968
  0
LINE
  5
4AA3E
  8
0
 10
2606.8370663259061075
 20
135.2409563793491998
 30
0.0
 11
2606.8370663259061075
 21
135.1922417713001892
 31
0.0
  0
ARC
  5
4AA3F
  8
0
 10
2606.8765267359190148
 20
135.1922117419765073
 30
0.0
 40
0.0394604214383734
 50
179.9563979904285134
 51
201.5408178330108058
  0
LINE
  5
4AA40
  8
0
 10
2606.8398223789058648
 20
135.177723297049198
 30
0.0
 11
2606.897176783105806
 21
135.0324242992244876
 31
0.0
  0
ARC
  5
4AA41
  8
0
 10
2606.9338790116798918
 20
135.0469119039858015
 30
0.0
 40
0.0394581331800535
 50
201.5408178330137901
 51
266.1665286940934152
  0
ARC
  5
4AA42
  8
0
 10
2613.2965213565080376
 20
137.352203566036394
 30
0.0
 40
4.5613306057339811
 50
180.9114943154633011
 51
190.4346948778106992
  0
ARC
  5
4AA43
  8
0
 10
2610.7837841486748403
 20
136.7533918435131
 30
0.0
 40
1.948957394905944
 50
212.9363270929711973
 51
224.9648412572803124
  0
ARC
  5
4AA44
  8
0
 10
2611.7574016954467879
 20
137.7258152297075924
 30
0.0
 40
3.3250163941491921
 50
224.9648412572803124
 51
228.9604414361760973
  0
ARC
  5
4AA45
  8
0
 10
2609.5559358345540204
 20
135.1968470281250916
 30
0.0
 40
0.0279124898703978
 50
336.4109288111238243
 51
48.9604414361760689
  0
ARC
  5
4AA46
  8
0
 10
2601.5207506890401419
 20
138.7055080489157035
 30
0.0
 40
8.7957458870948244
 50
335.2551820618907072
 51
336.4109288111238243
  0
ARC
  5
4AA47
  8
0
 10
2609.4801318584941328
 20
135.0408371812584107
 30
0.0
 40
0.0334146518578564
 50
274.859595391192272
 51
329.3563799223078945
  0
ARC
  5
4AA48
  8
0
 10
2609.3296740227501687
 20
135.2857172665677012
 30
0.0
 40
0.0401268244632695
 50
46.9206907402152211
 51
89.584740349883873
  0
LINE
  5
4AA49
  8
0
 10
2609.3570810472060657
 20
135.3150262592492084
 30
0.0
 11
2609.403258894791179
 21
135.2705979157493061
 31
0.0
  0
ARC
  5
4AA4A
  8
0
 10
2609.3790033498908087
 20
135.2425604008014091
 30
0.0
 40
0.0370733557000351
 50
0.062113397477622
 51
49.1365775693701679
  0
LINE
  5
4AA4B
  8
0
 10
2609.4160766838058407
 20
135.2426005913991958
 30
0.0
 11
2609.4160864531058905
 21
135.1926090754492122
 31
0.0
  0
ARC
  5
4AA4C
  8
0
 10
2609.3750545044440514
 20
135.1929194277292083
 30
0.0
 40
0.0410326329420633
 50
337.661419186063597
 51
359.5656443689800881
  0
LINE
  5
4AA4D
  8
0
 10
2609.4130078022990347
 20
135.1773237825665888
 30
0.0
 11
2609.3523978384059774
 21
135.0313603349491984
 31
0.0
  0
ARC
  5
4AA4E
  8
0
 10
2609.3152527532961358
 20
135.0474939179364924
 30
0.0
 40
0.0404975289110413
 50
279.4213054327543091
 51
336.5227828839683184
  0
ARC
  5
4AA4F
  8
0
 10
2605.2939467321079974
 20
136.7062263789487986
 30
0.0
 40
2.1423783066959818
 50
319.8857044531158067
 51
335.3132057905987722
  0
LINE
  5
4AA50
  8
0
 10
2606.7026802286559359
 20
135.2176126936589071
 30
0.0
 11
2606.8370663259061075
 21
135.2176126936589071
 31
0.0
  0
LINE
  5
4AA51
  8
0
 10
2609.4160815669201838
 20
135.2176126936589071
 30
0.0
 11
2609.5745877573949656
 21
135.2176126936589071
 31
0.0
  0
ARC
  5
4AA53
  8
0
 10
2611.2428305707599065
 20
137.0275530113123068
 30
0.0
 40
2.48336346284399
 50
191.6500290887312019
 51
212.4866543028161061
  0
LINE
  5
4AA54
  8
0
 10
2608.4034294548559956
 20
137.6770670945491872
 30
0.0
 11
2607.7236565776561292
 21
137.6770670945491872
 31
0.0
  0
LINE
  5
4AA55
  8
0
 10
2608.4033599610461351
 20
137.6573825185649866
 30
0.0
 11
2607.7237280560561885
 21
137.6573825185649866
 31
0.0
  0
ARC
  5
4AA56
  8
0
 10
2607.723657667774205
 20
137.6967533409149951
 30
0.0
 40
0.0196862463960552
 50
180.1277433150405898
 51
269.996827272204996
  0
ARC
  5
4AA57
  8
0
 10
2607.723727838816103
 20
137.6376976960052048
 30
0.0
 40
0.0196848225609357
 50
89.9993676908811437
 51
180.0002614287708127
  0
LINE
  5
4AA58
  8
0
 10
2607.7040430162569464
 20
137.6376976062582003
 30
0.0
 11
2607.7040430162569464
 21
136.8572697278563908
 31
0.0
  0
ARC
  5
4AA59
  8
0
 10
2594.6425098055528906
 20
136.901929747132499
 30
0.0
 40
13.0616095612918404
 50
359.3527489677935023
 51
359.804094924801916
  0
ARC
  5
4AA5A
  8
0
 10
2603.4852983107448381
 20
136.8020315082721083
 30
0.0
 40
4.2182567917988818
 50
358.4426052865520091
 51
359.3527489677935023
  0
ARC
  5
4AA5B
  8
0
 10
2608.4034250689737746
 20
137.6967566478635945
 30
0.0
 40
0.0196895538029318
 50
270.0127627350652233
 51
359.8753829359313841
  0
ARC
  5
4AA5C
  8
0
 10
2608.4033562534091288
 20
137.6376976957375859
 30
0.0
 40
0.0196848231765306
 50
359.999739350258892
 51
89.9892083396612463
  0
LINE
  5
4AA5D
  8
0
 10
2608.4230410765858323
 20
137.6376976062582003
 30
0.0
 11
2608.4230410765858323
 21
136.8572697278563908
 31
0.0
  0
ARC
  5
4AA5E
  8
0
 10
2621.4845742872889787
 20
136.901929747132499
 30
0.0
 40
13.0616095612918404
 50
180.1959050751981124
 51
180.6472510322064124
  0
ARC
  5
4AA5F
  8
0
 10
2612.6417857820961217
 20
136.8020315082721083
 30
0.0
 40
4.2182567917988818
 50
180.6472510322064124
 51
181.8172371686804922
  0
ARC
  5
4AA60
  8
0
 10
2610.680137022145118
 20
136.7169802611414866
 30
0.0
 40
2.2550127979234489
 50
181.2378765871588087
 51
189.9217913387419117
  0
ARC
  5
4AA61
  8
0
 10
2609.7011004530199898
 20
136.5457273015530859
 30
0.0
 40
1.2611113038853221
 50
189.9217913387419117
 51
213.2722470516708881
  0
ARC
  5
4AA62
  8
0
 10
2610.2132396433689792
 20
136.8817848739550129
 30
0.0
 40
1.8736643564933271
 50
213.2722470516708881
 51
236.1416249775805056
  0
LINE
  5
4AA63
  8
0
 10
2607.7643304178559447
 20
137.6573825185649866
 30
0.0
 11
2607.7643304178559447
 21
137.6770670945491872
 31
0.0
  0
LINE
  5
4AA64
  8
0
 10
2608.362755615055903
 20
137.6573825185649866
 30
0.0
 11
2608.362755615055903
 21
137.6770670945491872
 31
0.0
  0
LINE
  5
4AA65
  8
0
 10
2608.2813512783059195
 20
139.4865420551491866
 30
0.0
 11
2608.2813512783059195
 21
138.9459725669208865
 31
0.0
  0
ARC
  5
4AA66
  8
0
 10
2605.9612231950191017
 20
136.7711113989738863
 30
0.0
 40
1.7923288988779551
 50
306.258876873746317
 51
321.2937704603322118
  0
ARC
  5
4AA67
  8
0
 10
2607.0411604074010938
 20
135.2813270031103059
 30
0.0
 40
0.0458160135012268
 50
103.5857730190362958
 51
133.9168069138686974
  0
LINE
  5
4AA68
  8
0
 10
2607.0093818174059379
 20
135.3143304621875131
 30
0.0
 11
2606.9719953569060635
 21
135.2703916031875053
 31
0.0
  0
ARC
  5
4AA69
  8
0
 10
2607.0277222615331993
 20
135.2353382413062945
 30
0.0
 40
0.0658348126176978
 50
147.8291068916965116
 51
173.7082013284401114
  0
LINE
  5
4AA6A
  8
0
 10
2606.9622839948578985
 20
135.2425532123430969
 30
0.0
 11
2606.9622676504732226
 21
135.1922417713001892
 31
0.0
  0
ARC
  5
4AA6B
  8
0
 10
2607.0134904543551784
 20
135.193770851278714
 30
0.0
 40
0.0512456215020298
 50
181.7098599275975062
 51
198.2893527349903877
  0
LINE
  5
4AA6C
  8
0
 10
2606.9648335663841863
 20
135.1776891543491956
 30
0.0
 11
2607.0128894846579897
 21
135.0322908520400915
 31
0.0
  0
ARC
  5
4AA6D
  8
0
 10
2607.0479429276401788
 20
135.0438764439238923
 30
0.0
 40
0.0369184209327059
 50
198.2893527349935141
 51
259.795102479736272
  0
LINE
  5
4AA6E
  8
0
 10
2607.7039714703059872
 20
137.6967094496492052
 30
0.0
 11
2607.7076600338559729
 21
138.5920371381492089
 31
0.0
  0
ARC
  5
4AA6F
  8
0
 10
2611.9330466592909943
 20
138.6450920234885871
 30
0.0
 40
4.2257196967218018
 50
178.1527879200367863
 51
180.7193806261250018
  0
ARC
  5
4AA70
  8
0
 10
2607.7470586858748902
 20
138.7807210658843076
 30
0.0
 40
0.0375403260789381
 50
145.5718905829018013
 51
179.1082138856968129
  0
ARC
  5
4AA71
  8
0
 10
2608.1844187029651039
 20
138.5107603299829861
 30
0.0
 40
0.5514677291898956
 50
103.6558698889456025
 51
148.128352619731487
  0
ARC
  5
4AA72
  8
0
 10
2608.0625704214849065
 20
139.0004345354574866
 30
0.0
 40
0.0473724123937637
 50
77.6767486851571505
 51
88.8224367867110516
  0
ARC
  5
4AA73
  8
0
 10
2608.0652030881028622
 20
138.9963566085959883
 30
0.0
 40
0.0514670836708438
 50
91.8473375277996666
 51
102.3184860008856987
  0
ARC
  5
4AA74
  8
0
 10
2608.063417722451959
 20
139.218686741193892
 30
0.0
 40
0.8694099120735815
 50
256.4316092881758777
 51
283.5925293121567279
  0
ARC
  5
4AA75
  8
0
 10
2607.8702222936240105
 20
138.4161501463073023
 30
0.0
 40
0.0439494518879327
 50
221.1628973329412986
 51
255.8106152269535016
  0
ARC
  5
4AA76
  8
0
 10
2608.2598668199648273
 20
138.742009551810213
 30
0.0
 40
0.55188381525788
 50
181.406961213784399
 51
220.0058207912134094
  0
ARC
  5
4AA77
  8
0
 10
2608.0635421416400277
 20
138.9347754280526033
 30
0.0
 40
0.0584787566786857
 50
75.1373951777370337
 51
104.8617439271891953
  0
ARC
  5
4AA78
  8
0
 10
2608.3728738353620429
 20
138.251998701973406
 30
0.0
 40
0.8073126954635812
 50
113.6870739170227012
 51
138.3112429563134071
  0
ARC
  5
4AA79
  8
0
 10
2607.8190714560091692
 20
138.7572266835049959
 30
0.0
 40
0.0584231406415469
 50
147.1365729461300873
 51
176.8850334201387113
  0
ARC
  5
4AA7A
  8
0
 10
2608.5638665264491465
 20
138.8403325529272081
 30
0.0
 40
0.8070996395203422
 50
185.68360876509729
 51
210.3145789791643097
  0
ARC
  5
4AA7B
  8
0
 10
2607.912414637204165
 20
138.4697752216634115
 30
0.0
 40
0.0583717223405624
 50
219.1131543241212114
 51
248.8898106508887906
  0
ARC
  5
4AA7C
  8
0
 10
2608.0635551970572124
 20
139.203761899807688
 30
0.0
 40
0.8070190098420023
 50
257.6822469147468837
 51
282.3149674229842958
  0
LINE
  5
4AA7D
  8
0
 10
2607.7635043443337963
 20
138.7752699499079085
 30
0.0
 11
2607.7114248545740338
 21
138.7925323379959934
 31
0.0
  0
LINE
  5
4AA7E
  8
0
 10
2607.8781058215540725
 20
138.4225506185669872
 30
0.0
 11
2607.8472501069359168
 21
138.3786823873662968
 31
0.0
  0
LINE
  5
4AA7F
  8
0
 10
2608.0635439675920679
 20
138.9932700146003128
 30
0.0
 11
2608.0635439675920679
 21
139.0477969431663894
 31
0.0
  0
ARC
  5
4AA80
  8
0
 10
2604.1940412758931416
 20
138.6450920234885871
 30
0.0
 40
4.2257196967218018
 50
359.280619373874913
 51
1.8472120799632381
  0
ARC
  5
4AA81
  8
0
 10
2608.3800292493087909
 20
138.7807210658843076
 30
0.0
 40
0.0375403260789381
 50
0.8917861143032059
 51
34.4281094170981632
  0
ARC
  5
4AA82
  8
0
 10
2607.9425136291110903
 20
138.5106152796807066
 30
0.0
 40
0.5516764632147099
 50
31.8759076437897484
 51
76.352448709228284
  0
ARC
  5
4AA83
  8
0
 10
2608.2572814501140783
 20
138.4156576706398027
 30
0.0
 40
0.0433123743022277
 50
283.9764979083162189
 51
318.9655117860165774
  0
ARC
  5
4AA84
  8
0
 10
2607.8672211152188538
 20
138.742009551810213
 30
0.0
 40
0.55188381525788
 50
319.9941792087877843
 51
358.5930387862155726
  0
ARC
  5
4AA85
  8
0
 10
2607.7542336505071034
 20
138.252020297283309
 30
0.0
 40
0.807283732938518
 50
41.6885353325050403
 51
66.3137567468461668
  0
ARC
  5
4AA86
  8
0
 10
2608.3080164791749667
 20
138.7572266835049959
 30
0.0
 40
0.0584231406415469
 50
3.11496657986123
 51
32.8634270538698487
  0
ARC
  5
4AA87
  8
0
 10
2607.5632214087349894
 20
138.8403325529272081
 30
0.0
 40
0.8070996395203422
 50
329.6854210208356903
 51
354.3163912349025964
  0
ARC
  5
4AA88
  8
0
 10
2608.2146517058558857
 20
138.4697980206501029
 30
0.0
 40
0.0584028586768505
 50
291.1044092443059981
 51
320.8828545010902076
  0
LINE
  5
4AA89
  8
0
 10
2608.3635835908498848
 20
138.7752699499079085
 30
0.0
 11
2608.415663080610102
 21
138.7925323379959934
 31
0.0
  0
LINE
  5
4AA8A
  8
0
 10
2608.2489821136309729
 20
138.4225506185669872
 30
0.0
 11
2608.279837828248219
 21
138.3786823873662968
 31
0.0
  0
ARC
  5
4AA8B
  8
0
 10
4394.7196310337012619
 20
145.4998203581164944
 30
0.0
 40
1786.3135595913090583
 50
180.2215668176617953
 51
180.2502844425040109
  0
LINE
  5
4AA8D
  8
0
 10
2606.8486129567481839
 20
135.2703913526993063
 30
0.0
 11
2609.4034956307018547
 21
135.2703913526993063
 31
0.0
  0
LINE
  5
4AA8E
  8
0
 10
2606.8370663144828541
 20
135.1922112288112885
 30
0.0
 11
2609.4160810253829368
 21
135.1922112288112885
 31
0.0
  0
ENDSEC
  0
EOF
