  0
SECTION
  2
HEADER
  9
$ACADVER
  1
AC1009
  9
$INSBASE
 10
6707.6563743745218744
 20
299.6869017398079222
 30
0.0
  9
$EXTMIN
 10
6698.8611495680534063
 20
299.6711896725129805
 30
-0.0000000349181948
  9
$EXTMAX
 10
6709.0988828572517377
 20
312.1251434927410173
 30
0.0000000814935746
  9
$LIMMIN
 10
0.0
 20
0.0
  9
$LIMMAX
 10
11.6929133858000007
 20
8.2677165353999982
  9
$ORTHOMODE
 70
     0
  9
$REGENMODE
 70
     1
  9
$FILLMODE
 70
     1
  9
$QTEXTMODE
 70
     0
  9
$MIRRTEXT
 70
     0
  9
$DRAGMODE
 70
     2
  9
$LTSCALE
 40
0.6431102362
  9
$OSMODE
 70
  4095
  9
$ATTMODE
 70
     1
  9
$TEXTSIZE
 40
0.2
  9
$TRACEWID
 40
0.05
  9
$TEXTSTYLE
  7
STANDARD
  9
$CLAYER
  8
0
  9
$CELTYPE
  6
BYLAYER
  9
$CECOLOR
 62
   256
  9
$DIMSCALE
 40
1.0
  9
$DIMASZ
 40
0.1875
  9
$DIMEXO
 40
0.0625
  9
$DIMDLI
 40
0.4443307087
  9
$DIMRND
 40
0.0
  9
$DIMDLE
 40
0.0
  9
$DIMEXE
 40
0.125
  9
$DIMTP
 40
0.01
  9
$DIMTM
 40
0.01
  9
$DIMTXT
 40
2.0
  9
$DIMCEN
 40
0.1052362205
  9
$DIMTSZ
 40
0.0
  9
$DIMTOL
 70
     1
  9
$DIMLIM
 70
     0
  9
$DIMTIH
 70
     1
  9
$DIMTOH
 70
     1
  9
$DIMSE1
 70
     0
  9
$DIMSE2
 70
     0
  9
$DIMTAD
 70
     0
  9
$DIMZIN
 70
     0
  9
$DIMBLK
  1

  9
$DIMASO
 70
     1
  9
$DIMSHO
 70
     1
  9
$DIMPOST
  1
\X
  9
$DIMAPOST
  1

  9
$DIMALT
 70
     1
  9
$DIMALTD
 70
     2
  9
$DIMALTF
 40
25.3999999999999986
  9
$DIMLFAC
 40
1.0
  9
$DIMTOFL
 70
     0
  9
$DIMTVP
 40
0.0
  9
$DIMTIX
 70
     0
  9
$DIMSOXD
 70
     0
  9
$DIMSAH
 70
     0
  9
$DIMBLK1
  1

  9
$DIMBLK2
  1

  9
$DIMSTYLE
  2
STANDARD
  9
$DIMCLRD
 70
     0
  9
$DIMCLRE
 70
     0
  9
$DIMCLRT
 70
     0
  9
$DIMTFAC
 40
1.0
  9
$DIMGAP
 40
0.09
  9
$LUNITS
 70
     2
  9
$LUPREC
 70
     4
  9
$SKETCHINC
 40
0.1
  9
$FILLETRAD
 40
0.0
  9
$AUNITS
 70
     0
  9
$AUPREC
 70
     0
  9
$MENU
  1
.
  9
$ELEVATION
 40
0.0
  9
$PELEVATION
 40
0.0
  9
$THICKNESS
 40
0.0
  9
$LIMCHECK
 70
     0
  9
$BLIPMODE
 70
     0
  9
$CHAMFERA
 40
0.0
  9
$CHAMFERB
 40
0.0
  9
$SKPOLY
 70
     0
  9
$TDCREATE
 40
2458060.468368056230247
  9
$TDUPDATE
 40
2460307.5866435179486871
  9
$TDINDWG
 40
1.1413496528
  9
$TDUSRTIMER
 40
1.1413496528
  9
$USRTIMER
 70
     1
  9
$ANGBASE
 50
0.0
  9
$ANGDIR
 70
     0
  9
$PDMODE
 70
     0
  9
$PDSIZE
 40
0.3125
  9
$PLINEWID
 40
0.0
  9
$COORDS
 70
     1
  9
$SPLFRAME
 70
     0
  9
$SPLINETYPE
 70
     6
  9
$SPLINESEGS
 70
     8
  9
$ATTDIA
 70
     1
  9
$ATTREQ
 70
     1
  9
$HANDLING
 70
     1
  9
$HANDSEED
  5
320A0
  9
$SURFTAB1
 70
     6
  9
$SURFTAB2
 70
     6
  9
$SURFTYPE
 70
     6
  9
$SURFU
 70
     6
  9
$SURFV
 70
     6
  9
$UCSNAME
  2

  9
$UCSORG
 10
0.0
 20
0.0
 30
0.0
  9
$UCSXDIR
 10
1.0
 20
0.0
 30
0.0
  9
$UCSYDIR
 10
0.0
 20
1.0
 30
0.0
  9
$PUCSNAME
  2

  9
$PUCSORG
 10
0.0
 20
0.0
 30
0.0
  9
$PUCSXDIR
 10
1.0
 20
0.0
 30
0.0
  9
$PUCSYDIR
 10
0.0
 20
1.0
 30
0.0
  9
$USERI1
 70
     0
  9
$USERI2
 70
     0
  9
$USERI3
 70
     0
  9
$USERI4
 70
     0
  9
$USERI5
 70
     0
  9
$USERR1
 40
0.0
  9
$USERR2
 40
0.0
  9
$USERR3
 40
0.0
  9
$USERR4
 40
0.0
  9
$USERR5
 40
0.0
  9
$WORLDVIEW
 70
     1
  9
$SHADEDGE
 70
     3
  9
$SHADEDIF
 70
    70
  9
$TILEMODE
 70
     1
  9
$MAXACTVP
 70
    64
  9
$PLIMCHECK
 70
     0
  9
$PEXTMIN
 10
1.0000000000000000E+20
 20
1.0000000000000000E+20
 30
1.0000000000000000E+20
  9
$PEXTMAX
 10
-1.0000000000000000E+20
 20
-1.0000000000000000E+20
 30
-1.0000000000000000E+20
  9
$PLIMMIN
 10
0.0
 20
0.0
  9
$PLIMMAX
 10
12.0
 20
9.0
  9
$UNITMODE
 70
     0
  9
$VISRETAIN
 70
     1
  9
$PLINEGEN
 70
     0
  9
$PSLTSCALE
 70
     1
  0
ENDSEC
  0
SECTION
  2
TABLES
  0
TABLE
  2
VPORT
 70
     1
  0
VPORT
  2
*ACTIVE
 70
     0
 10
0.0
 20
0.0
 11
1.0
 21
1.0
 12
2792.614659767340072
 22
173.3185614800879932
 13
0.0
 23
0.0
 14
1.0
 24
1.0
 15
0.0
 25
0.0
 16
0.0
 26
0.0
 36
60.4960186965801583
 17
3911.3653564453120453
 27
132.5796051025390057
 37
0.0
 40
12.5661516023922104
 41
2.8481203007518792
 42
50.0
 43
0.0
 44
0.0
 50
0.0
 51
0.0
 71
     0
 72
   100
 73
     1
 74
     1
 75
     0
 76
     0
 77
     0
 78
     0
  0
ENDTAB
  0
TABLE
  2
LTYPE
 70
     2
  0
LTYPE
  2
CONTINUOUS
 70
     0
  3
Solid line
 72
    65
 73
     0
 40
0.0
  0
LTYPE
  2
PHANTOM2
 70
     0
  3
___ _ _ ___ _ _ ___ _ _ ___ _ _
 72
    65
 73
     6
 40
1.25
 49
0.625
 49
-0.125
 49
0.125
 49
-0.125
 49
0.125
 49
-0.125
  0
ENDTAB
  0
TABLE
  2
LAYER
 70
     2
  0
LAYER
  2
0
 70
     0
 62
   255
  6
CONTINUOUS
  0
LAYER
  2
DEFPOINTS
 70
     0
 62
     7
  6
CONTINUOUS
  0
ENDTAB
  0
TABLE
  2
STYLE
 70
     1
  0
STYLE
  2
STANDARD
 70
     0
 40
0.0
 41
0.8
 50
0.0
 71
     0
 42
0.2
  3
txt
  4

  0
ENDTAB
  0
TABLE
  2
VIEW
 70
     0
  0
ENDTAB
  0
TABLE
  2
UCS
 70
     0
  0
ENDTAB
  0
TABLE
  2
APPID
 70
    11
  0
APPID
  2
ACAD
 70
     0
  0
APPID
  2
ACAD_MLEADERVER
 70
     0
  0
APPID
  2
ACAD_EXEMPT_FROM_CAD_STANDARDS
 70
     0
  0
APPID
  2
ACAD_NAV_VCDISPLAY
 70
     0
  0
APPID
  2
ACAECLAYERSTANDARD
 70
     0
  0
APPID
  2
ACCMTRANSPARENCY
 70
     0
  0
APPID
  2
ACAD_DSTYLE_DIMJAG
 70
     0
  0
APPID
  2
ACAD_DSTYLE_DIMTALN
 70
     0
  0
APPID
  2
ACDBATTR
 70
     0
  0
APPID
  2
ACADANNOTATIVE
 70
     0
  0
APPID
  2
DCO15
 70
     0
  0
ENDTAB
  0
TABLE
  2
DIMSTYLE
 70
     1
  0
DIMSTYLE
  2
STANDARD
 70
     0
  3

  4

  5

  6

  7

 40
1.0
 41
0.1875
 42
0.0625
 43
0.38
 44
0.125
 45
0.0
 46
0.0
 47
0.01
 48
0.01
140
0.15625
141
0.09
142
0.0
143
25.3999999999999986
144
1.0
145
0.0
146
1.0
147
0.09
 71
     1
 72
     0
 73
     1
 74
     1
 75
     0
 76
     0
 77
     0
 78
     4
170
     0
171
     2
172
     0
173
     0
174
     0
175
     0
176
     0
177
     0
178
     0
  0
ENDTAB
  0
ENDSEC
  0
SECTION
  2
BLOCKS
  0
BLOCK
  8
0
  2
$MODEL_SPACE
 70
     0
 10
0.0
 20
0.0
 30
0.0
  3
$MODEL_SPACE
  1

  0
ENDBLK
  5
21
  8
0
  0
BLOCK
 67
     1
  8
0
  2
$PAPER_SPACE
 70
     0
 10
0.0
 20
0.0
 30
0.0
  3
$PAPER_SPACE
  1

  0
ENDBLK
  5
1D
 67
     1
  8
0
  0
BLOCK
  8
0
  2
_FILLED
 70
     0
 10
0.0
 20
0.0
 30
0.0
  3
_FILLED
  1

  0
SOLID
  5
26C2A
  8
0
  6
BYBLOCK
 62
     0
 10
0.0
 20
0.0
 30
0.0
 11
-1.0
 21
0.1666666667
 31
0.0
 12
-1.0
 22
-0.1666666667
 32
0.0
 13
-1.0
 23
-0.1666666667
 33
0.0
  0
ENDBLK
  5
26C2B
  8
0
  6
BYBLOCK
 62
     0
  0
ENDSEC
  0
SECTION
  2
ENTITIES
  0
ATTDEF
  5
26A5B
  8
DEFPOINTS
 10
6707.6455221083760989
 20
299.6854313113132093
 30
0.0
 40
0.001
  1
K-EX27110T-4
  3

  2
MODELNUMBER
 70
     0
1001
ACDBATTR
1070
     0
1070
     1
  0
ATTDEF
  5
26A5C
  8
DEFPOINTS
 10
6707.6453962987188788
 20
299.6837644709340793
 30
0.0
 40
0.001
  1
OCCASION
  3

  2
TRADENAME
 70
     0
1001
ACDBATTR
1070
     0
1070
     1
  0
ATTDEF
  5
26A5D
  8
DEFPOINTS
 10
6707.6455221083760989
 20
299.682097977979879
 30
0.0
 40
0.001
  1
BATH AND SHOWER FAUCET
  3

  2
PRODUCT
 70
     0
1001
ACDBATTR
1070
     0
1070
     1
  0
LINE
  5
31B86
  8
0
 10
6706.9873140644085652
 20
303.0661459130079152
 30
0.0
 11
6706.9873140644085652
 21
307.5607129398078996
 31
0.0
  0
LINE
  5
31B87
  8
0
 10
6707.0510870878069909
 20
303.0661459130079152
 30
0.0
 11
6707.0510870878069909
 21
307.5607129398078996
 31
0.0
  0
LINE
  5
31B88
  8
0
 10
6708.2296770448092502
 20
303.0661459130079152
 30
0.0
 11
6708.2296770448092502
 21
307.5607129398078996
 31
0.0
  0
LINE
  5
31B89
  8
0
 10
6707.1721101861630814
 20
301.4288231572077734
 30
0.0
 11
6708.048727466031778
 21
301.4288231572077734
 31
0.0
  0
LINE
  5
31B8A
  8
0
 10
6708.1895721889095512
 20
301.2941280933214898
 30
0.0
 11
6708.1895721889095512
 21
300.1810353335530976
 31
0.0
  0
LINE
  5
31B8B
  8
0
 10
6708.0757034545631541
 20
301.4181399822899152
 30
0.0
 11
6708.1771481774412678
 21
301.3228449184035185
 31
0.0
  0
ARC
  5
31B8C
  8
0
 10
6708.048727466031778
 20
301.3894231572077729
 30
0.0
 40
0.0394
 50
46.7903588491431108
 51
90.0
  0
ARC
  5
31B8D
  8
0
 10
6708.1501721889098917
 20
301.2941280933214898
 30
0.0
 40
0.0394
 50
359.9999999999869829
 51
46.7903588491431108
  0
LINE
  5
31B8E
  8
0
 10
6706.0719546414484284
 20
301.0770511671789791
 30
0.0
 11
6704.2663539635477719
 21
302.8826518451743937
 31
0.0
  0
LINE
  5
31B8F
  8
0
 10
6707.0338446580690288
 20
301.6184700880401124
 30
0.0
 11
6704.8024286771296829
 21
303.849891478609095
 31
0.0
  0
LINE
  5
31B90
  8
0
 10
6707.0202095563972762
 20
300.8020248721956023
 30
0.0
 11
6706.7393521956819313
 21
300.5211675114792911
 31
0.0
  0
ARC
  5
31B91
  8
0
 10
6704.1389499553370115
 20
297.5226007771724994
 30
0.0
 40
3.9579364412040841
 50
49.240431290703782
 51
54.7841900443389633
  0
ARC
  5
31B92
  8
0
 10
6707.8737520741942717
 20
302.7137181414666998
 30
0.0
 40
2.437520420862612
 50
230.5565069816281039
 51
233.4258492834809999
  0
ARC
  5
31B93
  8
0
 10
6699.0842054926852143
 20
295.4162433289399132
 30
0.0
 40
10.0860877243953997
 50
36.5929487117819079
 51
36.9554148762351176
  0
ARC
  5
31B94
  8
0
 10
6704.5165990788827912
 20
299.5032217232572975
 30
0.0
 40
3.2879782466804639
 50
36.9554148762351176
 51
40.0404277201204408
  0
ARC
  5
31B95
  8
0
 10
6706.7308669143067164
 20
300.5296527928534829
 30
0.0
 40
0.012
 50
229.2404312907603128
 51
314.9999999999977263
  0
LINE
  5
31B96
  8
0
 10
6707.037790171704728
 20
300.2225766033125751
 30
0.0
 11
6707.0176642261094457
 21
300.2427025489079142
 31
0.0
  0
LINE
  5
31B97
  8
0
 10
6707.0370427757652578
 20
300.7631803922633935
 30
0.0
 11
6706.7671145792592142
 21
300.4932521957579183
 31
0.0
  0
LINE
  5
31B98
  8
0
 10
6707.037790171704728
 20
300.6525723896031081
 30
0.0
 11
6706.8227922786090858
 21
300.4375744965079207
 31
0.0
  0
LINE
  5
31B99
  8
0
 10
6707.037790171704728
 20
300.2628284944998995
 30
0.0
 11
6707.0176642261094457
 21
300.2427025489079142
 31
0.0
  0
LINE
  5
31B9A
  8
0
 10
6706.9847305134089765
 20
300.2338779872077907
 30
0.0
 11
6706.8139677168092021
 21
300.404640783707805
 31
0.0
  0
LINE
  5
31B9B
  8
0
 10
6706.9847305134089765
 20
300.2338779872077907
 30
0.0
 11
6707.0176642261094457
 21
300.2427025489079142
 31
0.0
  0
LINE
  5
31B9C
  8
0
 10
6706.8227922786090858
 20
300.4375744965079207
 30
0.0
 11
6706.8139677168092021
 21
300.404640783707805
 31
0.0
  0
LINE
  5
31B9D
  8
0
 10
6706.7671145792592142
 20
300.4932521957579183
 30
0.0
 11
6706.8227922786090858
 21
300.4375744965079207
 31
0.0
  0
LINE
  5
31B9E
  8
0
 10
6706.8255789476215796
 20
300.5628465358510084
 30
0.0
 11
6706.8311439334438546
 21
300.5572815499414787
 31
0.0
  0
ARC
  5
31B9F
  8
0
 10
6706.8033050838375857
 20
300.5405726724209785
 30
0.0
 40
0.0315
 50
44.99999954352419
 51
135.0000000000023022
  0
LINE
  5
31BA0
  8
0
 10
6706.8139677168092021
 20
300.404640783707805
 30
0.0
 11
6706.8189916543096842
 21
300.4096647212078892
 31
0.0
  0
LINE
  5
31BA1
  8
0
 10
6706.9364851226100654
 20
300.5271581895080999
 30
0.0
 11
6707.0375001567081199
 21
300.6281732236083144
 31
0.0
  0
LINE
  5
31BA2
  8
0
 10
6706.9847305134089765
 20
300.2338779872077907
 30
0.0
 11
6706.9897544508094143
 21
300.2389019246077737
 31
0.0
  0
LINE
  5
31BA3
  8
0
 10
6706.9364851226100654
 20
300.5271581895080999
 30
0.0
 11
6707.037790171704728
 21
300.4258531404718724
 31
0.0
  0
LINE
  5
31BA4
  8
0
 10
6707.0375001567081199
 20
300.6281732236083144
 30
0.0
 11
6707.037790171704728
 21
300.6278832086127863
 31
0.0
  0
LINE
  5
31BA5
  8
0
 10
6706.8189916543096842
 20
300.4096647212078892
 30
0.0
 11
6706.9897544508094143
 21
300.2389019246077737
 31
0.0
  0
ARC
  5
31BA6
  8
0
 10
6707.79123307401278
 20
300.126250162237227
 30
0.0
 40
0.905560638590664
 50
146.30661410299831
 51
146.3397056954287905
  0
ARC
  5
31BA7
  8
0
 10
6706.9000752919473598
 20
300.4534722243320175
 30
0.0
 40
0.232557014638833
 50
292.6823756332718176
 51
306.3116365396439278
  0
ARC
  5
31BA8
  8
0
 10
6707.0405863620899254
 20
300.3162226102627983
 30
0.0
 40
0.240490421044587
 50
139.3033592742048086
 51
157.1358081112099967
  0
ARC
  5
31BA9
  8
0
 10
6707.0304956824020337
 20
300.3044639388904216
 30
0.0
 40
0.2417244601003158
 50
112.8870793375900945
 51
130.5381023446946074
  0
LINE
  5
31BAA
  8
0
 10
6707.781095321808607
 20
301.3026266078397271
 30
0.0
 11
6707.781095321808607
 21
300.1627673475853157
 31
0.0
  0
LINE
  5
31BAB
  8
0
 10
6707.7505750963473474
 20
301.4017332483351197
 30
0.0
 11
6707.7791228739133658
 21
301.3149366989669034
 31
0.0
  0
ARC
  5
31BAC
  8
0
 10
6707.7131475442438386
 20
301.3894231572078866
 30
0.0
 40
0.0394
 50
18.2062692145414999
 51
90.0
  0
ARC
  5
31BAD
  8
0
 10
6707.7416953218089475
 20
301.3026266078396134
 30
0.0
 40
0.0394
 50
0.000000000058624
 51
18.2062692144540605
  0
ARC
  5
31BAE
  8
0
 10
6703.6889106035087025
 20
307.5607129398078996
 30
0.0
 40
4.5407664412999997
 50
0.0
 51
179.6444991911650959
  0
ARC
  5
31BAF
  8
0
 10
6703.6889106035087025
 20
307.5607129398078996
 30
0.0
 40
3.3621764842972648
 50
0.0
 51
179.5267797787647055
  0
ARC
  5
31BB0
  8
0
 10
6703.6889106035087025
 20
307.5607129398078996
 30
0.0
 40
3.2984034608999901
 50
0.0
 51
179.5177070999149009
  0
ARC
  5
31BB1
  8
0
 10
6700.3626249896933587
 20
307.5887129398079196
 30
0.0
 40
0.028
 50
270.0
 51
359.5177070999117177
  0
LINE
  5
31BB2
  8
0
 10
6699.1762310277217694
 20
307.5607129398078996
 30
0.0
 11
6700.3626249896933587
 21
307.5607129398078996
 31
0.0
  0
ARC
  5
31BB3
  8
0
 10
6699.1762310277217694
 20
307.5887129398079196
 30
0.0
 40
0.028
 50
179.6444991911552904
 51
270.0
  0
ARC
  5
31BB4
  8
0
 10
6700.2988497493834075
 20
307.5887129398079196
 30
0.0
 40
0.028
 50
270.0
 51
359.5267797787582253
  0
LINE
  5
31BB5
  8
0
 10
6699.5145496139202805
 20
307.4926027036078722
 30
0.0
 11
6700.0775417397990168
 21
307.4926027036078722
 31
0.0
  0
ARC
  5
31BB6
  8
0
 10
6699.6611601446093118
 20
307.6239626282077779
 30
0.0
 40
0.196850393699887
 50
198.7420708678307903
 51
221.8596654851602921
  0
ARC
  5
31BB7
  8
0
 10
6699.930931209109076
 20
307.6239626282077779
 30
0.0
 40
0.1968503936999552
 50
318.1403345148444828
 51
341.2579291321599726
  0
LINE
  5
31BB8
  8
0
 10
6704.0600884558562029
 20
302.8624043891817905
 30
0.0
 11
6699.5201096319206044
 21
305.1756391401750079
 31
0.0
  0
ARC
  5
31BB9
  8
0
 10
6704.1741494890093236
 20
302.8159222756078748
 30
0.0
 40
0.1107424293000046
 50
58.5287661635301717
 51
152.2375790678898966
  0
ARC
  5
31BBA
  8
0
 10
6704.0138461373699101
 20
302.6046169170433018
 30
0.0
 40
0.3755843760620801
 50
47.7546660343552816
 51
54.4970503994781907
  0
ARC
  5
31BBB
  8
0
 10
6704.0655363418536581
 20
302.8730964674717825
 30
0.0
 40
0.012
 50
242.9999999991505035
 51
332.2375857406404975
  0
LINE
  5
31BBC
  8
0
 10
6701.8523019423182632
 20
305.4892814047400975
 30
0.0
 11
6703.3538249818557233
 21
304.7110815711341729
 31
0.0
  0
ARC
  5
31BBD
  8
0
 10
6644.6860484241033191
 20
188.7238622022431116
 30
0.0
 40
130.0082445956556114
 50
63.9144594490457294
 51
64.3820394361707429
  0
ARC
  5
31BBE
  8
0
 10
6699.7556945578789964
 20
303.5447995488174229
 30
0.0
 40
2.6641930288277709
 50
64.6226636797400715
 51
71.2873314903703061
  0
ARC
  5
31BBF
  8
0
 10
6700.2649408440847765
 20
305.0482082176465042
 30
0.0
 40
1.0768778724942709
 50
71.2873314903703061
 51
82.4931042853100962
  0
ARC
  5
31BC0
  8
0
 10
6700.3246362525605946
 20
305.501218548559109
 30
0.0
 40
0.6199512900910965
 50
82.4931042853100962
 51
97.5403266811964045
  0
LINE
  5
31BC1
  8
0
 10
6699.7977680087560657
 20
305.7306625248074852
 30
0.0
 11
6699.5149326601622306
 21
305.1919090673038113
 31
0.0
  0
ARC
  5
31BC2
  8
0
 10
6700.3066590102962437
 20
305.6709262679609083
 30
0.0
 40
0.4493740446189812
 50
98.1074531613955259
 51
125.4955785781375965
  0
ARC
  5
31BC3
  8
0
 10
6700.3946764830734537
 20
305.5475101780531872
 30
0.0
 40
0.6009610056740105
 50
125.4955785781375965
 51
140.8602601097059903
  0
ARC
  5
31BC4
  8
0
 10
6700.9181083114162902
 20
305.1215255083416764
 30
0.0
 40
1.2758267832565739
 50
140.8602601097059903
 51
145.3998375070268878
  0
ARC
  5
31BC5
  8
0
 10
6701.1996365550521659
 20
304.9568677295523003
 30
0.0
 40
1.601247578065629
 50
146.2704163809430895
 51
151.1024502643410869
  0
ARC
  5
31BC6
  8
0
 10
6699.5255575179171501
 20
305.1863312184652273
 30
0.0
 40
0.012
 50
152.301378955653405
 51
242.9999999996792042
  0
ARC
  5
31BC7
  8
0
 10
6706.0294130217098427
 20
302.5250524128197185
 30
0.0
 40
1.9830511766617991
 50
158.194884281125411
 51
170.0557043703994111
  0
ARC
  5
31BC8
  8
0
 10
6715.1149376495577599
 20
298.8951535389251148
 30
0.0
 40
11.7668602496463208
 50
157.0602264846453124
 51
158.2174557706146061
  0
ARC
  5
31BC9
  8
0
 10
6702.6951628198257822
 20
304.1516347464851719
 30
0.0
 40
1.719481044666467
 50
337.060226484645284
 51
344.2642677122157124
  0
ARC
  5
31BCA
  8
0
 10
6703.8686773789822837
 20
303.8209848599875045
 30
0.0
 40
0.5002740204115015
 50
344.2642677122157124
 51
10.1376172892945693
  0
ARC
  5
31BCB
  8
0
 10
6703.8206335775603293
 20
303.7492174799315876
 30
0.0
 40
0.5636412250482851
 50
16.4723717873895303
 51
49.6734636784808927
  0
ARC
  5
31BCC
  8
0
 10
6702.9398323101213464
 20
302.8473847707409732
 30
0.0
 40
1.823293668955527
 50
46.9108031901122189
 51
54.0873865721574134
  0
ARC
  5
31BCD
  8
0
 10
6702.1865109152613513
 20
301.8074970051333139
 30
0.0
 40
3.107372977452763
 50
54.0841123482686825
 51
60.0869409201677129
  0
ARC
  5
31BCE
  8
0
 10
6695.5215389470422451
 20
290.0115722580629267
 30
0.0
 40
16.6559382376441292
 50
60.4494096427864065
 51
61.9501326264898395
  0
LINE
  5
31BCF
  8
0
 10
6703.2852787673482453
 20
305.0194550794980159
 30
0.0
 11
6704.6685009954589987
 21
304.3146681507814151
 31
0.0
  0
LINE
  5
31BD0
  8
0
 10
6703.7403307582108027
 20
304.8928155022459805
 30
0.0
 11
6704.6212343450251865
 21
304.4439727061401868
 31
0.0
  0
LINE
  5
31BD1
  8
0
 10
6703.7148517328832895
 20
304.8846596019366189
 30
0.0
 11
6703.6802569503242921
 21
304.8182036429369077
 31
0.0
  0
ARC
  5
31BD2
  8
0
 10
6703.7317049387147563
 20
304.8758863782870776
 30
0.0
 40
0.019
 50
62.9999999962272099
 51
152.5000000063712946
  0
LINE
  5
31BD3
  8
0
 10
6703.2196096616098657
 20
304.9210640130631873
 30
0.0
 11
6703.2692355102280999
 21
305.0143966599629834
 31
0.0
  0
LINE
  5
31BD4
  8
0
 10
6704.6525789927709411
 20
304.2539464682017751
 30
0.0
 11
6704.6738929066777928
 21
304.298828374355196
 31
0.0
  0
LINE
  5
31BD5
  8
0
 10
6704.6296122171033858
 20
304.418565700791703
 30
0.0
 11
6704.5961820982338395
 21
304.3515164694579198
 31
0.0
  0
ARC
  5
31BD6
  8
0
 10
6704.61260852552914
 20
304.4270435821812271
 30
0.0
 40
0.019
 50
333.4995857395801977
 51
62.9999999962257178
  0
ARC
  5
31BD7
  8
0
 10
6703.1083582648998345
 20
304.9802174299546209
 30
0.0
 40
0.126
 50
242.60348255131629
 51
332.0000000101148885
  0
ARC
  5
31BD8
  8
0
 10
6704.9108346002276448
 20
304.1669539937374793
 30
0.0
 40
0.2725135765365386
 50
161.3840864370301915
 51
192.2553146602188008
  0
ARC
  5
31BD9
  8
0
 10
6705.0223777442542996
 20
304.1950951036754986
 30
0.0
 40
0.3875071328952513
 50
192.8205438317909
 51
210.6735349895971865
  0
ARC
  5
31BDA
  8
0
 10
6705.2954389263722987
 20
304.3570564225493058
 30
0.0
 40
0.7049876488195971
 50
210.6735349895971865
 51
218.4217387237019068
  0
ARC
  5
31BDB
  8
0
 10
6705.8585139237238764
 20
304.8170808759762167
 30
0.0
 40
1.4320514580327051
 50
218.8414241023228044
 51
222.4842351074159126
  0
ARC
  5
31BDC
  8
0
 10
6703.2798308813444237
 20
305.0087630012113777
 30
0.0
 40
0.012
 50
62.9999999609055124
 51
152.0000000101508988
  0
ARC
  5
31BDD
  8
0
 10
6704.663053109453358
 20
304.3039760724947769
 30
0.0
 40
0.012
 50
334.5974811909674145
 51
62.9999999609055124
  0
LINE
  5
31BDE
  8
0
 10
6699.9665834116603946
 20
304.9282656542970926
 30
0.0
 11
6699.8730850860292776
 21
304.9759054306780968
 31
0.0
  0
ARC
  5
31BDF
  8
0
 10
6699.9702153356583949
 20
304.9353937064910838
 30
0.0
 40
0.008
 50
243.0000000061637877
 51
302.9999998532621817
  0
ARC
  5
31BE0
  8
0
 10
6699.8767170100272779
 20
304.9830334828719742
 30
0.0
 40
0.008
 50
182.9999999051501902
 51
243.0000000061637877
  0
LINE
  5
31BE1
  8
0
 10
6700.0240006773283312
 20
304.8990100962063821
 30
0.0
 11
6700.1174990029840046
 21
304.8513703198125881
 31
0.0
  0
ARC
  5
31BE2
  8
0
 10
6700.1211309269801859
 20
304.8584983720065225
 30
0.0
 40
0.008
 50
243.0000000061637877
 51
302.9999998531989718
  0
ARC
  5
31BE3
  8
0
 10
6700.027632601325422
 20
304.9061381484003164
 30
0.0
 40
0.008
 50
182.999999905270613
 51
243.0000000061637877
  0
LINE
  5
31BE4
  8
0
 10
6700.3136055763279728
 20
304.7514490299070076
 30
0.0
 11
6700.4071039019836462
 21
304.7038092535128726
 31
0.0
  0
ARC
  5
31BE5
  8
0
 10
6700.4107358259798275
 20
304.7109373057069206
 30
0.0
 40
0.008
 50
243.0000000061637877
 51
303.0000000494204073
  0
ARC
  5
31BE6
  8
0
 10
6700.3172375003250636
 20
304.758577082100885
 30
0.0
 40
0.008
 50
183.0000002648089037
 51
243.0000000061637877
  0
LINE
  5
31BE7
  8
0
 10
6700.7184377163248428
 20
304.5451767518595716
 30
0.0
 11
6700.8119360420278099
 21
304.4975369754417898
 31
0.0
  0
ARC
  5
31BE8
  8
0
 10
6700.8155679660258102
 20
304.5046650276357241
 30
0.0
 40
0.008
 50
243.0000000061637877
 51
303.0000000494097208
  0
ARC
  5
31BE9
  8
0
 10
6700.7220696403219335
 20
304.5523048040536196
 30
0.0
 40
0.008
 50
182.9999999052380986
 51
243.0000000061637877
  0
LINE
  5
31BEA
  8
0
 10
6701.2057000050199349
 20
304.2969042152565748
 30
0.0
 11
6701.2991983308102135
 21
304.249264438794512
 31
0.0
  0
ARC
  5
31BEB
  8
0
 10
6701.3028302548082138
 20
304.2563924909883895
 30
0.0
 40
0.008
 50
243.0000000061637877
 51
302.9999998533253915
  0
ARC
  5
31BEC
  8
0
 10
6701.2093319290179352
 20
304.3040322674503955
 30
0.0
 40
0.008
 50
182.9999999052575106
 51
243.0000000061637877
  0
LINE
  5
31BED
  8
0
 10
6701.7359173497170559
 20
304.0267449844424732
 30
0.0
 11
6701.8294156755810036
 21
303.9791052079414158
 31
0.0
  0
ARC
  5
31BEE
  8
0
 10
6701.8330475995790039
 20
303.9862332601352932
 30
0.0
 40
0.008
 50
243.0000000061637877
 51
302.9999998532621817
  0
ARC
  5
31BEF
  8
0
 10
6701.7395492737141467
 20
304.0338730366364075
 30
0.0
 40
0.008
 50
182.9999999052249962
 51
243.0000000061637877
  0
LINE
  5
31BF0
  8
0
 10
6702.2661346944114484
 20
303.7565857536284852
 30
0.0
 11
6702.3596330202681202
 21
303.7089459771323732
 31
0.0
  0
ARC
  5
31BF1
  8
0
 10
6702.3632649442643014
 20
303.7160740293263075
 30
0.0
 40
0.008
 50
243.0000000061637877
 51
303.0000000494097208
  0
ARC
  5
31BF2
  8
0
 10
6702.2697666184094487
 20
303.7637138058224195
 30
0.0
 40
0.008
 50
182.9999999052608075
 51
243.0000000061637877
  0
LINE
  5
31BF3
  8
0
 10
6702.7533969831074501
 20
303.5083132170253748
 30
0.0
 11
6702.8468953090496143
 21
303.4606734404850954
 31
0.0
  0
ARC
  5
31BF4
  8
0
 10
6702.8505272330457956
 20
303.4678014926789729
 30
0.0
 40
0.008
 50
243.0000000061637877
 51
302.9999998532621817
  0
ARC
  5
31BF5
  8
0
 10
6702.7570289071036314
 20
303.5154412692193091
 30
0.0
 40
0.008
 50
182.9999999051665043
 51
243.0000000061637877
  0
LINE
  5
31BF6
  8
0
 10
6703.1582291231034105
 20
303.302040938978223
 30
0.0
 11
6703.2517274492356592
 21
303.2544011623417077
 31
0.0
  0
ARC
  5
31BF7
  8
0
 10
6703.2553593732327499
 20
303.2615292145356989
 30
0.0
 40
0.008
 50
243.0000000061637877
 51
303.0000003513861202
  0
ARC
  5
31BF8
  8
0
 10
6703.1618610471014108
 20
303.3091689911722142
 30
0.0
 40
0.008
 50
182.9999999052282931
 51
243.0000000061637877
  0
LINE
  5
31BF9
  8
0
 10
6703.4478340221039616
 20
303.1544798726786212
 30
0.0
 11
6703.5413323481798216
 21
303.1068400960703002
 31
0.0
  0
ARC
  5
31BFA
  8
0
 10
6703.5449642721769123
 20
303.1139681482641777
 30
0.0
 40
0.008
 50
243.0000000061637877
 51
303.0000000493536163
  0
ARC
  5
31BFB
  8
0
 10
6703.4514659461010524
 20
303.1616079248724986
 30
0.0
 40
0.008
 50
182.9999999052477904
 51
243.0000000061637877
  0
LINE
  5
31BFC
  8
0
 10
6703.5987496134021058
 20
303.0775845382070202
 30
0.0
 11
6703.692247939504341
 21
303.0299447615856252
 31
0.0
  0
ARC
  5
31BFD
  8
0
 10
6703.6958798635014318
 20
303.0370728137795027
 30
0.0
 40
0.008
 50
243.0000000061637877
 51
302.9999998533148187
  0
ARC
  5
31BFE
  8
0
 10
6703.6023815373991965
 20
303.0847125904008976
 30
0.0
 40
0.008
 50
182.9999999051827047
 51
243.0000000061637877
  0
LINE
  5
31BFF
  8
0
 10
6699.8687279737478093
 20
304.9826147952352926
 30
0.0
 11
6699.8678990512098608
 21
304.9984315799791261
 31
0.0
  0
LINE
  5
31C00
  8
0
 10
6699.9745724479198543
 20
304.9286843419362754
 30
0.0
 11
6699.9878557241027011
 21
304.9373106023033984
 31
0.0
  0
LINE
  5
31C01
  8
0
 10
6700.0196435650459534
 20
304.9057194607635779
 30
0.0
 11
6700.0188146425098239
 21
304.9215362454852993
 31
0.0
  0
LINE
  5
31C02
  8
0
 10
6700.1254880392443738
 20
304.8517890074518277
 30
0.0
 11
6700.1387713154081212
 21
304.8604152678067862
 31
0.0
  0
LINE
  5
31C03
  8
0
 10
6700.309248464049233
 20
304.7581583944141244
 30
0.0
 11
6700.3084195414112401
 21
304.7739751791958156
 31
0.0
  0
LINE
  5
31C04
  8
0
 10
6700.4150929382676622
 20
304.7042279411670052
 30
0.0
 11
6700.4283762143168133
 21
304.7128542015125277
 31
0.0
  0
LINE
  5
31C05
  8
0
 10
6700.7140806040433745
 20
304.5518861164168243
 30
0.0
 11
6700.7132516815127019
 21
304.5677029010371939
 31
0.0
  0
LINE
  5
31C06
  8
0
 10
6700.8199250783100069
 20
304.4979556630959223
 30
0.0
 11
6700.8332083543100453
 21
304.5065819234089872
 31
0.0
  0
LINE
  5
31C07
  8
0
 10
6701.2013428927393761
 20
304.3036135798137138
 30
0.0
 11
6701.200513970211432
 21
304.3194303643629155
 31
0.0
  0
LINE
  5
31C08
  8
0
 10
6701.3071873670696732
 20
304.2496831264336947
 30
0.0
 11
6701.3204706430879014
 21
304.2583093866945205
 31
0.0
  0
LINE
  5
31C09
  8
0
 10
6701.7315602374346781
 20
304.0334543489997259
 30
0.0
 11
6701.730731314912191
 21
304.0492711334713931
 31
0.0
  0
LINE
  5
31C0A
  8
0
 10
6701.8374047118422823
 20
303.9795238955805985
 30
0.0
 11
6701.8506879877959364
 21
303.9881501557990759
 31
0.0
  0
LINE
  5
31C0B
  8
0
 10
6702.2617775821299801
 20
303.7632951181856242
 30
0.0
 11
6702.260948659611131
 21
303.7791119025799276
 31
0.0
  0
LINE
  5
31C0C
  8
0
 10
6702.3676220565503172
 20
303.7093646647865057
 30
0.0
 11
6702.3809053323611806
 21
303.7179909249762773
 31
0.0
  0
LINE
  5
31C0D
  8
0
 10
6702.7490398708250723
 20
303.5150225815826275
 30
0.0
 11
6702.7482109483098611
 21
303.5308393659055923
 31
0.0
  0
LINE
  5
31C0E
  8
0
 10
6702.8548843453099835
 20
303.4610921281242781
 30
0.0
 11
6702.8681676211372178
 21
303.4697183882616969
 31
0.0
  0
LINE
  5
31C0F
  8
0
 10
6703.1538720108219422
 20
303.3087503035354189
 30
0.0
 11
6703.1530430883103691
 21
303.3245670877993234
 31
0.0
  0
LINE
  5
31C10
  8
0
 10
6703.259716485554236
 20
303.254819850018805
 30
0.0
 11
6703.2729997611322688
 21
303.263446110158327
 31
0.0
  0
LINE
  5
31C11
  8
0
 10
6703.4434769098215838
 20
303.161189237235817
 30
0.0
 11
6703.4426479873118296
 21
303.1770060214573732
 31
0.0
  0
LINE
  5
31C12
  8
0
 10
6703.5493213844629281
 20
303.1072587837243759
 30
0.0
 11
6703.5626046601273629
 21
303.1158850438200716
 31
0.0
  0
LINE
  5
31C13
  8
0
 10
6703.5943925011206375
 20
303.0842939027641023
 30
0.0
 11
6703.5935635786108833
 21
303.1001106869636033
 31
0.0
  0
LINE
  5
31C14
  8
0
 10
6703.7002369757638007
 20
303.0303634492248079
 30
0.0
 11
6703.7135202514891716
 21
303.0389897092949241
 31
0.0
  0
LINE
  5
31C15
  8
0
 10
6708.1771481774412678
 20
301.3228449184035185
 30
0.0
 11
6707.0498119330013651
 21
301.3228449184035185
 31
0.0
  0
LINE
  5
31C16
  8
0
 10
6706.0660255303091617
 20
301.0562651238130911
 30
0.0
 11
6706.0660255303091617
 21
300.9073440279602778
 31
0.0
  0
ARC
  5
31C17
  8
0
 10
6706.1054255303097307
 20
301.0562651238130911
 30
0.0
 40
0.0394
 50
135.4170558516825054
 51
180.0
  0
LINE
  5
31C18
  8
0
 10
6706.1415012391526034
 20
300.8313392688078807
 30
0.0
 11
6706.958790171705914
 21
300.8313392688078807
 31
0.0
  0
LINE
  5
31C19
  8
0
 10
6706.1134391788973517
 20
300.8430827908300103
 30
0.0
 11
6706.0773634700517505
 21
300.8796875499824068
 31
0.0
  0
ARC
  5
31C1A
  8
0
 10
6706.1415012391526034
 20
300.8707392688078812
 30
0.0
 40
0.0394
 50
224.5829441482761979
 51
270.0
  0
ARC
  5
31C1B
  8
0
 10
6706.1054255303097307
 20
300.9073440279602778
 30
0.0
 40
0.0394
 50
180.0000000000032117
 51
224.5829441482738957
  0
LINE
  5
31C1C
  8
0
 10
6706.1300723647000268
 20
300.9242742003078774
 30
0.0
 11
6706.9797332218649899
 21
300.9242742003078774
 31
0.0
  0
LINE
  5
31C1D
  8
0
 10
6706.075989647573806
 20
300.9525267979918794
 30
0.0
 11
6706.120036481966963
 21
300.9269744587567743
 31
0.0
  0
LINE
  5
31C1E
  8
0
 10
6706.1198779494079645
 20
301.0366379966812929
 30
0.0
 11
6706.0759953445549399
 21
301.0112002386136965
 31
0.0
  0
ARC
  5
31C1F
  8
0
 10
6706.0860255303095983
 20
300.9938971933979133
 30
0.0
 40
0.02
 50
120.0999040075951001
 51
180.0
  0
ARC
  5
31C20
  8
0
 10
6706.0860255303095983
 20
300.9698265395430212
 30
0.0
 40
0.02
 50
180.0000000000163141
 51
239.8812297113487944
  0
ARC
  5
31C21
  8
0
 10
6706.1300723647000268
 20
300.9442742003078024
 30
0.0
 40
0.02
 50
239.8812297113537113
 51
270.0
  0
LINE
  5
31C22
  8
0
 10
6706.1134391788973517
 20
300.8430827908300103
 30
0.0
 11
6706.1134391788973517
 21
301.1205263609433018
 31
0.0
  0
LINE
  5
31C23
  8
0
 10
6706.3786311255262262
 20
299.6869017398079222
 30
0.0
 11
6708.9341176235184321
 21
299.6869017398079222
 31
0.0
  0
ARC
  5
31C24
  8
0
 10
6706.3786311255262262
 20
299.7149017398077717
 30
0.0
 40
0.028
 50
202.9999923175367087
 51
270.0
  0
ARC
  5
31C25
  8
0
 10
6708.9341176235184321
 20
299.7149017398077717
 30
0.0
 40
0.028
 50
270.0
 51
335.8305958653551784
  0
LINE
  5
31C26
  8
0
 10
6706.6188125552607744
 20
303.0661459130079152
 30
0.0
 11
6708.6341987561208953
 21
303.0661459130079152
 31
0.0
  0
LINE
  5
31C27
  8
0
 10
6706.5008001615042303
 20
302.9481335192504048
 30
0.0
 11
6706.5008001615042303
 21
302.7559666002077847
 31
0.0
  0
LINE
  5
31C28
  8
0
 10
6706.5008001615042303
 20
302.2653747096077836
 30
0.0
 11
6706.5008001615042303
 21
302.1515158768660854
 31
0.0
  0
LINE
  5
31C29
  8
0
 10
6706.5909525480828961
 20
303.0546059201865887
 30
0.0
 11
6706.5123401543260115
 21
302.9759935264290789
 31
0.0
  0
ARC
  5
31C2A
  8
0
 10
6706.6188125552607744
 20
303.0267459130079146
 30
0.0
 40
0.0394
 50
90.0
 51
135.0000000000023022
  0
ARC
  5
31C2B
  8
0
 10
6706.5402001615047993
 20
302.9481335192504048
 30
0.0
 40
0.0394
 50
135.0000000000092086
 51
180.0000000000065086
  0
LINE
  5
31C2C
  8
0
 10
6704.4720392085027925
 20
302.676966600207777
 30
0.0
 11
6703.9880245177018878
 21
302.676966600207777
 31
0.0
  0
LINE
  5
31C2D
  8
0
 10
6705.9753507120121867
 20
302.676966600207777
 30
0.0
 11
6706.4218001615035973
 21
302.676966600207777
 31
0.0
  0
LINE
  5
31C2E
  8
0
 10
6704.8046310990857819
 20
302.3443747096079051
 30
0.0
 11
6703.9879090779522812
 21
302.3443747096079051
 31
0.0
  0
LINE
  5
31C2F
  8
0
 10
6706.3079417963099331
 20
302.3443747096079051
 30
0.0
 11
6706.4218001615035973
 21
302.3443747096079051
 31
0.0
  0
LINE
  5
31C30
  8
0
 10
6703.9093110975036325
 20
302.5975387841838824
 30
0.0
 11
6703.9093110975036325
 21
302.4229726900542801
 31
0.0
  0
LINE
  5
31C31
  8
0
 10
6703.9680875374533571
 20
302.668626631198606
 30
0.0
 11
6703.9173741172562586
 21
302.6171988151746746
 31
0.0
  0
ARC
  5
31C32
  8
0
 10
6703.9880245177018878
 20
302.6489666002079275
 30
0.0
 40
0.028
 50
90.0
 51
135.4007313782041138
  0
ARC
  5
31C33
  8
0
 10
6703.9373110975038799
 20
302.5975387841838824
 30
0.0
 40
0.028
 50
135.4007313782086896
 51
180.0000000000065086
  0
LINE
  5
31C34
  8
0
 10
6703.9681100880779923
 20
302.3525757197346024
 30
0.0
 11
6703.9175121076314099
 21
302.403173700181128
 31
0.0
  0
ARC
  5
31C35
  8
0
 10
6703.9879090779522812
 20
302.3723747096078114
 30
0.0
 40
0.028
 50
224.9999999999839133
 51
270.0
  0
ARC
  5
31C36
  8
0
 10
6703.9373110975038799
 20
302.4229726900542801
 30
0.0
 40
0.028
 50
179.9999999999934914
 51
224.9999999999907914
  0
ARC
  5
31C37
  8
0
 10
6706.4218001615035973
 20
302.7559666002077847
 30
0.0
 40
0.079
 50
270.0
 51
0.0
  0
ARC
  5
31C38
  8
0
 10
6706.4218001615035973
 20
302.2653747096077836
 30
0.0
 40
0.079
 50
0.0000000000032569
 51
90.0
  0
ARC
  5
31C39
  8
0
 10
6702.7057964559253378
 20
300.792032748983786
 30
0.0
 40
3.793663932913554
 50
354.4476647145191919
 51
358.6160919540657233
  0
ARC
  5
31C3A
  8
0
 10
6705.0545684522494412
 20
300.5643197916310783
 30
0.0
 40
1.433879600614596
 50
339.9910780795885898
 51
354.4232624586941824
  0
ARC
  5
31C3B
  8
0
 10
6704.9187805212959574
 20
300.6137665036022213
 30
0.0
 40
1.57839029059118
 50
333.0629358015340813
 51
339.9910780795885898
  0
LINE
  5
31C3C
  8
0
 10
6706.3248933242821295
 20
299.8687846685090221
 30
0.0
 11
6706.392917062138622
 21
299.7085307847464719
 31
0.0
  0
ARC
  5
31C3D
  8
0
 10
6706.3575712465808465
 20
299.8826556235703151
 30
0.0
 40
0.0355
 50
153.0629358015808918
 51
202.9999999998520082
  0
ARC
  5
31C3E
  8
0
 10
6706.425594984437339
 20
299.7224017398078217
 30
0.0
 40
0.0355
 50
202.9999999999060947
 51
270.0
  0
LINE
  5
31C3F
  8
0
 10
6706.2905718066185727
 20
299.8964300732135939
 30
0.0
 11
6706.3550063630491422
 21
299.95911297622132
 31
0.0
  0
ARC
  5
31C40
  8
0
 10
6706.3100961167529022
 20
299.8763601625565229
 30
0.0
 40
0.028
 50
134.210525469584212
 51
202.9999923175367087
  0
LINE
  5
31C41
  8
0
 10
6706.3528569881618751
 20
299.7039612716660031
 30
0.0
 11
6706.28432197939037
 21
299.8654196944148111
 31
0.0
  0
LINE
  5
31C42
  8
0
 10
6707.037790171704728
 20
301.2945031427502727
 30
0.0
 11
6707.037790171704728
 21
301.211269882965496
 31
0.0
  0
LINE
  5
31C43
  8
0
 10
6707.037790171704728
 20
300.7523392688078729
 30
0.0
 11
6707.037790171704728
 21
300.1851761714652866
 31
0.0
  0
LINE
  5
31C44
  8
0
 10
6707.1442501789833841
 20
301.4172831643866175
 30
0.0
 11
6707.0493301645255997
 21
301.3223631499291173
 31
0.0
  0
ARC
  5
31C45
  8
0
 10
6707.1721101861630814
 20
301.3894231572077729
 30
0.0
 40
0.0394
 50
90.0
 51
135.0000000000046043
  0
ARC
  5
31C46
  8
0
 10
6707.077190171705297
 20
301.2945031427503864
 30
0.0
 40
0.0394
 50
134.9999999999976978
 51
180.0000000000098055
  0
LINE
  5
31C47
  8
0
 10
6706.1299081351617133
 20
301.0393349514654915
 30
0.0
 11
6706.9797332218649899
 21
301.0393349514654915
 31
0.0
  0
ARC
  5
31C48
  8
0
 10
6706.1299081351617133
 20
301.0193349514655097
 30
0.0
 40
0.02
 50
90.0
 51
120.0999040076032998
  0
LINE
  5
31C49
  8
0
 10
6706.1415012391526034
 20
301.1322698829654883
 30
0.0
 11
6706.958790171705914
 21
301.1322698829654883
 31
0.0
  0
ARC
  5
31C4A
  8
0
 10
6706.958790171705914
 20
301.211269882965496
 30
0.0
 40
0.079
 50
270.0
 51
0.0
  0
ARC
  5
31C4B
  8
0
 10
6706.1415012391526034
 20
301.0928698829654877
 30
0.0
 40
0.0394
 50
90.0
 51
135.4170558517236884
  0
LINE
  5
31C4C
  8
0
 10
6706.1134391788973517
 20
301.1205263609434155
 30
0.0
 11
6706.0773634700517505
 21
301.0839216017910189
 31
0.0
  0
ARC
  5
31C4D
  8
0
 10
6706.958790171705914
 20
300.7523392688078729
 30
0.0
 40
0.079
 50
359.9999999999968168
 51
90.0
  0
LINE
  5
31C4E
  8
0
 10
6707.172110186061218
 20
300.0508561571077735
 30
0.0
 11
6708.0534285342382645
 21
300.0508561571077735
 31
0.0
  0
LINE
  5
31C4F
  8
0
 10
6707.1442501788842492
 20
300.0623961499290999
 30
0.0
 11
6707.0493301645255997
 21
300.1573161642866125
 31
0.0
  0
ARC
  5
31C50
  8
0
 10
6707.172110186061218
 20
300.090256157107774
 30
0.0
 40
0.0394
 50
224.9999999999884039
 51
270.0
  0
ARC
  5
31C51
  8
0
 10
6707.077190171705297
 20
300.1851761714652866
 30
0.0
 40
0.0394
 50
179.9999999999901945
 51
224.9999999999953957
  0
LINE
  5
31C52
  8
0
 10
6707.078219608204563
 20
300.9274420138995083
 30
0.0
 11
6707.078219608204563
 21
301.0361671378739175
 31
0.0
  0
ARC
  5
31C53
  8
0
 10
6708.0743331572057286
 20
301.4339323659337992
 30
0.0
 40
1.060188635156496
 50
192.1236163772315138
 51
198.1461750434010014
  0
ARC
  5
31C54
  8
0
 10
6706.9797332218649899
 20
301.1183349514654992
 30
0.0
 40
0.079
 50
270.0
 51
16.0834435749852496
  0
ARC
  5
31C55
  8
0
 10
6708.0743331572048191
 20
300.5296767858403086
 30
0.0
 40
1.060188635154345
 50
161.8538249565957869
 51
167.8763836227780075
  0
ARC
  5
31C56
  8
0
 10
6706.9797332218649899
 20
300.8452742003079265
 30
0.0
 40
0.079
 50
343.9165564250146758
 51
90.0
  0
ARC
  5
31C57
  8
0
 10
6706.6930886718073452
 20
300.9573662776805918
 30
0.0
 40
0.3862917287928782
 50
345.3801445975279876
 51
355.5571053450460113
  0
ARC
  5
31C58
  8
0
 10
6706.6930886718073452
 20
301.0062428740927203
 30
0.0
 40
0.3862917287928782
 50
4.4428946549539594
 51
14.6198554024719591
  0
LINE
  5
31C59
  8
0
 10
6708.1771324279088731
 20
300.1523037218141781
 30
0.0
 11
6708.0803887732363364
 21
300.061524545369025
 31
0.0
  0
ARC
  5
31C5A
  8
0
 10
6708.1501721889098917
 20
300.1810353335530976
 30
0.0
 40
0.0394
 50
313.1782257907404983
 51
0.0000000000130276
  0
ARC
  5
31C5B
  8
0
 10
6708.0534285342382645
 20
300.090256157107774
 30
0.0
 40
0.0394
 50
270.0
 51
313.1782257907472058
  0
LINE
  5
31C5C
  8
0
 10
6707.7791233126663428
 20
300.150458590522021
 30
0.0
 11
6707.7552769183621422
 21
300.077947400044593
 31
0.0
  0
ARC
  5
31C5D
  8
0
 10
6707.7416953218089475
 20
300.1627673475853157
 30
0.0
 40
0.0394
 50
341.7957730186705021
 51
359.9999999999836859
  0
ARC
  5
31C5E
  8
0
 10
6707.7178489275047468
 20
300.090256157107774
 30
0.0
 40
0.0394
 50
270.0
 51
341.795773018652028
  0
LINE
  5
31C5F
  8
0
 10
6706.4260563760726654
 20
300.0112027398079135
 30
0.0
 11
6708.878893258494827
 21
300.0112027398079135
 31
0.0
  0
LINE
  5
31C60
  8
0
 10
6706.3564781006052726
 20
299.9203070079134932
 30
0.0
 11
6706.3564781006052726
 21
299.825931423635609
 31
0.0
  0
LINE
  5
31C61
  8
0
 10
6706.3920635195936484
 20
299.9917237264413075
 30
0.0
 11
6706.3618852441268245
 21
299.9402279945470013
 31
0.0
  0
ARC
  5
31C62
  8
0
 10
6706.4260563760726654
 20
299.971802739807913
 30
0.0
 40
0.0394
 50
90.0
 51
149.6282259401158967
  0
ARC
  5
31C63
  8
0
 10
6706.3958781006049321
 20
299.9203070079134932
 30
0.0
 40
0.0394
 50
149.6282259400699957
 51
180.0000000000129887
  0
LINE
  5
31C64
  8
0
 10
6706.361834346980686
 20
299.8060975425439096
 30
0.0
 11
6706.4198785721873719
 21
299.7064678587161097
 31
0.0
  0
ARC
  5
31C65
  8
0
 10
6706.3958781006049321
 20
299.825931423635609
 30
0.0
 40
0.0394
 50
179.9999999999836859
 51
210.225065481235589
  0
ARC
  5
31C66
  8
0
 10
6706.4539223258116181
 20
299.7263017398079228
 30
0.0
 40
0.0394
 50
210.2250654812384028
 51
270.0
  0
LINE
  5
31C67
  8
0
 10
6707.1337206027046705
 20
300.072925726107826
 30
0.0
 11
6707.1337206027046705
 21
300.0112027398079135
 31
0.0
  0
LINE
  5
31C68
  8
0
 10
6707.251976508205189
 20
300.0312027398078953
 30
0.0
 11
6707.251976508205189
 21
300.0508561571077735
 31
0.0
  0
ARC
  5
31C69
  8
0
 10
6707.231976508203843
 20
300.0312027398078953
 30
0.0
 40
0.02
 50
270.0
 51
359.9999999999805027
  0
LINE
  5
31C6A
  8
0
 10
6707.9209765082041486
 20
300.0312027398078953
 30
0.0
 11
6707.9209765082041486
 21
300.0508561571077735
 31
0.0
  0
ARC
  5
31C6B
  8
0
 10
6707.9409765082036756
 20
300.0312027398078953
 30
0.0
 40
0.02
 50
180.0000000000194973
 51
270.0
  0
LINE
  5
31C6C
  8
0
 10
6708.0392324137046671
 20
300.0508561571077735
 30
0.0
 11
6708.0392324137046671
 21
300.0112027398079135
 31
0.0
  0
LINE
  5
31C6D
  8
0
 10
6708.7543416929793239
 20
301.7728042734763108
 30
0.0
 11
6708.7543416929793239
 21
300.8453091285687151
 31
0.0
  0
LINE
  5
31C6E
  8
0
 10
6706.7447837070731111
 20
301.90753173980778
 30
0.0
 11
6708.616629365407789
 21
301.90753173980778
 31
0.0
  0
LINE
  5
31C6F
  8
0
 10
6708.6440566661513003
 20
301.896417834872409
 30
0.0
 11
6708.7423689937213567
 21
301.8010903685408266
 31
0.0
  0
ARC
  5
31C70
  8
0
 10
6708.616629365407789
 20
301.8681317398077795
 30
0.0
 40
0.0394
 50
45.8831160407204166
 51
90.0
  0
ARC
  5
31C71
  8
0
 10
6708.7149416929787549
 20
301.7728042734763108
 30
0.0
 40
0.0394
 50
0.0000000000065138
 51
45.8831160407249499
  0
ARC
  5
31C72
  8
0
 10
6716.0088527893212813
 20
301.2365549804682132
 30
0.0
 40
7.2650536518043181
 50
183.0870502348219873
 51
185.3970922919745874
  0
ARC
  5
31C73
  8
0
 10
6710.347382965597717
 20
300.6639181472863243
 30
0.0
 40
1.5752702744185461
 50
184.0296342095624027
 51
195.5394794551125131
  0
ARC
  5
31C74
  8
0
 10
6710.1027242349564403
 20
300.6193941644074812
 30
0.0
 40
1.327819866165967
 50
196.5168017961983082
 51
206.4696216153294017
  0
ARC
  5
31C75
  8
0
 10
6710.4287892992797424
 20
300.7798830593600883
 30
0.0
 40
1.691238251044604
 50
206.4130518710364015
 51
211.2884310027380081
  0
LINE
  5
31C76
  8
0
 10
6708.9857955040233719
 20
299.8649518058778085
 30
0.0
 11
6708.9163418982943767
 21
299.7101715284200054
 31
0.0
  0
ARC
  5
31C77
  8
0
 10
6708.9498486504680841
 20
299.8810820172657259
 30
0.0
 40
0.0394
 50
335.8330875607720145
 51
31.2884310028318708
  0
ARC
  5
31C78
  8
0
 10
6708.8803950447381794
 20
299.7263017398079228
 30
0.0
 40
0.0394
 50
270.0
 51
335.833087560834997
  0
LINE
  5
31C79
  8
0
 10
6708.9596631122813051
 20
299.7034375344799741
 30
0.0
 11
6709.03205398846967
 21
299.8647448611898199
 31
0.0
  0
LINE
  5
31C7A
  8
0
 10
6709.0249600931629175
 20
299.8972694249883943
 30
0.0
 11
6708.946034283498193
 21
299.9664186256134144
 31
0.0
  0
ARC
  5
31C7B
  8
0
 10
6709.0065084997058875
 20
299.8762090665176174
 30
0.0
 40
0.028
 50
335.8305958653493235
 51
48.7774543999363388
  0
LINE
  5
31C7C
  8
0
 10
6708.9506966217040826
 20
299.9194891334931867
 30
0.0
 11
6708.9506966217040826
 21
299.8267521204950867
 31
0.0
  0
LINE
  5
31C7D
  8
0
 10
6708.9448403405212957
 20
299.8060838131631272
 30
0.0
 11
6708.8829468053691016
 21
299.705633432475679
 31
0.0
  0
LINE
  5
31C7E
  8
0
 10
6708.9123883314168779
 20
299.9925497899566835
 30
0.0
 11
6708.9447916946255646
 21
299.9402361836421278
 31
0.0
  0
ARC
  5
31C7F
  8
0
 10
6708.878893258494827
 20
299.971802739807913
 30
0.0
 40
0.0394
 50
31.7743238192385817
 51
90.0
  0
ARC
  5
31C80
  8
0
 10
6708.9112966217044232
 20
299.9194891334931867
 30
0.0
 40
0.0394
 50
0.0000000000065138
 51
31.7743238192385817
  0
ARC
  5
31C81
  8
0
 10
6708.9112966217044232
 20
299.8267521204950867
 30
0.0
 40
0.0394
 50
328.360273743615096
 51
359.9999999999869829
  0
ARC
  5
31C82
  8
0
 10
6708.8494030865531386
 20
299.7263017398079228
 30
0.0
 40
0.0394
 50
270.0
 51
328.3602737436178813
  0
LINE
  5
31C83
  8
0
 10
6707.0889848396045636
 20
301.2961754471123186
 30
0.0
 11
6707.0889848396045636
 21
300.1835029560093062
 31
0.0
  0
LINE
  5
31C84
  8
0
 10
6707.1790305846998308
 20
301.415165093748783
 30
0.0
 11
6707.0985567873185573
 21
301.3219173836532718
 31
0.0
  0
ARC
  5
31C85
  8
0
 10
6707.2088586369864061
 20
301.3894231572077729
 30
0.0
 40
0.0394
 50
90.0
 51
139.2054463790788077
  0
ARC
  5
31C86
  8
0
 10
6707.1283848396051326
 20
301.2961754471123186
 30
0.0
 40
0.0394
 50
139.2054463790713896
 51
180.0000000000129887
  0
LINE
  5
31C87
  8
0
 10
6707.0985586430033436
 20
300.1577588693822918
 30
0.0
 11
6707.1790433826654407
 21
300.0645120704808164
 31
0.0
  0
ARC
  5
31C88
  8
0
 10
6707.1283848396051326
 20
300.1835029560093062
 30
0.0
 40
0.0394
 50
179.9999999999967031
 51
220.798683782926588
  0
ARC
  5
31C89
  8
0
 10
6707.2088695792654107
 20
300.090256157107774
 30
0.0
 40
0.0394
 50
220.7986837829216995
 51
270.0
  0
ARC
  5
31C8A
  8
0
 10
6704.5995770795543649
 20
300.6817249595221142
 30
0.0
 40
2.0243794716278729
 50
347.3069394762181901
 51
357.8103095738413231
  0
ARC
  5
31C8B
  8
0
 10
6705.3509508208644547
 20
300.5124911969207915
 30
0.0
 40
1.2541830255597231
 50
336.4409981611557896
 51
347.3069394762181901
  0
LINE
  5
31C8C
  8
0
 10
6707.5428026596973723
 20
301.9941459130079124
 30
0.0
 11
6706.6581697438523406
 21
301.9941459130079124
 31
0.0
  0
LINE
  5
31C8D
  8
0
 10
6708.3911886223449983
 20
302.369389334451796
 30
0.0
 11
6707.6260584572637526
 21
302.0126032789639225
 31
0.0
  0
LINE
  5
31C8E
  8
0
 10
6708.4744444199131976
 20
302.3878467004079198
 30
0.0
 11
6708.7347117891049493
 21
302.3878467004079198
 31
0.0
  0
ARC
  5
31C8F
  8
0
 10
6708.4744444199131976
 20
302.1908467004079171
 30
0.0
 40
0.197
 50
90.0
 51
115.0000000015321007
  0
ARC
  5
31C90
  8
0
 10
6707.5428026596973723
 20
302.1911459130079152
 30
0.0
 40
0.197
 50
270.0
 51
295.0000000015321007
  0
LINE
  5
31C91
  8
0
 10
6708.7547117891035668
 20
302.9480454803916132
 30
0.0
 11
6708.7547117891035668
 21
302.7106131698935201
 31
0.0
  0
LINE
  5
31C92
  8
0
 10
6708.7547117891035668
 20
302.4587690616073132
 30
0.0
 11
6708.7547117891035668
 21
302.4078467004077879
 31
0.0
  0
LINE
  5
31C93
  8
0
 10
6708.6616350526319366
 20
303.0550232826474826
 30
0.0
 11
6708.7427480856158581
 21
302.9763228500311811
 31
0.0
  0
ARC
  5
31C94
  8
0
 10
6708.6341987561208953
 20
303.0267459130079146
 30
0.0
 40
0.0394
 50
45.8648915698938993
 51
90.0
  0
ARC
  5
31C95
  8
0
 10
6708.7153117891048169
 20
302.9480454803916132
 30
0.0
 40
0.0394
 50
0.0
 51
45.8648915699007134
  0
ARC
  5
31C96
  8
0
 10
6708.7347117891049493
 20
302.4078467004077879
 30
0.0
 40
0.02
 50
270.0
 51
0.0
  0
ARC
  5
31C97
  8
0
 10
6708.7642623129531785
 20
302.69151476005419
 30
0.0
 40
0.0213532612067415
 50
116.568216548737098
 51
144.6302591149089949
  0
ARC
  5
31C98
  8
0
 10
6708.8087734141572582
 20
302.6599177330562043
 30
0.0
 40
0.075939067470951
 50
144.6302591149089949
 51
164.4661962006825036
  0
ARC
  5
31C99
  8
0
 10
6708.9689654795702154
 20
302.6058606757106872
 30
0.0
 40
0.2449287554300926
 50
162.3177718869262947
 51
171.8437034074167116
  0
ARC
  5
31C9A
  8
0
 10
6709.110580249753184
 20
302.5847032653085193
 30
0.0
 40
0.3881136746683024
 50
171.7179323993242974
 51
188.3179821190757934
  0
ARC
  5
31C9B
  8
0
 10
6708.9385517217006054
 20
302.5572399132684041
 30
0.0
 40
0.2139340094494365
 50
187.705294770471113
 51
201.6229215729804025
  0
ARC
  5
31C9C
  8
0
 10
6708.785395134736973
 20
302.4959200637813979
 30
0.0
 40
0.0489623177804612
 50
200.9593383737596923
 51
224.8791621479043101
  0
ARC
  5
31C9D
  8
0
 10
6708.766183600821023
 20
302.4808426928556742
 30
0.0
 40
0.0248766489008517
 50
231.5090771214022993
 51
242.5388027397422093
  0
LINE
  5
31C9E
  8
0
 10
6708.7704598206046285
 20
302.6043821335078974
 30
0.0
 11
6708.7704598206046285
 21
302.5650120548078235
 31
0.0
  0
ARC
  5
31C9F
  8
0
 10
6708.6204106080049314
 20
302.6043821335078974
 30
0.0
 40
0.1500492126000259
 50
0.0
 51
36.6145610886054982
  0
ARC
  5
31CA0
  8
0
 10
6708.6204106080049314
 20
302.5650120548078235
 30
0.0
 40
0.1500492125999082
 50
323.3996271837385734
 51
0.0
  0
ARC
  5
31CA1
  8
0
 10
6707.0876701755041722
 20
301.90753173980778
 30
0.0
 40
1.3551055453003631
 50
0.0000000000032569
 51
19.3970075331012417
  0
ARC
  5
31CA2
  8
0
 10
6707.7051803806070893
 20
303.0116449293919914
 30
0.0
 40
1.2312201753463441
 50
191.9854071505191939
 51
199.294315277071604
  0
ARC
  5
31CA3
  8
0
 10
6706.2084273478812975
 20
302.5171000772821799
 30
0.0
 40
0.3459915796238016
 50
357.7689606583722934
 51
14.6873393234385503
  0
ARC
  5
31CA4
  8
0
 10
6704.4895754446461069
 20
302.5508205433652051
 30
0.0
 40
2.0651204424466809
 50
355.0476047380620912
 51
358.6906325368696002
  0
ARC
  5
31CA5
  8
0
 10
6706.3941396476202499
 20
302.3728952967279042
 30
0.0
 40
0.1528470730624685
 50
334.0964287373948878
 51
359.8678621069702217
  0
LINE
  5
31CA6
  8
0
 10
6706.5316302595047091
 20
302.3061228519077872
 30
0.0
 11
6706.5008001615042303
 21
302.2653747096077836
 31
0.0
  0
LINE
  5
31CA7
  8
0
 10
6706.6321880119048728
 20
302.0642865541045126
 30
0.0
 11
6706.6321880119048728
 21
302.9530596604641914
 31
0.0
  0
LINE
  5
31CA8
  8
0
 10
6706.6785282215132611
 20
302.0013546893277976
 30
0.0
 11
6706.6368132079460338
 21
302.0514953304243022
 31
0.0
  0
ARC
  5
31CA9
  8
0
 10
6706.6939030254707177
 20
302.0141459130078943
 30
0.0
 40
0.02
 50
219.7591058741043923
 51
270.0000000000521254
  0
ARC
  5
31CAA
  8
0
 10
6706.6521880119043999
 20
302.0642865541045126
 30
0.0
 40
0.02
 50
180.0000000000194973
 51
219.7591058740559902
  0
LINE
  5
31CAB
  8
0
 10
6706.7094881795828769
 20
303.0560584811963167
 30
0.0
 11
6706.6386673264860292
 21
302.9709722286527267
 31
0.0
  0
ARC
  5
31CAC
  8
0
 10
6706.7310088650019679
 20
303.0381459130078952
 30
0.0
 40
0.028
 50
90.0
 51
140.2279694918385928
  0
ARC
  5
31CAD
  8
0
 10
6706.6601880119042107
 20
302.9530596604641914
 30
0.0
 40
0.028
 50
140.2279694918360917
 51
180.0000000000098055
  0
LINE
  5
31CAE
  8
0
 10
6707.9645800138041523
 20
302.1704584732403873
 30
0.0
 11
6707.9645800138041523
 21
302.9529148268421181
 31
0.0
  0
LINE
  5
31CAF
  8
0
 10
6707.9364209906661927
 20
303.0465630184083921
 30
0.0
 11
6707.9632849260251533
 21
302.961331932242615
 31
0.0
  0
ARC
  5
31CB0
  8
0
 10
6707.9097160784458538
 20
303.0381459130078952
 30
0.0
 40
0.028
 50
17.494299309285239
 51
90.0
  0
ARC
  5
31CB1
  8
0
 10
6707.9365800138048144
 20
302.9529148268421181
 30
0.0
 40
0.028
 50
359.9999999999575948
 51
17.4942993093381816
  0
LINE
  5
31CB2
  8
0
 10
6703.9831165773366592
 20
302.5389223280077999
 30
0.0
 11
6704.6100834806957209
 21
302.5389223280077999
 31
0.0
  0
LINE
  5
31CB3
  8
0
 10
6706.1133946495519922
 20
302.5389223280077999
 30
0.0
 11
6706.4716747237243908
 21
302.5389223280077999
 31
0.0
  0
LINE
  5
31CB4
  8
0
 10
6703.986182552434002
 20
302.3827112489079241
 30
0.0
 11
6704.7662945597876387
 21
302.3827112489079241
 31
0.0
  0
LINE
  5
31CB5
  8
0
 10
6706.2696053499494155
 20
302.3827112489079241
 30
0.0
 11
6706.4743016877018817
 21
302.3827112489079241
 31
0.0
  0
LINE
  5
31CB6
  8
0
 10
6703.9191059800377843
 20
302.4312594020000802
 30
0.0
 11
6703.967977434966997
 21
302.3894374693193186
 31
0.0
  0
LINE
  5
31CB7
  8
0
 10
6703.9703768207091343
 20
302.5358562126049264
 30
0.0
 11
6703.9245713408790834
 21
302.5124522916099181
 31
0.0
  0
ARC
  5
31CB8
  8
0
 10
6703.9373110975038799
 20
302.4525331815887057
 30
0.0
 40
0.028
 50
180.0
 51
229.4446168827984991
  0
ARC
  5
31CB9
  8
0
 10
6703.986182552434002
 20
302.4107112489077736
 30
0.0
 40
0.028
 50
229.4446168827921042
 51
270.0
  0
ARC
  5
31CBA
  8
0
 10
6703.9831165773366592
 20
302.5109223280077799
 30
0.0
 40
0.028
 50
90.0
 51
117.0643749775060058
  0
ARC
  5
31CBB
  8
0
 10
6703.9373110975038799
 20
302.4875184070127716
 30
0.0
 40
0.028
 50
117.0643749775044995
 51
180.0000000000098055
  0
ARC
  5
31CBC
  8
0
 10
6706.4604287813881456
 20
302.6227841614569911
 30
0.0
 40
0.0846125187458407
 50
277.6378458058313186
 51
347.7451228305232007
  0
ARC
  5
31CBD
  8
0
 10
6706.4419456928771979
 20
302.2987416520173269
 30
0.0
 40
0.0899877969673107
 50
4.704940924628322
 51
68.9268353265976117
  0
LINE
  5
31CBE
  8
0
 10
6703.9681100880779923
 20
302.3525757197346024
 30
0.0
 11
6703.9681100880779923
 21
302.6686494732899178
 31
0.0
  0
LINE
  5
31CBF
  8
0
 10
6708.7423689937213567
 20
301.8010903685408266
 30
0.0
 11
6706.8512248202951014
 21
301.8010903685408266
 31
0.0
  0
LINE
  5
31CC0
  8
0
 10
6706.361834346980686
 20
299.8060975425439096
 30
0.0
 11
6708.9448487961453793
 21
299.8060975425439096
 31
0.0
  0
LINE
  5
31CC1
  8
0
 10
6708.9447916946255646
 20
299.9402361836421278
 30
0.0
 11
6706.3618900432184091
 21
299.9402361836421278
 31
0.0
  0
LINE
  5
31CC2
  8
0
 10
6706.3248933242821295
 20
299.8687846685090221
 30
0.0
 11
6706.3564781006052726
 21
299.8687846685090221
 31
0.0
  0
LINE
  5
31CC3
  8
0
 10
6708.9506966217040826
 20
299.8687846685090221
 30
0.0
 11
6708.9872803911912342
 21
299.8687846685090221
 31
0.0
  0
LINE
  5
31CC4
  8
0
 10
6706.28432197939037
 20
299.8654196944148111
 30
0.0
 11
6706.3263216710420238
 21
299.8654196944148111
 31
0.0
  0
LINE
  5
31CC5
  8
0
 10
6708.9860018196641249
 20
299.8654196944148111
 30
0.0
 11
6709.0323462521173496
 21
299.8654196944148111
 31
0.0
  0
LINE
  5
31CC6
  8
0
 10
6706.5123401543260115
 20
302.9759935264290789
 30
0.0
 11
6708.743083478335393
 21
302.9759935264290789
 31
0.0
  0
ENDSEC
  0
EOF
