  0
SECTION
  2
HEADER
  9
$ACADVER
  1
AC1009
  9
$INSBASE
 10
2745.8992053670281166
 20
141.6372583112448069
 30
0.0
  9
$EXTMIN
 10
2736.6712434854462117
 20
141.6365075846404125
 30
-0.0015258207003583
  9
$EXTMAX
 10
2747.3608710556591177
 20
148.0757628620087019
 30
0.0000000349246037
  9
$LIMMIN
 10
0.0
 20
0.0
  9
$LIMMAX
 10
11.6929133858000007
 20
8.2677165353999982
  9
$ORTHOMODE
 70
     0
  9
$REGENMODE
 70
     1
  9
$FILLMODE
 70
     1
  9
$QTEXTMODE
 70
     0
  9
$MIRRTEXT
 70
     0
  9
$DRAGMODE
 70
     2
  9
$LTSCALE
 40
0.6431102362
  9
$OSMODE
 70
  4095
  9
$ATTMODE
 70
     1
  9
$TEXTSIZE
 40
0.2
  9
$TRACEWID
 40
0.05
  9
$TEXTSTYLE
  7
STANDARD
  9
$CLAYER
  8
0
  9
$CELTYPE
  6
BYLAYER
  9
$CECOLOR
 62
   256
  9
$DIMSCALE
 40
1.0
  9
$DIMASZ
 40
0.1875
  9
$DIMEXO
 40
0.0625
  9
$DIMDLI
 40
0.4443307087
  9
$DIMRND
 40
0.0
  9
$DIMDLE
 40
0.0
  9
$DIMEXE
 40
0.125
  9
$DIMTP
 40
0.01
  9
$DIMTM
 40
0.01
  9
$DIMTXT
 40
2.0
  9
$DIMCEN
 40
0.1052362205
  9
$DIMTSZ
 40
0.0
  9
$DIMTOL
 70
     1
  9
$DIMLIM
 70
     0
  9
$DIMTIH
 70
     1
  9
$DIMTOH
 70
     1
  9
$DIMSE1
 70
     0
  9
$DIMSE2
 70
     0
  9
$DIMTAD
 70
     0
  9
$DIMZIN
 70
     0
  9
$DIMBLK
  1

  9
$DIMASO
 70
     1
  9
$DIMSHO
 70
     1
  9
$DIMPOST
  1
\X
  9
$DIMAPOST
  1

  9
$DIMALT
 70
     1
  9
$DIMALTD
 70
     2
  9
$DIMALTF
 40
25.3999999999999986
  9
$DIMLFAC
 40
1.0
  9
$DIMTOFL
 70
     0
  9
$DIMTVP
 40
0.0
  9
$DIMTIX
 70
     0
  9
$DIMSOXD
 70
     0
  9
$DIMSAH
 70
     0
  9
$DIMBLK1
  1

  9
$DIMBLK2
  1

  9
$DIMSTYLE
  2
STANDARD
  9
$DIMCLRD
 70
     0
  9
$DIMCLRE
 70
     0
  9
$DIMCLRT
 70
     0
  9
$DIMTFAC
 40
1.0
  9
$DIMGAP
 40
0.09
  9
$LUNITS
 70
     2
  9
$LUPREC
 70
     4
  9
$SKETCHINC
 40
0.1
  9
$FILLETRAD
 40
0.0
  9
$AUNITS
 70
     0
  9
$AUPREC
 70
     0
  9
$MENU
  1
.
  9
$ELEVATION
 40
0.0
  9
$PELEVATION
 40
0.0
  9
$THICKNESS
 40
0.0
  9
$LIMCHECK
 70
     0
  9
$BLIPMODE
 70
     0
  9
$CHAMFERA
 40
0.0
  9
$CHAMFERB
 40
0.0
  9
$SKPOLY
 70
     0
  9
$TDCREATE
 40
2458060.468368056230247
  9
$TDUPDATE
 40
2460271.5112731480039656
  9
$TDINDWG
 40
0.7091968749999999
  9
$TDUSRTIMER
 40
0.7091968749999999
  9
$USRTIMER
 70
     1
  9
$ANGBASE
 50
0.0
  9
$ANGDIR
 70
     0
  9
$PDMODE
 70
     0
  9
$PDSIZE
 40
0.3125
  9
$PLINEWID
 40
0.0
  9
$COORDS
 70
     1
  9
$SPLFRAME
 70
     0
  9
$SPLINETYPE
 70
     6
  9
$SPLINESEGS
 70
     8
  9
$ATTDIA
 70
     1
  9
$ATTREQ
 70
     1
  9
$HANDLING
 70
     1
  9
$HANDSEED
  5
4AD7C
  9
$SURFTAB1
 70
     6
  9
$SURFTAB2
 70
     6
  9
$SURFTYPE
 70
     6
  9
$SURFU
 70
     6
  9
$SURFV
 70
     6
  9
$UCSNAME
  2

  9
$UCSORG
 10
0.0
 20
0.0
 30
0.0
  9
$UCSXDIR
 10
1.0
 20
0.0
 30
0.0
  9
$UCSYDIR
 10
0.0
 20
1.0
 30
0.0
  9
$PUCSNAME
  2

  9
$PUCSORG
 10
0.0
 20
0.0
 30
0.0
  9
$PUCSXDIR
 10
1.0
 20
0.0
 30
0.0
  9
$PUCSYDIR
 10
0.0
 20
1.0
 30
0.0
  9
$USERI1
 70
     0
  9
$USERI2
 70
     0
  9
$USERI3
 70
     0
  9
$USERI4
 70
     0
  9
$USERI5
 70
     0
  9
$USERR1
 40
0.0
  9
$USERR2
 40
0.0
  9
$USERR3
 40
0.0
  9
$USERR4
 40
0.0
  9
$USERR5
 40
0.0
  9
$WORLDVIEW
 70
     1
  9
$SHADEDGE
 70
     3
  9
$SHADEDIF
 70
    70
  9
$TILEMODE
 70
     1
  9
$MAXACTVP
 70
    64
  9
$PLIMCHECK
 70
     0
  9
$PEXTMIN
 10
1.0000000000000000E+20
 20
1.0000000000000000E+20
 30
1.0000000000000000E+20
  9
$PEXTMAX
 10
-1.0000000000000000E+20
 20
-1.0000000000000000E+20
 30
-1.0000000000000000E+20
  9
$PLIMMIN
 10
0.0
 20
0.0
  9
$PLIMMAX
 10
12.0
 20
9.0
  9
$UNITMODE
 70
     0
  9
$VISRETAIN
 70
     1
  9
$PLINEGEN
 70
     0
  9
$PSLTSCALE
 70
     1
  0
ENDSEC
  0
SECTION
  2
TABLES
  0
TABLE
  2
VPORT
 70
     1
  0
VPORT
  2
*ACTIVE
 70
     0
 10
0.0
 20
0.0
 11
1.0
 21
1.0
 12
-561.6770579638223353
 22
-50.4053763525632021
 13
0.0
 23
0.0
 14
1.0
 24
1.0
 15
0.0
 25
0.0
 16
0.0
 26
0.0
 36
96.5995694866707311
 17
3303.693115234375
 27
195.2615115758877096
 37
0.0
 40
6.4902929678098067
 41
2.5251322751322749
 42
50.0
 43
0.0
 44
0.0
 50
0.0
 51
0.0
 71
     0
 72
   100
 73
     1
 74
     1
 75
     0
 76
     0
 77
     0
 78
     0
  0
ENDTAB
  0
TABLE
  2
LTYPE
 70
     2
  0
LTYPE
  2
CONTINUOUS
 70
     0
  3
Solid line
 72
    65
 73
     0
 40
0.0
  0
LTYPE
  2
PHANTOM2
 70
     0
  3
___ _ _ ___ _ _ ___ _ _ ___ _ _
 72
    65
 73
     6
 40
1.25
 49
0.625
 49
-0.125
 49
0.125
 49
-0.125
 49
0.125
 49
-0.125
  0
ENDTAB
  0
TABLE
  2
LAYER
 70
     2
  0
LAYER
  2
0
 70
     0
 62
   255
  6
CONTINUOUS
  0
LAYER
  2
DEFPOINTS
 70
     0
 62
     7
  6
CONTINUOUS
  0
ENDTAB
  0
TABLE
  2
STYLE
 70
     1
  0
STYLE
  2
STANDARD
 70
     0
 40
0.0
 41
0.8
 50
0.0
 71
     0
 42
0.2
  3
txt
  4

  0
ENDTAB
  0
TABLE
  2
VIEW
 70
     0
  0
ENDTAB
  0
TABLE
  2
UCS
 70
     0
  0
ENDTAB
  0
TABLE
  2
APPID
 70
     9
  0
APPID
  2
ACAD
 70
     0
  0
APPID
  2
ACAD_MLEADERVER
 70
     0
  0
APPID
  2
ACAD_EXEMPT_FROM_CAD_STANDARDS
 70
     0
  0
APPID
  2
ACAD_NAV_VCDISPLAY
 70
     0
  0
APPID
  2
ACAECLAYERSTANDARD
 70
     0
  0
APPID
  2
ACCMTRANSPARENCY
 70
     0
  0
APPID
  2
ACAD_DSTYLE_DIMJAG
 70
     0
  0
APPID
  2
ACAD_DSTYLE_DIMTALN
 70
     0
  0
APPID
  2
ACDBATTR
 70
     0
  0
ENDTAB
  0
TABLE
  2
DIMSTYLE
 70
     1
  0
DIMSTYLE
  2
STANDARD
 70
     0
  3

  4

  5

  6

  7

 40
1.0
 41
0.1875
 42
0.0625
 43
0.38
 44
0.125
 45
0.0
 46
0.0
 47
0.01
 48
0.01
140
0.15625
141
0.09
142
0.0
143
25.3999999999999986
144
1.0
145
0.0
146
1.0
147
0.09
 71
     1
 72
     0
 73
     1
 74
     1
 75
     0
 76
     0
 77
     0
 78
     4
170
     0
171
     2
172
     0
173
     0
174
     0
175
     0
176
     0
177
     0
178
     0
  0
ENDTAB
  0
ENDSEC
  0
SECTION
  2
BLOCKS
  0
BLOCK
  8
0
  2
$MODEL_SPACE
 70
     0
 10
0.0
 20
0.0
 30
0.0
  3
$MODEL_SPACE
  1

  0
ENDBLK
  5
21
  8
0
  0
BLOCK
 67
     1
  8
0
  2
$PAPER_SPACE
 70
     0
 10
0.0
 20
0.0
 30
0.0
  3
$PAPER_SPACE
  1

  0
ENDBLK
  5
1D
 67
     1
  8
0
  0
ENDSEC
  0
SECTION
  2
ENTITIES
  0
ATTDEF
  5
42910
  8
DEFPOINTS
 10
2745.8952114271778555
 20
141.6413373218817071
 30
0.0
 40
0.001
  1
K-EX27111T-4
  3

  2
MODELNUMBER
 70
     0
1001
ACDBATTR
1070
     0
1070
     1
  0
ATTDEF
  5
42911
  8
DEFPOINTS
 10
2745.8952114271778555
 20
141.6396706552150135
 30
0.0
 40
0.001
  1
OCCASION
  3

  2
TRADENAME
 70
     0
1001
ACDBATTR
1070
     0
1070
     1
  0
ATTDEF
  5
42912
  8
DEFPOINTS
 10
2745.8952114271778555
 20
141.6380039885482915
 30
0.0
 40
0.001
  1
BATH FAUCET WITH HANDSHOWER
  3

  2
PRODUCT
 70
     0
1001
ACDBATTR
1070
     0
1070
     1
  0
LINE
  5
4AB2A
  8
0
 10
2744.6223453330308075
 20
141.6372579224533865
 30
0.0
 11
2747.1760662928199963
 21
141.6372579224533865
 31
0.0
  0
ARC
  5
4AB2B
  8
0
 10
2748.7412318142251024
 20
143.5650633445013966
 30
0.0
 40
2.2631429859721881
 50
226.906964585680214
 51
229.3655262110104047
  0
ARC
  5
4AB2C
  8
0
 10
2747.2494378691958445
 20
141.8266754055428009
 30
0.0
 40
0.027586548639819
 50
335.90987433969309
 51
49.3655262110115203
  0
LINE
  5
4AB2D
  8
0
 10
2747.2746217545600302
 20
141.815415317453386
 30
0.0
 11
2747.2021908211359005
 21
141.6534190426679913
 31
0.0
  0
ARC
  5
4AB2E
  8
0
 10
2747.1764480873130196
 20
141.6658365225736134
 30
0.0
 40
0.0285811502887847
 50
269.2346052004297121
 51
334.2488098949419282
  0
ARC
  5
4AB2F
  8
0
 10
2738.5037901691162006
 20
146.8810920002071896
 30
0.0
 40
1.1919222909584879
 50
65.9777197480925679
 51
86.8766439753059956
  0
ARC
  5
4AB30
  8
0
 10
2725.1707418700088965
 20
117.9645289963735024
 30
0.0
 40
33.0342185235314219
 50
62.8314844670965229
 51
65.2725861937599205
  0
ARC
  5
4AB31
  8
0
 10
2804.3617354867278664
 20
270.4796302509195129
 30
0.0
 40
138.8152132704937003
 50
242.4955625490298132
 51
243.0700813388351094
  0
ARC
  5
4AB32
  8
0
 10
2737.6452382649508763
 20
139.144248006939506
 30
0.0
 40
8.4942352747901513
 50
57.6274093018922926
 51
63.0700813388350667
  0
ARC
  5
4AB33
  8
0
 10
2741.0784299901561099
 20
144.6688291003358984
 30
0.0
 40
1.990908159259777
 50
47.2475915997140206
 51
55.9474282708219874
  0
ARC
  5
4AB34
  8
0
 10
2741.6353779279202172
 20
145.3202969037403136
 30
0.0
 40
1.1349532528570221
 50
36.994321184487049
 51
45.5676105686502027
  0
ARC
  5
4AB35
  8
0
 10
2742.2493044818811541
 20
145.7828283507633955
 30
0.0
 40
0.3662913290284443
 50
12.2437602518953401
 51
36.994321184487049
  0
ARC
  5
4AB36
  8
0
 10
2742.211063867087887
 20
145.7745298601788022
 30
0.0
 40
0.4054220019810903
 50
355.2633473261959125
 51
12.2437602518953401
  0
ARC
  5
4AB37
  8
0
 10
2741.9801926496329543
 20
145.7936596261311877
 30
0.0
 40
0.6370844007306318
 50
341.5410631807577033
 51
355.2633473261959125
  0
ARC
  5
4AB38
  8
0
 10
2739.8438355470161696
 20
146.5067726075463099
 30
0.0
 40
2.8893170250758091
 50
335.4287986891429227
 51
341.5410631807577033
  0
ARC
  5
4AB39
  8
0
 10
2744.2310105969918368
 20
144.5008337927388027
 30
0.0
 40
1.934695355493228
 50
155.4287986891436049
 51
166.5403446038550896
  0
ARC
  5
4AB3A
  8
0
 10
2744.1571493360588647
 20
144.5179675621673994
 30
0.0
 40
1.8588747720988019
 50
166.5240449297785119
 51
170.7329119159572031
  0
ARC
  5
4AB3B
  8
0
 10
2738.5687994075719871
 20
147.5650907843537993
 30
0.0
 40
0.5061529614926313
 50
90.007509309848075
 51
116.3829681662037956
  0
ARC
  5
4AB3C
  8
0
 10
2738.6253505665681587
 20
147.5110540679910116
 30
0.0
 40
0.580303207645772
 50
119.0150395382514006
 51
141.7258446104453924
  0
ARC
  5
4AB3D
  8
0
 10
2739.6695939808209914
 20
146.7473878369837053
 30
0.0
 40
1.8737239129912291
 50
143.1726641061937926
 51
150.288127656139693
  0
ARC
  5
4AB3E
  8
0
 10
2772.653781282223008
 20
129.2426231978922999
 30
0.0
 40
39.2141946850954923
 50
151.9610963967340922
 51
152.8433299634141918
  0
LINE
  5
4AB3F
  8
0
 10
2742.3067148353989069
 20
144.81227660569931
 30
0.0
 11
2737.7676351936997889
 21
147.125053200399293
 31
0.0
  0
ARC
  5
4AB40
  8
0
 10
2737.7729972885399548
 20
147.1355769040646919
 30
0.0
 40
0.0118110287407682
 50
152.8372931505626013
 51
243.0000000002883951
  0
LINE
  5
4AB41
  8
0
 10
2738.114358194702163
 20
146.9483890074660053
 30
0.0
 11
2738.115190924064791
 21
146.9324995853581015
 31
0.0
  0
ARC
  5
4AB42
  8
0
 10
2738.1230541487298069
 20
146.9329116795188099
 30
0.0
 40
0.007874015731115
 50
183.0000001307157049
 51
242.9999998692825898
  0
LINE
  5
4AB43
  8
0
 10
2738.1194794203761376
 20
146.9258958801389952
 30
0.0
 11
2738.2131072313081859
 21
146.8781901274199981
 31
0.0
  0
ARC
  5
4AB44
  8
0
 10
2738.2166820769311926
 20
146.8852061569548084
 30
0.0
 40
0.0078742740401169
 50
242.9999998692836982
 51
302.9989162808223
  0
LINE
  5
4AB45
  8
0
 10
2738.2209705890350051
 20
146.8786021539573028
 30
0.0
 11
2738.2343151772411147
 21
146.8872678720179863
 31
0.0
  0
LINE
  5
4AB46
  8
0
 10
2738.2652737859998524
 20
146.8714936729992928
 30
0.0
 11
2738.2661065153652089
 21
146.8556042508581072
 31
0.0
  0
ARC
  5
4AB47
  8
0
 10
2738.2739697402130332
 20
146.8560163450283937
 30
0.0
 40
0.0078740159146227
 50
183.0000001307236914
 51
243.0000637543660105
  0
LINE
  5
4AB48
  8
0
 10
2738.2703950195991638
 20
146.8490005414992936
 30
0.0
 11
2738.3640230008418257
 21
146.80129483350089
 31
0.0
  0
ARC
  5
4AB49
  8
0
 10
2738.3675977883090127
 20
146.8083107682375896
 30
0.0
 40
0.0078741631723038
 50
243.0000637543666926
 51
302.998398910989124
  0
LINE
  5
4AB4A
  8
0
 10
2738.3718861803999971
 20
146.8017068194992873
 30
0.0
 11
2738.3852304588999687
 21
146.8103726952992929
 31
0.0
  0
LINE
  5
4AB4B
  8
0
 10
2745.2475900288000048
 20
143.6011413676991992
 30
0.0
 11
2743.1157252056991638
 21
145.7330072410993012
 31
0.0
  0
ARC
  5
4AB4C
  8
0
 10
2744.7405179314660018
 20
147.3577991663836997
 30
0.0
 40
2.29780334279772
 50
219.987940187214889
 51
224.9999858861197879
  0
ARC
  5
4AB4D
  8
0
 10
2743.308991285097818
 20
146.1571190580679058
 30
0.0
 40
0.4294079719605621
 50
193.6264701505660071
 51
219.987940187214889
  0
ARC
  5
4AB4E
  8
0
 10
2743.1355733657569544
 20
146.1150800318245047
 30
0.0
 40
0.250967353052786
 50
167.2289735586246024
 51
193.6264701505660071
  0
ARC
  5
4AB4F
  8
0
 10
2743.2347086927461532
 20
146.0854437052601043
 30
0.0
 40
0.3542704070144764
 50
152.5285595614022895
 51
166.0986143649278119
  0
ARC
  5
4AB50
  8
0
 10
2742.9097708612139286
 20
146.2540261547092086
 30
0.0
 40
0.011800300502877
 50
334.0954408007950178
 51
63.0212400151512995
  0
LINE
  5
4AB51
  8
0
 10
2742.9151241874888001
 20
146.2645422846890995
 30
0.0
 11
2741.5315724606989534
 21
146.9694968075993131
 31
0.0
  0
ARC
  5
4AB52
  8
0
 10
2741.5262105979409171
 20
146.958972337871387
 30
0.0
 40
0.011811605957334
 50
63.0026545225568313
 51
151.9972237821095007
  0
LINE
  5
4AB53
  8
0
 10
2741.51578183759284
 20
146.9645180563022961
 30
0.0
 11
2741.4670968442142112
 21
146.8729656028598072
 31
0.0
  0
ARC
  5
4AB54
  8
0
 10
2741.3522056695360334
 20
146.9340614650490124
 30
0.0
 40
0.1301256561773407
 50
248.2903742901524993
 51
331.997223782109586
  0
LINE
  5
4AB55
  8
0
 10
2741.9267161282709822
 20
146.768161136326313
 30
0.0
 11
2741.9609973092988184
 21
146.8340146723992916
 31
0.0
  0
ARC
  5
4AB56
  8
0
 10
2741.9784398875649458
 20
146.8249346408815086
 30
0.0
 40
0.0196644478410835
 50
69.4007097202538006
 51
152.5000000093913002
  0
LINE
  5
4AB57
  8
0
 10
2741.9853584313000283
 20
146.8433418204992904
 30
0.0
 11
2742.8674397422178117
 21
146.3940534247074936
 31
0.0
  0
ARC
  5
4AB58
  8
0
 10
2742.8581555310402109
 20
146.3766991819109933
 30
0.0
 40
0.0196816239230852
 50
333.4942443112677211
 51
61.8540112229231624
  0
LINE
  5
4AB59
  8
0
 10
2742.8757684103002248
 20
146.3679155149993107
 30
0.0
 11
2742.8426350748941331
 21
146.3014770398312976
 31
0.0
  0
ARC
  5
4AB5A
  8
0
 10
2742.3121496913199735
 20
144.8231012944887937
 30
0.0
 40
0.0121124541802543
 50
243.3397041684681028
 51
269.313553548213406
  0
ARC
  5
4AB5B
  8
0
 10
2742.312015299316954
 20
144.8229992469341028
 30
0.0
 40
0.012009542120045
 50
269.9488525245753863
 51
295.8504371019092218
  0
ARC
  5
4AB5C
  8
0
 10
2742.3124551575169789
 20
144.8224249786958922
 30
0.0
 40
0.0113018853332402
 50
295.1130493613997032
 51
333.1194581461645043
  0
ARC
  5
4AB5D
  8
0
 10
2742.421361595414055
 20
144.7652848473528877
 30
0.0
 40
0.1116855456252702
 50
130.546904092739311
 51
152.2341875571250114
  0
ARC
  5
4AB5E
  8
0
 10
2742.4203137575182154
 20
144.7665096761151062
 30
0.0
 40
0.1100736617112519
 50
99.5958663389327938
 51
130.546904092739311
  0
ARC
  5
4AB5F
  8
0
 10
2742.4205320624519118
 20
144.7652184132984985
 30
0.0
 40
0.1113832481749035
 50
67.7822522991837246
 51
99.5958663389327938
  0
ARC
  5
4AB60
  8
0
 10
2742.4211605105010676
 20
144.7667570157151999
 30
0.0
 40
0.1097212480708277
 50
46.9536378750943513
 51
67.7822522991837246
  0
LINE
  5
4AB61
  8
0
 10
2742.4960551292620039
 20
144.8469414802873985
 30
0.0
 11
2744.3175186246980957
 21
143.0276871436180954
 31
0.0
  0
ARC
  5
4AB62
  8
0
 10
2745.6336601854682158
 20
144.0176427261370975
 30
0.0
 40
1.6306524039289489
 50
229.2834983698554936
 51
236.1873863432437872
  0
ARC
  5
4AB63
  8
0
 10
2742.0792919642021843
 20
139.0283664946192062
 30
0.0
 40
4.4961532251838268
 50
51.1286675797700028
 51
53.9342477348377685
  0
ARC
  5
4AB64
  8
0
 10
2743.536853088047792
 20
140.8575466186433971
 30
0.0
 40
2.1573449939252471
 50
48.3889199961237111
 51
50.7794120118718482
  0
ARC
  5
4AB65
  8
0
 10
2744.977334553583205
 20
142.4793514631375047
 30
0.0
 40
0.0118110236387468
 50
228.33524638421639
 51
314.9999999253153078
  0
LINE
  5
4AB66
  8
0
 10
2744.9856862084798195
 20
142.4709998082190054
 30
0.0
 11
2745.2648644991750189
 21
142.7501780989410918
 31
0.0
  0
ARC
  5
4AB67
  8
0
 10
2743.5481142959929457
 20
142.0265556615140952
 30
0.0
 40
2.316794749761458
 50
35.7206627404356567
 51
42.8154949327167529
  0
LINE
  5
4AB68
  8
0
 10
2745.0129011913850263
 20
142.4438818148798873
 30
0.0
 11
2745.068305454259189
 21
142.3879306791534134
 31
0.0
  0
LINE
  5
4AB69
  8
0
 10
2745.059480892558895
 20
142.3549969663534114
 30
0.0
 11
2745.2302436891591242
 21
142.1842341698533971
 31
0.0
  0
ARC
  5
4AB6A
  8
0
 10
2745.0493539982940092
 20
142.4905945760118016
 30
0.0
 40
0.0313636580447613
 50
46.1311175312671011
 51
128.5369760319950956
  0
LINE
  5
4AB6B
  8
0
 10
2745.0645048299579685
 20
142.3600209038534103
 30
0.0
 11
2745.059480892558895
 21
142.3549969663534114
 31
0.0
  0
LINE
  5
4AB6C
  8
0
 10
2745.0645048299579685
 20
142.3600209038534103
 30
0.0
 11
2745.2352676265591072
 21
142.1892581072534085
 31
0.0
  0
LINE
  5
4AB6D
  8
0
 10
2745.2793022878781812
 20
142.3802103826911036
 30
0.0
 11
2745.1819982983579393
 21
142.4775143721533937
 31
0.0
  0
LINE
  5
4AB6E
  8
0
 10
2745.3745328004579278
 20
141.9615585958651138
 30
0.0
 11
2745.3745328004579278
 21
142.0232819088533915
 31
0.0
  0
LINE
  5
4AB6F
  8
0
 10
2746.280044611458834
 20
142.0012123397534083
 30
0.0
 11
2746.280044611458834
 21
141.9615587654650994
 31
0.0
  0
LINE
  5
4AB70
  8
0
 10
2738.5548786849972203
 20
146.7239326066390106
 30
0.0
 11
2738.5557114143689432
 21
146.7080431844636905
 31
0.0
  0
ARC
  5
4AB71
  8
0
 10
2738.5635746389079941
 20
146.7084552786203915
 30
0.0
 40
0.007874015604268
 50
183.000000149568109
 51
243.0000520288103871
  0
LINE
  5
4AB72
  8
0
 10
2738.5599999169990042
 20
146.7014394760992957
 30
0.0
 11
2738.6536278916678384
 21
146.6537337473149876
 31
0.0
  0
ARC
  5
4AB73
  8
0
 10
2738.6572026681519674
 20
146.6607496569475018
 30
0.0
 40
0.0078741358182511
 50
243.0000520288089945
 51
302.9986933498938129
  0
LINE
  5
4AB74
  8
0
 10
2738.6614910792832234
 20
146.6541457531882884
 30
0.0
 11
2738.6748357311571453
 21
146.6628114387756909
 31
0.0
  0
LINE
  5
4AB75
  8
0
 10
2738.9597108250000019
 20
146.5176603284992893
 30
0.0
 11
2738.9605435543649037
 21
146.5017709064580913
 31
0.0
  0
ARC
  5
4AB76
  8
0
 10
2738.9684067791681628
 20
146.5021830006286905
 30
0.0
 40
0.0078740158699096
 50
183.0000001495509991
 51
243.0000018875882972
  0
LINE
  5
4AB77
  8
0
 10
2738.9648320510000303
 20
146.4951672009993047
 30
0.0
 11
2739.0584599958729086
 21
146.4474613841875907
 31
0.0
  0
ARC
  5
4AB78
  8
0
 10
2739.0620347260792187
 20
146.4544771878163942
 30
0.0
 40
0.0078740203585373
 50
243.0000018875896899
 51
302.9999514620178047
  0
LINE
  5
4AB79
  8
0
 10
2739.0663232193351178
 20
146.4478734750572926
 30
0.0
 11
2739.079667511747175
 21
146.4565393438033141
 31
0.0
  0
LINE
  5
4AB7A
  8
0
 10
2739.4469731136950941
 20
146.2693877918705994
 30
0.0
 11
2739.447805843164133
 21
146.2534983697582049
 31
0.0
  0
ARC
  5
4AB7B
  8
0
 10
2739.4556690679169151
 20
146.253910463975501
 30
0.0
 40
0.0078740158211991
 50
183.0000005091584967
 51
242.9999994908276051
  0
LINE
  5
4AB7C
  8
0
 10
2739.4520943394768437
 20
146.2468946645390133
 30
0.0
 11
2739.5457222754162103
 21
146.1991888473463916
 31
0.0
  0
ARC
  5
4AB7D
  8
0
 10
2739.5492970100981438
 20
146.2062046590345972
 30
0.0
 40
0.0078740295716149
 50
242.999999490804413
 51
302.9999493049356261
  0
LINE
  5
4AB7E
  8
0
 10
2739.5535855081229784
 20
146.1996009383873059
 30
0.0
 11
2739.566929801113929
 21
146.2082668067949101
 31
0.0
  0
LINE
  5
4AB7F
  8
0
 10
2739.9771904583999458
 20
145.9992285609993132
 30
0.0
 11
2739.9780231877648475
 21
145.9833391388401935
 31
0.0
  0
ARC
  5
4AB80
  8
0
 10
2739.9858864124498723
 20
145.9837512330018967
 30
0.0
 40
0.0078740157502923
 50
183.0000001307425066
 51
242.9999999608733958
  0
LINE
  5
4AB81
  8
0
 10
2739.9823116840998409
 20
145.9767354335992025
 30
0.0
 11
2740.0759396280859619
 21
145.9290296132735989
 31
0.0
  0
ARC
  5
4AB82
  8
0
 10
2740.0795143563841521
 20
145.9360454125724118
 30
0.0
 40
0.0078740156337639
 50
242.9999999608733958
 51
303.0000006485435051
  0
LINE
  5
4AB83
  8
0
 10
2740.0838028527350616
 20
145.9294417074573005
 30
0.0
 11
2740.0971471311340792
 21
145.938107583390007
 31
0.0
  0
LINE
  5
4AB84
  8
0
 10
2740.5074078030988858
 20
145.7290693300992928
 30
0.0
 11
2740.5082405324651518
 21
145.7131799079402015
 31
0.0
  0
ARC
  5
4AB85
  8
0
 10
2740.5161037572302121
 20
145.7135920021061111
 30
0.0
 40
0.0078740158309108
 50
183.0000001307139996
 51
243.0000036856131089
  0
LINE
  5
4AB86
  8
0
 10
2740.5125290292999125
 20
145.7065762023993045
 30
0.0
 11
2740.6061569758007863
 21
145.6588703884594906
 31
0.0
  0
ARC
  5
4AB87
  8
0
 10
2740.6097317070830286
 20
145.6658861947452124
 30
0.0
 40
0.0078740232145585
 50
243.0000036856123131
 51
302.9999119205606917
  0
LINE
  5
4AB88
  8
0
 10
2740.6140201973371404
 20
145.6592824766312049
 30
0.0
 11
2740.6273645010787732
 21
145.6679483396422086
 31
0.0
  0
LINE
  5
4AB89
  8
0
 10
2740.9946700917980706
 20
145.4807967934314945
 30
0.0
 11
2740.9955028211611534
 21
145.4649073713187875
 31
0.0
  0
ARC
  5
4AB8A
  8
0
 10
2741.0033660459512248
 20
145.4653194654860044
 30
0.0
 40
0.0078740158560594
 50
183.0000001307188882
 51
243.0000142241086962
  0
LINE
  5
4AB8B
  8
0
 10
2740.99979131929922
 20
145.4583036650992938
 30
0.0
 11
2741.0934192715358222
 21
145.4105978699292052
 31
0.0
  0
ARC
  5
4AB8C
  8
0
 10
2741.0969940130239593
 20
145.4176136994346109
 30
0.0
 40
0.0078740485366894
 50
243.0000142241345884
 51
302.9996430579561206
  0
LINE
  5
4AB8D
  8
0
 10
2741.1012824860808905
 20
145.4110099399597971
 30
0.0
 11
2741.1146268666238939
 21
145.4196757638189865
 31
0.0
  0
LINE
  5
4AB8E
  8
0
 10
2741.3995022318999872
 20
145.274524515299305
 30
0.0
 11
2741.400334961264889
 21
145.2586350931663901
 31
0.0
  0
ARC
  5
4AB8F
  8
0
 10
2741.4081981859480948
 20
145.2590471873280933
 30
0.0
 40
0.0078740157497158
 50
183.0000001306977992
 51
238.7219687824747894
  0
LINE
  5
4AB90
  8
0
 10
2741.4041100642889432
 20
145.2523175970488865
 30
0.0
 11
2741.4982513938989541
 21
145.2043255715992984
 31
0.0
  0
ARC
  5
4AB91
  8
0
 10
2741.5018261299501319
 20
145.2113413673081084
 30
0.0
 40
0.0078740159088164
 50
243.000000364764702
 51
302.9999984694600244
  0
LINE
  5
4AB92
  8
0
 10
2741.506114626199178
 20
145.2047376617992995
 30
0.0
 11
2741.5194589051961884
 21
145.2134035373985057
 31
0.0
  0
LINE
  5
4AB93
  8
0
 10
2741.6891071308000392
 20
145.1269634489927967
 30
0.0
 11
2741.689939860099912
 21
145.1110740268993027
 31
0.0
  0
ARC
  5
4AB94
  8
0
 10
2741.6978030847271839
 20
145.1114861210268998
 30
0.0
 40
0.0078740156918537
 50
182.9999999052423902
 51
243.0000005603390036
  0
LINE
  5
4AB95
  8
0
 10
2741.6942283564771969
 20
145.1044703216390133
 30
0.0
 11
2741.7878563009257959
 21
145.0567645023118928
 31
0.0
  0
ARC
  5
4AB96
  8
0
 10
2741.7914310297878728
 20
145.0637803029009092
 30
0.0
 40
0.0078740170397769
 50
243.000000560338691
 51
302.9999858530018173
  0
LINE
  5
4AB97
  8
0
 10
2741.7957195252001839
 20
145.0571765954992998
 30
0.0
 11
2741.80906380776878
 21
145.0658424692410904
 31
0.0
  0
LINE
  5
4AB98
  8
0
 10
2741.8400227221000023
 20
145.0500681145011015
 30
0.0
 11
2741.8408554513998752
 21
145.0341786923991947
 31
0.0
  0
ARC
  5
4AB99
  8
0
 10
2741.8487186760280565
 20
145.0345907865269908
 30
0.0
 40
0.0078740156918571
 50
182.9999999052203918
 51
243.0000005602821886
  0
LINE
  5
4AB9A
  8
0
 10
2741.8451439477771601
 20
145.0275749871389905
 30
0.0
 11
2741.9387670871651608
 21
144.9798716161124901
 31
0.0
  0
ARC
  5
4AB9B
  8
0
 10
2741.942346058286148
 20
144.986895742604105
 30
0.0
 40
0.0078833614186549
 50
243.0000005602803128
 51
302.9607677371182035
  0
LINE
  5
4AB9C
  8
0
 10
2741.9466351164987827
 20
144.9802812609993055
 30
0.0
 11
2741.9599906086700685
 21
144.9889414231720934
 31
0.0
  0
ARC
  5
4AB9D
  8
0
 10
2744.6948368371199649
 20
141.6768019120297026
 30
0.0
 40
0.0395591594421845
 50
210.3576754859095104
 51
268.4132121982639205
  0
LINE
  5
4AB9E
  8
0
 10
2744.6607017431301756
 20
141.6568088518808963
 30
0.0
 11
2744.602642613379885
 21
141.7564618108015964
 31
0.0
  0
ARC
  5
4AB9F
  8
0
 10
2744.6366540576727857
 20
141.7762775842479073
 30
0.0
 40
0.0393629676238595
 50
179.9953378152646053
 51
210.2259656924275077
  0
LINE
  5
4ABA0
  8
0
 10
2744.5972910901791693
 20
141.776280787231201
 30
0.0
 11
2744.5972919685691522
 21
141.8706720568924027
 31
0.0
  0
ARC
  5
4ABA1
  8
0
 10
2744.6367084530220382
 20
141.8706570222261121
 30
0.0
 40
0.0394181574425042
 50
149.6452679316813885
 51
179.9781005240635068
  0
LINE
  5
4ABA2
  8
0
 10
2744.6026940044748699
 20
141.8905770730845859
 30
0.0
 11
2744.6328697115441173
 21
141.9421035497375101
 31
0.0
  0
ARC
  5
4ABA3
  8
0
 10
2744.6668089214008432
 20
141.9222275303677065
 30
0.0
 40
0.0393309815752552
 50
89.9393131112416881
 51
149.645229063354293
  0
LINE
  5
4ABA4
  8
0
 10
2744.6668505802190339
 20
141.9615584898807015
 30
0.0
 11
2747.1140630971690371
 21
141.9615588563817141
 31
0.0
  0
ARC
  5
4ABA5
  8
0
 10
2747.1140631045818736
 20
141.9120588563818046
 30
0.0
 40
0.0495
 50
31.7906558525824607
 51
90.000008580779479
  0
LINE
  5
4ABA6
  8
0
 10
2747.1561370463150524
 20
141.9381363069290103
 30
0.0
 11
2747.1854012402591252
 21
141.8909208021534027
 31
0.0
  0
ARC
  5
4ABA7
  8
0
 10
2747.1508286871608107
 20
141.869886717255099
 30
0.0
 40
0.0404681353879078
 50
0.4424843967203378
 51
31.316721499342691
  0
LINE
  5
4ABA8
  8
0
 10
2747.1912956157580084
 20
141.8701992418534132
 30
0.0
 11
2747.1912959174519528
 21
141.7767678948220009
 31
0.0
  0
ARC
  5
4ABA9
  8
0
 10
2747.151933602155168
 20
141.7767520838978896
 30
0.0
 40
0.0393623184722315
 50
328.3991298787412916
 51
0.0230143771021586
  0
LINE
  5
4ABAA
  8
0
 10
2747.1854592357590263
 20
141.7561262746534112
 30
0.0
 11
2747.1233752905900474
 21
141.6552136959655002
 31
0.0
  0
ARC
  5
4ABAB
  8
0
 10
2747.0912464250359335
 20
141.6749801785319107
 30
0.0
 40
0.0377223784352635
 50
270.1459325522907875
 51
328.3991298787391884
  0
LINE
  5
4ABAC
  8
0
 10
2746.2956273715949465
 20
143.3791792940999983
 30
0.0
 11
2745.4138683078031136
 21
143.3791792940999983
 31
0.0
  0
ARC
  5
4ABAD
  8
0
 10
2746.2935002527001416
 20
142.0416293028409882
 30
0.0
 40
0.0406480529631409
 50
276.112433997226276
 51
312.8321297334549058
  0
LINE
  5
4ABAE
  8
0
 10
2746.3211349392590819
 20
142.0118201044533919
 30
0.0
 11
2746.4227530897460383
 21
142.1073840333446867
 31
0.0
  0
ARC
  5
4ABAF
  8
0
 10
2746.3952550443491418
 20
142.1361964462095955
 30
0.0
 40
0.0398283521598728
 50
313.6628765070830127
 51
359.0267825243889206
  0
LINE
  5
4ABB0
  8
0
 10
2746.4350776510268588
 20
142.1355199603534061
 30
0.0
 11
2746.4350853645591997
 21
143.2443647955533947
 31
0.0
  0
ARC
  5
4ABB1
  8
0
 10
2746.3953356837650972
 20
143.2442213403930111
 30
0.0
 40
0.0397499396554526
 50
0.2067774983449865
 51
46.4196654181226904
  0
LINE
  5
4ABB2
  8
0
 10
2746.4227381373598291
 20
143.2730165351239009
 30
0.0
 11
2746.3211362436591116
 21
143.3685702954533951
 31
0.0
  0
ARC
  5
4ABB3
  8
0
 10
2746.2935994895310614
 20
143.3383313590902901
 30
0.0
 40
0.0408982407960949
 50
47.6777853169143384
 51
87.1579035395737662
  0
LINE
  5
4ABB4
  8
0
 10
2746.2978284514560983
 20
142.0012123397534083
 30
0.0
 11
2745.412922383915884
 21
142.0012123397534083
 31
0.0
  0
ARC
  5
4ABB5
  8
0
 10
2745.412922383915884
 20
142.0406123397534088
 30
0.0
 40
0.0394
 50
224.9999999999953957
 51
270.0
  0
LINE
  5
4ABB6
  8
0
 10
2745.3850623767370962
 20
142.0127523325747063
 30
0.0
 11
2745.2901335986080085
 21
142.1076811107033961
 31
0.0
  0
ARC
  5
4ABB7
  8
0
 10
2745.3179728376180719
 20
142.1355203497124933
 30
0.0
 40
0.0393706293728606
 50
179.8360344506546085
 51
224.9999999999953957
  0
LINE
  5
4ABB8
  8
0
 10
2745.2786023694588948
 20
142.1356330180122995
 30
0.0
 11
2745.2802273815132139
 21
142.7034722900853865
 31
0.0
  0
ARC
  5
4ABB9
  8
0
 10
2745.2022277009050413
 20
142.7036955053989971
 30
0.0
 40
0.078
 50
359.8360344506514252
 51
90.0000048885107162
  0
LINE
  5
4ABBA
  8
0
 10
2745.0129011913850263
 20
142.4438818148798873
 30
0.0
 11
2745.2798963939821988
 21
142.710877017476605
 31
0.0
  0
LINE
  5
4ABBB
  8
0
 10
2745.0710893392870275
 20
142.5132055025813997
 30
0.0
 11
2745.076657109187181
 21
142.5076377326813883
 31
0.0
  0
LINE
  5
4ABBC
  8
0
 10
2745.059480892558895
 20
142.3549969663534114
 30
0.0
 11
2745.068305454259189
 21
142.3879306791534134
 31
0.0
  0
LINE
  5
4ABBD
  8
0
 10
2745.068305454259189
 20
142.3879306791534134
 30
0.0
 11
2745.2799299972061817
 21
142.599555222101003
 31
0.0
  0
ARC
  5
4ABBE
  8
0
 10
2745.2678407532580422
 20
142.274178448781214
 30
0.0
 40
0.2207134449840993
 50
112.8880428429278027
 51
157.1119571083075925
  0
LINE
  5
4ABBF
  8
0
 10
2745.1819982983579393
 20
142.4775143721533937
 30
0.0
 11
2745.279860804917007
 21
142.5753768787112108
 31
0.0
  0
LINE
  5
4ABC0
  8
0
 10
2745.2302436891591242
 20
142.1842341698533971
 30
0.0
 11
2745.2352676265591072
 21
142.1892581072534085
 31
0.0
  0
LINE
  5
4ABC1
  8
0
 10
2745.2302436891591242
 20
142.1842341698533971
 30
0.0
 11
2745.2631774018591386
 21
142.1930587315534069
 31
0.0
  0
LINE
  5
4ABC2
  8
0
 10
2745.2631774018591386
 20
142.1930587315534069
 30
0.0
 11
2745.2787222219590149
 21
142.1775139114529054
 31
0.0
  0
LINE
  5
4ABC3
  8
0
 10
2745.2022276942498138
 20
142.781695505399
 30
0.0
 11
2744.3820594296889794
 21
142.7816954354217955
 31
0.0
  0
ARC
  5
4ABC4
  8
0
 10
2744.3820594273379356
 20
142.8092545608645025
 30
0.0
 40
0.0275591254427378
 50
224.6117549017367025
 51
270.0000048885107162
  0
LINE
  5
4ABC5
  8
0
 10
2744.3624405826590191
 20
142.7898998113533935
 30
0.0
 11
2744.3194311293477767
 21
142.8334961277894877
 31
0.0
  0
ARC
  5
4ABC6
  8
0
 10
2744.3389323546330161
 20
142.8527348412173978
 30
0.0
 40
0.0273939022777734
 50
179.7546289249393112
 51
224.6117549017361057
  0
LINE
  5
4ABC7
  8
0
 10
2744.3115387035591084
 20
142.8528521561534035
 30
0.0
 11
2744.3115387036577886
 21
143.0101859428812929
 31
0.0
  0
LINE
  5
4ABC8
  8
0
 10
2744.3115387036091306
 20
142.9322123380621008
 30
0.0
 11
2745.318853834859965
 21
142.9322123380621008
 31
0.0
  0
LINE
  5
4ABC9
  8
0
 10
2746.0149412216342171
 20
143.2439608361430885
 30
0.0
 11
2745.9795039215277939
 21
143.3685631791339006
 31
0.0
  0
ARC
  5
4ABCA
  8
0
 10
2745.9633062719290137
 20
143.3639565164014869
 30
0.0
 40
0.0168399879468291
 50
15.8759194923578093
 51
64.6843878997567288
  0
LINE
  5
4ABCB
  8
0
 10
2745.2631774018591386
 20
142.1930587315534069
 30
0.0
 11
2745.2788114479708383
 21
142.2086927776655045
 31
0.0
  0
ARC
  5
4ABCC
  8
0
 10
2745.147916799819086
 20
142.3941024023930026
 30
0.0
 40
0.2226911587453756
 50
293.0946350640792275
 51
306.0048090414525745
  0
LINE
  5
4ABCD
  8
0
 10
2746.423056101588827
 20
143.2727105688533982
 30
0.0
 11
2745.2910795709549348
 21
143.2727105688533982
 31
0.0
  0
ARC
  5
4ABCE
  8
0
 10
2746.1993171183421509
 20
141.6700695112565995
 30
0.0
 40
0.0411319294030681
 50
307.0874750842488083
 51
348.8993686379720884
  0
ARC
  5
4ABCF
  8
0
 10
2746.1779845322062101
 20
141.8713642925098952
 30
0.0
 40
0.0826593323575192
 50
0.5200163164720748
 51
20.3486756104825908
  0
LINE
  5
4ABD0
  8
0
 10
2746.2554854144591445
 20
141.9001076130533932
 30
0.0
 11
2746.2412051380588309
 21
141.9440453127533885
 31
0.0
  0
ARC
  5
4ABD1
  8
0
 10
2746.2077929320698786
 20
141.9226472080461008
 30
0.0
 40
0.0396768748021999
 50
32.6366273559540971
 51
78.7294382240291668
  0
ARC
  5
4ABD2
  8
0
 10
2745.1918839989129992
 20
141.4252302832940984
 30
0.0
 40
0.6667283923534921
 50
126.4459278385962051
 51
128.9083855282152058
  0
LINE
  5
4ABD3
  8
0
 10
2744.7731272632590844
 20
141.9440458049533902
 30
0.0
 11
2744.735741046658859
 21
141.9001068801534018
 31
0.0
  0
ARC
  5
4ABD4
  8
0
 10
2744.768497044527976
 20
141.8711349277573106
 30
0.0
 40
0.0437302116779131
 50
138.5087880843811945
 51
178.5153515634617918
  0
LINE
  5
4ABD5
  8
0
 10
2744.7247815129589981
 20
141.8722679383533887
 30
0.0
 11
2744.7247802457432044
 21
141.7882819494276987
 31
0.0
  0
ARC
  5
4ABD6
  8
0
 10
2744.8074802457340411
 20
141.7882807016156903
 30
0.0
 40
0.0827
 50
179.9991354974376065
 51
206.0793922861873
  0
LINE
  5
4ABD7
  8
0
 10
2744.7332002840698806
 20
141.7519244463726977
 30
0.0
 11
2744.7771301824591319
 21
141.662170670953401
 31
0.0
  0
ARC
  5
4ABD8
  8
0
 10
2744.8169880967261633
 20
141.6773620905036921
 30
0.0
 40
0.0426548069705445
 50
200.8638123842140999
 51
250.0856384149302869
  0
LINE
  5
4ABD9
  8
0
 10
2745.2015483391000998
 20
143.0827283620311903
 30
0.0
 11
2744.3834401862441155
 21
143.0827283620311903
 31
0.0
  0
LINE
  5
4ABDA
  8
0
 10
2745.2795483390991649
 20
143.1607283620311932
 30
0.0
 11
2745.2795483390991649
 21
143.2448593253959075
 31
0.0
  0
LINE
  5
4ABDB
  8
0
 10
2745.386008300623871
 20
143.3676393012787003
 30
0.0
 11
2745.2910883319209461
 21
143.2727193325746953
 31
0.0
  0
ARC
  5
4ABDC
  8
0
 10
2745.2015483391000998
 20
143.1607283620311932
 30
0.0
 40
0.078
 50
270.0
 51
0.0000000000008142
  0
ARC
  5
4ABDD
  8
0
 10
2745.4138683078031136
 20
143.3397792940999977
 30
0.0
 40
0.0394
 50
90.0
 51
134.9999999999770068
  0
ARC
  5
4ABDE
  8
0
 10
2745.3189483390988244
 20
143.2448593253959075
 30
0.0
 40
0.0394
 50
135.0000000000086118
 51
179.9999999999878071
  0
LINE
  5
4ABDF
  8
0
 10
2744.3197674294738135
 20
143.0302600851395027
 30
0.0
 11
2744.3630689120600437
 21
143.0742025043074079
 31
0.0
  0
ARC
  5
4ABE0
  8
0
 10
2744.3401387036578853
 20
143.010185942863302
 30
0.0
 40
0.0286
 50
135.4209153840546094
 51
179.9999999638932877
  0
ARC
  5
4ABE1
  8
0
 10
2744.3834401862441155
 20
143.0541283620310935
 30
0.0
 40
0.0286
 50
90.0
 51
135.4209153840288025
  0
ARC
  5
4ABE2
  8
0
 10
2742.2244575602499026
 20
142.2769023828564912
 30
0.0
 40
3.1803660211479441
 50
13.7462970781392393
 51
16.1349524684124788
  0
ARC
  5
4ABE3
  8
0
 10
2745.0887553968209431
 20
142.9828116296955045
 30
0.0
 40
0.230424398042285
 50
359.2618160847439981
 51
12.4863154911579706
  0
ARC
  5
4ABE4
  8
0
 10
2749.0159315406749556
 20
142.9322121143690936
 30
0.0
 40
3.6970777058153059
 50
179.2618160847439128
 51
180.7381781783334134
  0
ARC
  5
4ABE5
  8
0
 10
2745.0742996289732218
 20
142.8814267391192061
 30
0.0
 40
0.2448813606499397
 50
343.1206824500550283
 51
0.7381781783342233
  0
ARC
  5
4ABE6
  8
0
 10
2746.324969871337089
 20
142.482955093895896
 30
0.0
 40
1.067761538855811
 50
162.1459453941930917
 51
168.0813380214077881
  0
LINE
  5
4ABE7
  8
0
 10
2745.4937346756000807
 20
141.9812586107667869
 30
0.0
 11
2745.4937346756000807
 21
142.0012123397534083
 31
0.0
  0
LINE
  5
4ABE8
  8
0
 10
2746.1627346755990402
 20
141.9812587975584108
 30
0.0
 11
2746.1627346755990402
 21
142.0012123397534083
 31
0.0
  0
ARC
  5
4ABE9
  8
0
 10
2746.1824346755988699
 20
141.9812587975584108
 30
0.0
 40
0.0197
 50
180.0000000000023874
 51
269.9999811616909255
  0
ARC
  5
4ABEA
  8
0
 10
2745.4740346755988867
 20
141.9812586107667869
 30
0.0
 40
0.0197
 50
270.000008580779479
 51
359.9999999999919282
  0
LINE
  5
4ABEB
  8
0
 10
2746.0146416209649942
 20
142.119675991243497
 30
0.0
 11
2745.9743128734990023
 21
142.0012123397534083
 31
0.0
  0
LINE
  5
4ABEC
  8
0
 10
2746.0156926512368045
 20
143.2385718028423014
 30
0.0
 11
2746.0156926512368045
 21
142.126024686233194
 31
0.0
  0
ARC
  5
4ABED
  8
0
 10
2745.9959926512360653
 20
143.2385718028423014
 30
0.0
 40
0.0197
 50
0.0000000000154702
 51
15.8759194923374505
  0
ARC
  5
4ABEE
  8
0
 10
2745.9959926512360653
 20
142.126024686233194
 30
0.0
 40
0.0197
 50
341.1998132219765125
 51
359.9999999999844817
  0
LINE
  5
4ABEF
  8
0
 10
2744.5336741788942163
 20
141.847320460457297
 30
0.0
 11
2744.5656248132781911
 21
141.847320460457297
 31
0.0
  0
LINE
  5
4ABF0
  8
0
 10
2747.1917101156491299
 20
141.847320460457297
 30
0.0
 11
2747.2683799647370506
 21
141.847320460457297
 31
0.0
  0
LINE
  5
4ABF1
  8
0
 10
2745.2350851445012268
 20
145.0165020956534079
 30
0.0
 11
2745.2350851445012268
 21
145.8512579224573074
 31
0.0
  0
ARC
  5
4ABF2
  8
0
 10
2744.621477195278203
 20
141.6648951354245014
 30
0.0
 40
0.0276508445437599
 50
203.0956323358875011
 51
271.7991784924678882
  0
LINE
  5
4ABF3
  8
0
 10
2744.5960425271418899
 20
141.6540486216607917
 30
0.0
 11
2744.5271191736001128
 21
141.8164187424573015
 31
0.0
  0
ARC
  5
4ABF4
  8
0
 10
2744.5526174932201684
 20
141.827156023515613
 30
0.0
 40
0.0276668334802083
 50
133.2115451510155992
 51
202.8336938529670874
  0
ARC
  5
4ABF5
  8
0
 10
2743.1691086374621591
 20
143.2998485313021888
 30
0.0
 40
1.9929568267921109
 50
313.2115451510156277
 51
316.0508133100232158
  0
LINE
  5
4ABF6
  8
0
 10
2746.04031718007991
 20
145.8512579224573074
 30
0.0
 11
2746.0403171837010632
 21
145.0165020956534079
 31
0.0
  0
LINE
  5
4ABF7
  8
0
 10
2745.298858133343856
 20
145.8512579224573074
 30
0.0
 11
2745.2988581872277791
 21
145.0165020956534079
 31
0.0
  0
LINE
  5
4ABF8
  8
0
 10
2746.4774477738988026
 20
145.8512579224573074
 30
0.0
 11
2746.4774477738988026
 21
145.0165020956534079
 31
0.0
  0
LINE
  5
4ABF9
  8
0
 10
2736.8990307964991189
 20
145.901942171457307
 30
0.0
 11
2738.0285230870990745
 21
145.5349478794572917
 31
0.0
  0
ARC
  5
4ABFA
  8
0
 10
2744.7897346753561578
 20
145.8512579222141881
 30
0.0
 40
1.68771309854306
 50
0.0000000082513257
 51
89.9999999917405376
  0
LINE
  5
4ABFB
  8
0
 10
2739.8884853249951448
 20
147.5389710207572875
 30
0.0
 11
2744.7897346755989929
 21
147.5389710207572875
 31
0.0
  0
LINE
  5
4ABFC
  8
0
 10
2740.7437703084178793
 20
147.1004669294572977
 30
0.0
 11
2744.7897346755989929
 21
147.1004669294572977
 31
0.0
  0
LINE
  5
4ABFD
  8
0
 10
2738.6276507127167861
 20
146.2957579224573124
 30
0.0
 11
2739.3952188183739054
 21
146.2957579224573124
 31
0.0
  0
LINE
  5
4ABFE
  8
0
 10
2742.8538600234419391
 20
146.2957579224573124
 30
0.0
 11
2744.7897346755989929
 21
146.2957579224573124
 31
0.0
  0
ARC
  5
4ABFF
  8
0
 10
2738.0370393033158507
 20
145.5611580987090861
 30
0.0
 40
0.02755905535176
 50
252.0000005148610001
 51
341.9999996197199721
  0
LINE
  5
4AC00
  8
0
 10
2738.0632495224349441
 20
145.5526418820824972
 30
0.0
 11
2738.2049060956228459
 21
145.9886159754715891
 31
0.0
  0
ARC
  5
4AC01
  8
0
 10
2738.6276507127167861
 20
145.8512579289545101
 30
0.0
 40
0.4444999935027472
 50
89.999999808859755
 51
162.0000007336830095
  0
ARC
  5
4AC02
  8
0
 10
2738.6276507140942158
 20
145.8512579227578954
 30
0.0
 40
1.2492090065993771
 50
116.4164780231104999
 51
162.0000000105779918
  0
LINE
  5
4AC03
  8
0
 10
2737.4395823480817853
 20
146.2372847351041116
 30
0.0
 11
2737.2979257775750739
 21
145.8013106398472019
 31
0.0
  0
ARC
  5
4AC04
  8
0
 10
2737.3415442188470479
 20
145.7871381491675891
 30
0.0
 40
0.0458631432755911
 50
162.0000000105779918
 51
198.9342130019886099
  0
ARC
  5
4AC05
  8
0
 10
2738.6328281836681526
 20
145.8441317470870047
 30
0.0
 40
1.694847181732438
 50
116.5204269160015969
 51
161.824970879495595
  0
LINE
  5
4AC06
  8
0
 10
2737.0225401745251474
 20
146.3727899514487945
 30
0.0
 11
2736.8808836041880568
 21
145.9368158570229923
 31
0.0
  0
ARC
  5
4AC07
  8
0
 10
2736.9070982645830554
 20
145.9282986963671931
 30
0.0
 40
0.0275635710073173
 50
162.0009861673401872
 51
252.9811757090838
  0
ARC
  5
4AC08
  8
0
 10
2737.381173065044095
 20
145.8118582693541896
 30
0.0
 40
0.1969611922749873
 50
180.7512817308295894
 51
203.8564031925970141
  0
LINE
  5
4AC09
  8
0
 10
2737.2010398498227914
 20
145.7321981410821081
 30
0.0
 11
2737.7364651808561575
 21
145.5579124652572887
 31
0.0
  0
ARC
  5
4AC0A
  8
0
 10
2737.6327542279441332
 20
145.7329024276897087
 30
0.0
 40
0.203414475163052
 50
300.6538659291326212
 51
323.077023815228074
  0
ARC
  5
4AC0B
  8
0
 10
2744.7894412615610236
 20
145.8501126645165016
 30
0.0
 40
0.4456453545330627
 50
0.1472438072573375
 51
89.9622763099639968
  0
ARC
  5
4AC0C
  8
0
 10
2744.7889678294259284
 20
145.8494076455594097
 30
0.0
 40
0.5098936610410753
 50
0.2079130097262802
 51
89.9138309235868149
  0
LINE
  5
4AC0D
  8
0
 10
2744.7897346755989929
 20
146.3593007299573117
 30
0.0
 11
2742.8714721563360399
 21
146.3593007299573117
 31
0.0
  0
LINE
  5
4AC0E
  8
0
 10
2739.2705090368240235
 20
146.3593007299573117
 30
0.0
 11
2738.6276507142001719
 21
146.3593007299573117
 31
0.0
  0
ARC
  5
4AC0F
  8
0
 10
2738.6276507141787988
 20
145.851257922521313
 30
0.0
 40
0.5080428074360457
 50
89.9999999976550384
 51
162.0000000082563076
  0
LINE
  5
4AC10
  8
0
 10
2738.144473291587019
 20
146.0082517838193041
 30
0.0
 11
2738.0028167213458801
 21
145.5722776894421031
 31
0.0
  0
ARC
  5
4AC11
  8
0
 10
2737.9729987422269915
 20
145.5819661381549111
 30
0.0
 40
0.0313524786447878
 50
280.4771638924920012
 51
342.0000000082516749
  0
ARC
  5
4AC12
  8
0
 10
2744.7890701341889326
 20
145.8492183978316916
 30
0.0
 40
1.25124870809546
 50
0.0933916688590448
 51
89.9695700625466657
  0
LINE
  5
4AC13
  8
0
 10
2744.9908436005362091
 20
143.8578879224533864
 30
0.0
 11
2746.8830541218458166
 21
143.8578879224533864
 31
0.0
  0
LINE
  5
4AC14
  8
0
 10
2744.904229470007067
 20
143.9445020956534051
 30
0.0
 11
2745.7845829965572193
 21
143.9445020956534051
 31
0.0
  0
LINE
  5
4AC15
  8
0
 10
2744.6327613252819901
 20
141.6587550227521888
 30
0.0
 11
2744.5648396082788167
 21
141.8178034719877019
 31
0.0
  0
ARC
  5
4AC16
  8
0
 10
2743.2165994153160682
 20
142.639976410226609
 30
0.0
 40
1.564567991595071
 50
329.6567724437373954
 51
337.9600206669604745
  0
ARC
  5
4AC17
  8
0
 10
2743.5306875188562117
 20
142.5128215703533954
 30
0.0
 40
1.2257174491891141
 50
337.9600206669604745
 51
351.1096612071277718
  0
ARC
  5
4AC18
  8
0
 10
2742.244276659991101
 20
142.7140459071447083
 30
0.0
 40
2.5277712620262518
 50
351.1096612071277718
 51
357.6838407392676231
  0
ARC
  5
4AC19
  8
0
 10
2727.6256702889318149
 20
143.3053194081794004
 30
0.0
 40
17.1583302597201097
 50
357.6838407392676231
 51
357.7443286706480876
  0
ARC
  5
4AC1A
  8
0
 10
2744.6653169604301183
 20
141.6726579224533964
 30
0.0
 40
0.0354
 50
203.1249285157265945
 51
270.0
  0
ARC
  5
4AC1B
  8
0
 10
2744.5973952434278544
 20
141.8317063716889095
 30
0.0
 40
0.0354
 50
149.6567724437435913
 51
203.1249285157221038
  0
LINE
  5
4AC1C
  8
0
 10
2744.8589138707011443
 20
145.0165020956534079
 30
0.0
 11
2746.8775785170651034
 21
145.0165020956534079
 31
0.0
  0
LINE
  5
4AC1D
  8
0
 10
2744.833882290647125
 20
145.0061336757073889
 30
0.0
 11
2744.7529267488448568
 21
144.9251781339056038
 31
0.0
  0
ARC
  5
4AC1E
  8
0
 10
2744.8589138707011443
 20
144.981102095653398
 30
0.0
 40
0.0354
 50
90.0
 51
135.0000000000046043
  0
LINE
  5
4AC1F
  8
0
 10
2744.8765982284289748
 20
144.0227822098717922
 30
0.0
 11
2744.8765982284289748
 21
144.9022407718454133
 31
0.0
  0
ARC
  5
4AC20
  8
0
 10
2745.2526339500500399
 20
144.3962476272841968
 30
0.0
 40
0.5408790923936646
 50
227.6322314635065993
 51
235.4533942710347105
  0
ARC
  5
4AC21
  8
0
 10
2744.9659886794829617
 20
143.9799020956533866
 30
0.0
 40
0.0354
 50
235.4533942710588974
 51
270.0
  0
ARC
  5
4AC22
  8
0
 10
2744.9119982284291837
 20
144.0227822098717922
 30
0.0
 40
0.0354
 50
180.0000000000040075
 51
227.6322314635027055
  0
LINE
  5
4AC23
  8
0
 10
2744.9658279721829786
 20
145.0061336757073889
 30
0.0
 11
2744.8869666483751644
 21
144.9272723518994042
 31
0.0
  0
ARC
  5
4AC24
  8
0
 10
2744.9908595522369978
 20
144.981102095653398
 30
0.0
 40
0.0354
 50
90.0
 51
135.0000000000046043
  0
ARC
  5
4AC25
  8
0
 10
2744.9119982284291837
 20
144.9022407718454133
 30
0.0
 40
0.0354
 50
135.0000000000057128
 51
180.0
  0
LINE
  5
4AC26
  8
0
 10
2744.7425583289000315
 20
144.1061733164121961
 30
0.0
 11
2744.7425583289000315
 21
144.2198323452722946
 31
0.0
  0
LINE
  5
4AC27
  8
0
 10
2744.7425583289000315
 20
144.7023227829157008
 30
0.0
 11
2744.7425583289000315
 21
144.9001465538516129
 31
0.0
  0
ARC
  5
4AC28
  8
0
 10
2744.7779583288988761
 20
144.9001465538516129
 30
0.0
 40
0.0354
 50
135.0000000000046043
 51
180.0
  0
LINE
  5
4AC29
  8
0
 10
2744.7529267488448568
 20
144.9251781339056038
 30
0.0
 11
2746.9860488712861297
 21
144.9251781339056038
 31
0.0
  0
LINE
  5
4AC2A
  8
0
 10
2744.8500486609691507
 20
143.9986829313853889
 30
0.0
 11
2745.9444258528119462
 21
143.9986829313853889
 31
0.0
  0
LINE
  5
4AC2B
  8
0
 10
2745.0952881084458568
 20
143.7534433630862907
 30
0.0
 11
2747.0021618414198201
 21
143.7534433630862907
 31
0.0
  0
LINE
  5
4AC2C
  8
0
 10
2744.5648396082788167
 20
141.8178034719877019
 30
0.0
 11
2744.597291476582086
 21
141.8178034719877019
 31
0.0
  0
LINE
  5
4AC2D
  8
0
 10
2747.191295784947215
 20
141.8178034719877019
 30
0.0
 11
2747.2319547590309412
 21
141.8178034719877019
 31
0.0
  0
LINE
  5
4AC2E
  8
0
 10
2747.00744308009007
 20
143.7481621244222936
 30
0.0
 11
2746.9080857018871029
 21
143.8475195025206119
 31
0.0
  0
LINE
  5
4AC2F
  8
0
 10
2747.164033042029132
 20
141.6587550227521888
 30
0.0
 11
2747.2319547590309412
 21
141.8178034719877019
 31
0.0
  0
ARC
  5
4AC30
  8
0
 10
2748.580194951995054
 20
142.639976410226609
 30
0.0
 40
1.564567991595071
 50
202.0399793330394971
 51
210.3432275562620077
  0
ARC
  5
4AC31
  8
0
 10
2748.266106848454001
 20
142.5128215703533954
 30
0.0
 40
1.2257174491891141
 50
188.8903387928714039
 51
202.0399793330394971
  0
ARC
  5
4AC32
  8
0
 10
2749.5525177073200211
 20
142.7140459071447083
 30
0.0
 40
2.5277712620262518
 50
182.3161592607324053
 51
188.8903387928714039
  0
ARC
  5
4AC33
  8
0
 10
2764.1711240783788526
 20
143.3053194081794004
 30
0.0
 40
17.1583302597201097
 50
181.3856777503430919
 51
182.3161592607324053
  0
ARC
  5
4AC34
  8
0
 10
2747.1314774068810038
 20
141.6726579224533964
 30
0.0
 40
0.0354
 50
270.0
 51
336.8750714842732918
  0
ARC
  5
4AC35
  8
0
 10
2747.199399123882813
 20
141.8317063716889095
 30
0.0
 40
0.0354
 50
336.8750714842778962
 51
30.3432275562563802
  0
ARC
  5
4AC36
  8
0
 10
2746.8830541218458166
 20
143.822487922453405
 30
0.0
 40
0.0354
 50
45.0000000301728988
 51
90.0
  0
LINE
  5
4AC37
  8
0
 10
2746.2043998498370456
 20
144.1199107971276874
 30
0.0
 11
2746.2043998498370456
 21
144.9022407718454133
 31
0.0
  0
LINE
  5
4AC38
  8
0
 10
2746.1151701060830419
 20
145.0061336757073889
 30
0.0
 11
2746.1940314298908561
 21
144.9272723518994042
 31
0.0
  0
ARC
  5
4AC39
  8
0
 10
2746.0901385260290226
 20
144.981102095653398
 30
0.0
 40
0.0354
 50
44.9999999999953886
 51
90.0
  0
ARC
  5
4AC3A
  8
0
 10
2746.1689998498368368
 20
144.9022407718454133
 30
0.0
 40
0.0354
 50
0.0
 51
44.9999999999942375
  0
LINE
  5
4AC3B
  8
0
 10
2747.0178115000489925
 20
143.7231305443550013
 30
0.0
 11
2747.0178115000489925
 21
142.8903918340899963
 31
0.0
  0
ARC
  5
4AC3C
  8
0
 10
2746.9824115000487836
 20
143.7231305443550013
 30
0.0
 40
0.0354
 50
359.9999999999984084
 51
45.0000000301717478
  0
LINE
  5
4AC3D
  8
0
 10
2746.6329668820999359
 20
144.319754886318691
 30
0.0
 11
2745.8677965322981436
 21
143.9629500923880983
 31
0.0
  0
LINE
  5
4AC3E
  8
0
 10
2746.9767699565991279
 20
144.3382028830534125
 30
0.0
 11
2746.7161804178422244
 21
144.3382028830534125
 31
0.0
  0
LINE
  5
4AC3F
  8
0
 10
2746.9964699565989577
 20
144.3579028830534128
 30
0.0
 11
2746.9964699565989577
 21
144.9000939990577876
 31
0.0
  0
ARC
  5
4AC40
  8
0
 10
2746.9767699565991279
 20
144.3579028830534128
 30
0.0
 40
0.0197
 50
270.0
 51
0.0000000000105849
  0
ARC
  5
4AC41
  8
0
 10
2746.7161804178422244
 20
144.1413028830534131
 30
0.0
 40
0.1969
 50
90.0
 51
115.0000000015317028
  0
ARC
  5
4AC42
  8
0
 10
2745.7845829965572193
 20
144.1414020956534046
 30
0.0
 40
0.1969
 50
270.0
 51
295.0000000015317028
  0
LINE
  5
4AC43
  8
0
 10
2746.9857208422968142
 20
144.9255005697492038
 30
0.0
 11
2746.9022294027631688
 21
145.0065086663448994
 31
0.0
  0
ARC
  5
4AC44
  8
0
 10
2746.9610699565992036
 20
144.9000939990577876
 30
0.0
 40
0.0354
 50
0.0000000000032569
 51
45.8648915698633104
  0
ARC
  5
4AC45
  8
0
 10
2746.8775785170651034
 20
144.981102095653398
 30
0.0
 40
0.0354
 50
45.8648915698598998
 51
90.0
  0
ARC
  5
4AC46
  8
0
 10
2746.3270410083059687
 20
143.8578879224531022
 30
0.0
 40
1.3551055453067331
 50
176.3353320745632118
 51
179.2060127201604871
  0
ARC
  5
4AC47
  8
0
 10
2745.3294283428990639
 20
143.8578879224533864
 30
0.0
 40
1.355105545300155
 50
0.0000000000008142
 51
19.3970075330925908
  0
LINE
  5
4AC48
  8
0
 10
2746.1976279523992162
 20
143.7363048887928016
 30
0.0
 11
2746.1976279523992162
 21
143.3791792940999983
 31
0.0
  0
LINE
  5
4AC49
  8
0
 10
2746.1959543503180612
 20
143.7470608212665866
 30
0.0
 11
2746.1684690881020288
 21
143.8332438549273036
 31
0.0
  0
ARC
  5
4AC4A
  8
0
 10
2746.1622279523990073
 20
143.7363048887928016
 30
0.0
 40
0.0354
 50
359.9999999999885745
 51
17.6883831501477111
  0
ARC
  5
4AC4B
  8
0
 10
2746.1347426901820654
 20
143.822487922453405
 30
0.0
 40
0.0354
 50
17.6883831501267608
 51
90.0
  0
LINE
  5
4AC4C
  8
0
 10
2742.2306193182789684
 20
144.6273227829157122
 30
0.0
 11
2742.7159405142328978
 21
144.6273227829157122
 31
0.0
  0
LINE
  5
4AC4D
  8
0
 10
2744.2214091191490297
 20
144.6273227829157122
 30
0.0
 11
2744.6675583288988491
 21
144.6273227829157122
 31
0.0
  0
LINE
  5
4AC4E
  8
0
 10
2742.2303942195508171
 20
144.2948323452723116
 30
0.0
 11
2743.0488347020009314
 21
144.2948323452723116
 31
0.0
  0
LINE
  5
4AC4F
  8
0
 10
2744.5538993929849312
 20
144.2948323452723116
 30
0.0
 11
2744.6675583288988491
 21
144.2948323452723116
 31
0.0
  0
LINE
  5
4AC50
  8
0
 10
2742.217859886433871
 20
144.3529438351714873
 30
0.0
 11
2742.9906526460981695
 21
144.3529438351714873
 31
0.0
  0
LINE
  5
4AC51
  8
0
 10
2744.4957879317162224
 20
144.3529438351714873
 30
0.0
 11
2744.7122199130008084
 21
144.3529438351714873
 31
0.0
  0
LINE
  5
4AC52
  8
0
 10
2742.1510692652532271
 20
144.3741572994715057
 30
0.0
 11
2742.1510692652532271
 21
144.5470747222194063
 31
0.0
  0
LINE
  5
4AC53
  8
0
 10
2742.2091810161368812
 20
144.3036191418152043
 30
0.0
 11
2742.1598560618381271
 21
144.3529440960145109
 31
0.0
  0
LINE
  5
4AC54
  8
0
 10
2742.1597082149642119
 20
144.5681390411166092
 30
0.0
 11
2742.2092582679911175
 21
144.6183871018128002
 31
0.0
  0
ARC
  5
4AC55
  8
0
 10
2742.2303942195508171
 20
144.3248323452723128
 30
0.0
 40
0.03
 50
225.0000000579553046
 51
269.9999999999739089
  0
LINE
  5
4AC56
  8
0
 10
2742.1983544034319493
 20
144.3601504998981113
 30
0.0
 11
2742.1615637822501412
 21
144.3916342133368005
 31
0.0
  0
ARC
  5
4AC57
  8
0
 10
2742.217859886433871
 20
144.3829438351716021
 30
0.0
 40
0.03
 50
229.4446168828011139
 51
270.0
  0
ARC
  5
4AC58
  8
0
 10
2742.1810692652520629
 20
144.414427548610206
 30
0.0
 40
0.03
 50
180.0000000000098055
 51
229.4446168827973906
  0
ARC
  5
4AC59
  8
0
 10
2742.1810692652520629
 20
144.3741572994715057
 30
0.0
 40
0.03
 50
179.9999999999893987
 51
225.0000000579811967
  0
ARC
  5
4AC5A
  8
0
 10
2742.1810692652520629
 20
144.5470747222194063
 30
0.0
 40
0.03
 50
135.4007314359166969
 51
179.9999999999812133
  0
ARC
  5
4AC5B
  8
0
 10
2742.2306193182789684
 20
144.5973227829157111
 30
0.0
 40
0.03
 50
89.9999999999739515
 51
135.4007314359091936
  0
LINE
  5
4AC5C
  8
0
 10
2742.2253971202771936
 20
144.4892785105533903
 30
0.0
 11
2742.8541524166557792
 21
144.4892785105533903
 31
0.0
  0
LINE
  5
4AC5D
  8
0
 10
2744.3594533235009294
 20
144.4892785105533903
 30
0.0
 11
2744.7080080926161827
 21
144.4892785105533903
 31
0.0
  0
LINE
  5
4AC5E
  8
0
 10
2742.1674388414680834
 20
144.463394700716691
 30
0.0
 11
2742.2117666964918499
 21
144.4860032471742102
 31
0.0
  0
ARC
  5
4AC5F
  8
0
 10
2742.1810692652520629
 20
144.4366699640958984
 30
0.0
 40
0.03
 50
117.0229564822853945
 51
180.0000000000048885
  0
ARC
  5
4AC60
  8
0
 10
2742.2253971202771936
 20
144.4592785105533892
 30
0.0
 40
0.03
 50
90.0
 51
117.0229564822584933
  0
ARC
  5
4AC61
  8
0
 10
2746.2985566817351355
 20
145.0701192493291103
 30
0.0
 40
1.5988762036922719
 50
193.2990947519388953
 51
198.7877309945014872
  0
ARC
  5
4AC62
  8
0
 10
2744.5518638543098859
 20
144.4785516378998977
 30
0.0
 40
0.2452845061695572
 50
354.2511459043723221
 51
18.2043927180652787
  0
ARC
  5
4AC63
  8
0
 10
2742.7365449482981603
 20
144.5008943859535009
 30
0.0
 40
2.0599040226007261
 50
355.0427287443005753
 51
358.6950277516990013
  0
ARC
  5
4AC64
  8
0
 10
2744.6313438257129746
 20
144.3243027071131905
 30
0.0
 40
0.1574062243178087
 50
334.4763875841334198
 51
359.4866105916266861
  0
ARC
  5
4AC65
  8
0
 10
2744.4505551273259698
 20
144.4967802752645127
 30
0.0
 40
0.4024500287688228
 50
316.5157756504456188
 51
323.3378154198525181
  0
ARC
  5
4AC66
  8
0
 10
2744.6675583288988491
 20
144.2198323452722946
 30
0.0
 40
0.075
 50
0.0
 51
90.0
  0
ARC
  5
4AC67
  8
0
 10
2744.6675583288988491
 20
144.7023227829157008
 30
0.0
 40
0.075
 50
270.0
 51
359.9999999999968168
  0
ARC
  5
4AC68
  8
0
 10
2744.7029922169408565
 20
144.2169895589661905
 30
0.0
 40
0.1362670745013529
 50
51.0022368198572522
 51
86.1170887466724082
  0
ARC
  5
4AC69
  8
0
 10
2744.7021082938599648
 20
144.5739345308400061
 30
0.0
 40
0.0848613539610703
 50
273.986578771625318
 51
347.2323962981147929
  0
LINE
  5
4AC6A
  8
0
 10
2744.6026940044748699
 20
141.8905770730845859
 30
0.0
 11
2747.1856076917101745
 21
141.8905770730845859
 31
0.0
  0
LINE
  5
4AC6B
  8
0
 10
2744.602642613379885
 20
141.7564618108015964
 30
0.0
 11
2747.1856633654688267
 21
141.7564618108015964
 31
0.0
  0
LINE
  5
4AC6C
  8
0
 10
2746.2606404601078793
 20
141.8721144980534064
 30
0.0
 11
2746.2606404601078793
 21
141.7711474473483975
 31
0.0
  0
ARC
  5
4AC6D
  8
0
 10
2746.1779404601088572
 20
141.7711474473483975
 30
0.0
 40
0.0827
 50
348.2145054418471091
 51
0.0
  0
LINE
  5
4AC6E
  8
0
 10
2746.2396794916589897
 20
141.6621502665533967
 30
0.0
 11
2746.2588970720930774
 21
141.7542561189204093
 31
0.0
  0
ENDSEC
  0
EOF
