  0
SECTION
  2
HEADER
  9
$ACADVER
  1
AC1009
  9
$INSBASE
 10
6732.5716655255291698
 20
301.6674289484190012
 30
0.0
  9
$EXTMIN
 10
6723.0837831658582218
 20
301.6493739450359044
 30
-0.0000000000112498
  9
$EXTMAX
 10
6734.386875137075549
 20
307.5863371196276717
 30
0.0000000000002956
  9
$LIMMIN
 10
0.0
 20
0.0
  9
$LIMMAX
 10
11.6929133858000007
 20
8.2677165353999982
  9
$ORTHOMODE
 70
     0
  9
$REGENMODE
 70
     1
  9
$FILLMODE
 70
     1
  9
$QTEXTMODE
 70
     0
  9
$MIRRTEXT
 70
     0
  9
$DRAGMODE
 70
     2
  9
$LTSCALE
 40
0.6431102362
  9
$OSMODE
 70
  4095
  9
$ATTMODE
 70
     1
  9
$TEXTSIZE
 40
0.2
  9
$TRACEWID
 40
0.05
  9
$TEXTSTYLE
  7
STANDARD
  9
$CLAYER
  8
0
  9
$CELTYPE
  6
BYLAYER
  9
$CECOLOR
 62
   256
  9
$DIMSCALE
 40
1.0
  9
$DIMASZ
 40
0.1875
  9
$DIMEXO
 40
0.0625
  9
$DIMDLI
 40
0.4443307087
  9
$DIMRND
 40
0.0
  9
$DIMDLE
 40
0.0
  9
$DIMEXE
 40
0.125
  9
$DIMTP
 40
0.01
  9
$DIMTM
 40
0.01
  9
$DIMTXT
 40
2.0
  9
$DIMCEN
 40
0.1052362205
  9
$DIMTSZ
 40
0.0
  9
$DIMTOL
 70
     1
  9
$DIMLIM
 70
     0
  9
$DIMTIH
 70
     1
  9
$DIMTOH
 70
     1
  9
$DIMSE1
 70
     0
  9
$DIMSE2
 70
     0
  9
$DIMTAD
 70
     0
  9
$DIMZIN
 70
     0
  9
$DIMBLK
  1

  9
$DIMASO
 70
     1
  9
$DIMSHO
 70
     1
  9
$DIMPOST
  1
\X
  9
$DIMAPOST
  1

  9
$DIMALT
 70
     1
  9
$DIMALTD
 70
     2
  9
$DIMALTF
 40
25.3999999999999986
  9
$DIMLFAC
 40
1.0
  9
$DIMTOFL
 70
     0
  9
$DIMTVP
 40
0.0
  9
$DIMTIX
 70
     0
  9
$DIMSOXD
 70
     0
  9
$DIMSAH
 70
     0
  9
$DIMBLK1
  1

  9
$DIMBLK2
  1

  9
$DIMSTYLE
  2
STANDARD
  9
$DIMCLRD
 70
     0
  9
$DIMCLRE
 70
     0
  9
$DIMCLRT
 70
     0
  9
$DIMTFAC
 40
1.0
  9
$DIMGAP
 40
0.09
  9
$LUNITS
 70
     2
  9
$LUPREC
 70
     4
  9
$SKETCHINC
 40
0.1
  9
$FILLETRAD
 40
0.0
  9
$AUNITS
 70
     0
  9
$AUPREC
 70
     0
  9
$MENU
  1
.
  9
$ELEVATION
 40
0.0
  9
$PELEVATION
 40
0.0
  9
$THICKNESS
 40
0.0
  9
$LIMCHECK
 70
     0
  9
$BLIPMODE
 70
     0
  9
$CHAMFERA
 40
0.0
  9
$CHAMFERB
 40
0.0
  9
$SKPOLY
 70
     0
  9
$TDCREATE
 40
2458060.468368056230247
  9
$TDUPDATE
 40
2460307.5889930562116206
  9
$TDINDWG
 40
1.1496482639000001
  9
$TDUSRTIMER
 40
1.1496482639000001
  9
$USRTIMER
 70
     1
  9
$ANGBASE
 50
0.0
  9
$ANGDIR
 70
     0
  9
$PDMODE
 70
     0
  9
$PDSIZE
 40
0.3125
  9
$PLINEWID
 40
0.0
  9
$COORDS
 70
     1
  9
$SPLFRAME
 70
     0
  9
$SPLINETYPE
 70
     6
  9
$SPLINESEGS
 70
     8
  9
$ATTDIA
 70
     1
  9
$ATTREQ
 70
     1
  9
$HANDLING
 70
     1
  9
$HANDSEED
  5
3243D
  9
$SURFTAB1
 70
     6
  9
$SURFTAB2
 70
     6
  9
$SURFTYPE
 70
     6
  9
$SURFU
 70
     6
  9
$SURFV
 70
     6
  9
$UCSNAME
  2

  9
$UCSORG
 10
0.0
 20
0.0
 30
0.0
  9
$UCSXDIR
 10
1.0
 20
0.0
 30
0.0
  9
$UCSYDIR
 10
0.0
 20
1.0
 30
0.0
  9
$PUCSNAME
  2

  9
$PUCSORG
 10
0.0
 20
0.0
 30
0.0
  9
$PUCSXDIR
 10
1.0
 20
0.0
 30
0.0
  9
$PUCSYDIR
 10
0.0
 20
1.0
 30
0.0
  9
$USERI1
 70
     0
  9
$USERI2
 70
     0
  9
$USERI3
 70
     0
  9
$USERI4
 70
     0
  9
$USERI5
 70
     0
  9
$USERR1
 40
0.0
  9
$USERR2
 40
0.0
  9
$USERR3
 40
0.0
  9
$USERR4
 40
0.0
  9
$USERR5
 40
0.0
  9
$WORLDVIEW
 70
     1
  9
$SHADEDGE
 70
     3
  9
$SHADEDIF
 70
    70
  9
$TILEMODE
 70
     1
  9
$MAXACTVP
 70
    64
  9
$PLIMCHECK
 70
     0
  9
$PEXTMIN
 10
1.0000000000000000E+20
 20
1.0000000000000000E+20
 30
1.0000000000000000E+20
  9
$PEXTMAX
 10
-1.0000000000000000E+20
 20
-1.0000000000000000E+20
 30
-1.0000000000000000E+20
  9
$PLIMMIN
 10
0.0
 20
0.0
  9
$PLIMMAX
 10
12.0
 20
9.0
  9
$UNITMODE
 70
     0
  9
$VISRETAIN
 70
     1
  9
$PLINEGEN
 70
     0
  9
$PSLTSCALE
 70
     1
  0
ENDSEC
  0
SECTION
  2
TABLES
  0
TABLE
  2
VPORT
 70
     1
  0
VPORT
  2
*ACTIVE
 70
     0
 10
0.0
 20
0.0
 11
1.0
 21
1.0
 12
2817.3699727061539306
 22
172.0382504297926971
 13
0.0
 23
0.0
 14
1.0
 24
1.0
 15
0.0
 25
0.0
 16
0.0
 26
0.0
 36
60.4960186965801583
 17
3911.3653564453120453
 27
132.5796051025390057
 37
0.0
 40
5.9882913864759066
 41
2.7330447330447321
 42
50.0
 43
0.0
 44
0.0
 50
0.0
 51
0.0
 71
     0
 72
   100
 73
     1
 74
     1
 75
     0
 76
     0
 77
     0
 78
     0
  0
ENDTAB
  0
TABLE
  2
LTYPE
 70
     3
  0
LTYPE
  2
CONTINUOUS
 70
     0
  3
Solid line
 72
    65
 73
     0
 40
0.0
  0
LTYPE
  2
PHANTOM2
 70
     0
  3
___ _ _ ___ _ _ ___ _ _ ___ _ _
 72
    65
 73
     6
 40
1.25
 49
0.625
 49
-0.125
 49
0.125
 49
-0.125
 49
0.125
 49
-0.125
  0
ENDTAB
  0
TABLE
  2
LAYER
 70
     2
  0
LAYER
  2
0
 70
     0
 62
   255
  6
CONTINUOUS
  0
LAYER
  2
DEFPOINTS
 70
     0
 62
     7
  6
CONTINUOUS
  0
ENDTAB
  0
TABLE
  2
STYLE
 70
     1
  0
STYLE
  2
STANDARD
 70
     0
 40
0.0
 41
0.8
 50
0.0
 71
     0
 42
0.2
  3
txt
  4

  0
ENDTAB
  0
TABLE
  2
VIEW
 70
     0
  0
ENDTAB
  0
TABLE
  2
UCS
 70
     0
  0
ENDTAB
  0
TABLE
  2
APPID
 70
    11
  0
APPID
  2
ACAD
 70
     0
  0
APPID
  2
ACAD_MLEADERVER
 70
     0
  0
APPID
  2
ACAD_EXEMPT_FROM_CAD_STANDARDS
 70
     0
  0
APPID
  2
ACAD_NAV_VCDISPLAY
 70
     0
  0
APPID
  2
ACAECLAYERSTANDARD
 70
     0
  0
APPID
  2
ACCMTRANSPARENCY
 70
     0
  0
APPID
  2
ACAD_DSTYLE_DIMJAG
 70
     0
  0
APPID
  2
ACAD_DSTYLE_DIMTALN
 70
     0
  0
APPID
  2
ACDBATTR
 70
     0
  0
APPID
  2
ACADANNOTATIVE
 70
     0
  0
APPID
  2
DCO15
 70
     0
  0
ENDTAB
  0
TABLE
  2
DIMSTYLE
 70
     2
  0
DIMSTYLE
  2
STANDARD
 70
     0
  3

  4

  5

  6

  7

 40
1.0
 41
0.1875
 42
0.0625
 43
0.38
 44
0.125
 45
0.0
 46
0.0
 47
0.01
 48
0.01
140
0.15625
141
0.09
142
0.0
143
25.3999999999999986
144
1.0
145
0.0
146
1.0
147
0.09
 71
     1
 72
     0
 73
     1
 74
     1
 75
     0
 76
     0
 77
     0
 78
     4
170
     0
171
     2
172
     0
173
     0
174
     0
175
     0
176
     0
177
     0
178
     0
  0
ENDTAB
  0
ENDSEC
  0
SECTION
  2
BLOCKS
  0
BLOCK
  8
0
  2
$MODEL_SPACE
 70
     0
 10
0.0
 20
0.0
 30
0.0
  3
$MODEL_SPACE
  1

  0
ENDBLK
  5
21
  8
0
  0
BLOCK
 67
     1
  8
0
  2
$PAPER_SPACE
 70
     0
 10
0.0
 20
0.0
 30
0.0
  3
$PAPER_SPACE
  1

  0
ENDBLK
  5
1D
 67
     1
  8
0
  0
BLOCK
  8
0
  2
_FILLED
 70
     0
 10
0.0
 20
0.0
 30
0.0
  3
_FILLED
  1

  0
SOLID
  5
26C2A
  8
0
  6
BYBLOCK
 62
     0
 10
0.0
 20
0.0
 30
0.0
 11
-1.0
 21
0.1666666667
 31
0.0
 12
-1.0
 22
-0.1666666667
 32
0.0
 13
-1.0
 23
-0.1666666667
 33
0.0
  0
ENDBLK
  5
26C2B
  8
0
  6
BYBLOCK
 62
     0
  0
ENDSEC
  0
SECTION
  2
ENTITIES
  0
ATTDEF
  5
26A5B
  8
DEFPOINTS
 10
6732.5609958615614232
 20
301.665145415031418
 30
0.0
 40
0.001
  1
K-EX27113T-4
  3

  2
MODELNUMBER
 70
     0
1001
ACDBATTR
1070
     0
1070
     1
  0
ATTDEF
  5
26A5C
  8
DEFPOINTS
 10
6732.5608700519042031
 20
301.663478574652288
 30
0.0
 40
0.001
  1
OCCASION
  3

  2
TRADENAME
 70
     0
1001
ACDBATTR
1070
     0
1070
     1
  0
ATTDEF
  5
26A5D
  8
DEFPOINTS
 10
6732.5609958615614232
 20
301.6618120816980877
 30
0.0
 40
0.001
  1
BATH FAUCET
  3

  2
PRODUCT
 70
     0
1001
ACDBATTR
1070
     0
1070
     1
  0
LINE
  5
31F7C
  8
0
 10
6731.2086517970437853
 20
301.8797021586689766
 30
0.0
 11
6733.9385072517388835
 21
301.8797021586689766
 31
0.0
  0
ARC
  5
31F7D
  8
0
 10
6731.5344879681297243
 20
305.0073018689104742
 30
0.0
 40
0.0393714742892402
 50
90.0011502438352551
 51
134.9995958937132059
  0
ARC
  5
31F7E
  8
0
 10
6733.548283917288245
 20
305.0031979037888163
 30
0.0
 40
0.0434768380002448
 50
48.1415538676080601
 51
89.5404252645706151
  0
LINE
  5
31F7F
  8
0
 10
6731.5344871777251683
 20
305.0466733431917987
 30
0.0
 11
6733.5486326452801222
 21
305.0466733431917987
 31
0.0
  0
LINE
  5
31F80
  8
0
 10
6731.4280184067802111
 20
304.9565119804689743
 30
0.0
 11
6731.5066483279333625
 21
305.0351419016246268
 31
0.0
  0
ARC
  5
31F81
  8
0
 10
6731.4558572570358592
 20
304.928673130496918
 30
0.0
 40
0.0393700793568535
 50
135.0000002408305022
 51
179.9999994585130025
  0
LINE
  5
31F82
  8
0
 10
6731.4164871776793007
 20
304.928673130496918
 30
0.0
 11
6731.4164871776793007
 21
304.7362340256689777
 31
0.0
  0
LINE
  5
31F83
  8
0
 10
6731.337747120678614
 20
304.6574938180689855
 30
0.0
 11
6728.9045481897783247
 21
304.6574938180689855
 31
0.0
  0
LINE
  5
31F84
  8
0
 10
6728.8336284246797732
 20
304.5983013155690173
 30
0.0
 11
6728.8831953044791589
 21
304.6485664399689881
 31
0.0
  0
ARC
  5
31F85
  8
0
 10
6728.8549983829134362
 20
304.5772456497473968
 30
0.0
 40
0.0300002696337239
 50
135.4244439473067132
 51
179.9998760101242965
  0
LINE
  5
31F86
  8
0
 10
6728.8249981132794346
 20
304.5772457146690044
 30
0.0
 11
6728.8249981144790581
 21
304.4043283342689961
 31
0.0
  0
LINE
  5
31F87
  8
0
 10
6728.8337849109793751
 20
304.3831151308978065
 30
0.0
 11
6728.8832113178777945
 21
304.3336887238978079
 31
0.0
  0
ARC
  5
31F88
  8
0
 10
6728.9044245212789974
 20
304.3549019273689851
 30
0.0
 40
0.0299999999999993
 50
225.0000000961557873
 51
270.0
  0
ARC
  5
31F89
  8
0
 10
6728.854998114477894
 20
304.4043283342689961
 30
0.0
 40
0.0299999999999798
 50
179.999999999980389
 51
224.9999998260684038
  0
ARC
  5
31F8A
  8
0
 10
6728.9047809975518248
 20
304.6269369166104752
 30
0.0
 40
0.0305577883067592
 50
90.4365182388144717
 51
134.9418887684188917
  0
ARC
  5
31F8B
  8
0
 10
6728.849094589840206
 20
304.4711266498158011
 30
0.0
 40
0.0240996145277424
 50
129.4397582748381978
 51
179.0752070719833
  0
ARC
  5
31F8C
  8
0
 10
6728.9043391487175541
 20
304.4678830181792932
 30
0.0
 40
0.0515820330548494
 50
88.5950259914472156
 51
114.1820031790158936
  0
LINE
  5
31F8D
  8
0
 10
6728.8337849103800181
 20
304.4897386119690168
 30
0.0
 11
6728.8832092645507146
 21
304.5149386674593188
 31
0.0
  0
LINE
  5
31F8E
  8
0
 10
6728.9056039872775727
 20
304.5194494318690204
 30
0.0
 11
6731.381936941422282
 21
304.5194495457690209
 31
0.0
  0
LINE
  5
31F8F
  8
0
 10
6731.337746206594602
 20
304.3249019273690124
 30
0.0
 11
6728.9044245212789974
 21
304.3249019273690124
 31
0.0
  0
ARC
  5
31F90
  8
0
 10
6731.3377474519656971
 20
304.2461622016652996
 30
0.0
 40
0.078739725713588
 50
359.9997662782039924
 51
90.0009062081881268
  0
ARC
  5
31F91
  8
0
 10
6731.3762904190625704
 20
304.603810163005619
 30
0.0
 40
0.084549375842078
 50
273.8292757211851267
 51
347.3896983431288277
  0
ARC
  5
31F92
  8
0
 10
6731.3375290502872303
 20
304.7364519450438252
 30
0.0
 40
0.0789584281129124
 50
270.1582418655519859
 51
359.8418677195192004
  0
ARC
  5
31F93
  8
0
 10
6731.124201355477453
 20
304.4976368849813184
 30
0.0
 40
0.3459049995663949
 50
357.7668140254842228
 51
14.6894559896477208
  0
ARC
  5
31F94
  8
0
 10
6732.4644775828974161
 20
304.9487550904852924
 30
0.0
 40
1.069321790864812
 50
191.4635088693862883
 51
199.8674293731195917
  0
ARC
  5
31F95
  8
0
 10
6731.2797162747965558
 20
304.3603836023827967
 30
0.0
 40
0.1831030567108154
 50
336.2536296547999086
 51
357.7109166630240225
  0
ARC
  5
31F96
  8
0
 10
6729.4089743097383689
 20
304.5311462890213079
 30
0.0
 40
2.0614049342525771
 50
355.0442824028277755
 51
358.6938736805140024
  0
ARC
  5
31F97
  8
0
 10
7076.7348227512211452
 20
41.332372017658308
 30
0.0
 40
434.0143013580399725
 50
142.7088539138268004
 51
142.7155720798677976
  0
ARC
  5
31F98
  8
0
 10
6731.4558572564683345
 20
304.052673130861308
 30
0.0
 40
0.0393700786864826
 50
183.1619371968191956
 51
225.0000000038205883
  0
ARC
  5
31F99
  8
0
 10
6731.486333367251973
 20
303.9943581698441903
 30
0.0
 40
0.019685039012944
 50
224.9999995933351045
 51
270.0000009524181905
  0
LINE
  5
31F9A
  8
0
 10
6731.416547113713932
 20
304.050501547898989
 30
0.0
 11
6731.4164871776320069
 21
304.2461618804069872
 31
0.0
  0
LINE
  5
31F9B
  8
0
 10
6731.4280184068547896
 20
304.0248342812444093
 30
0.0
 11
6731.4724139425788962
 21
303.9804387453689856
 31
0.0
  0
LINE
  5
31F9C
  8
0
 10
6731.4863333675793911
 20
303.9746731308312064
 30
0.0
 11
6732.4585228427804395
 21
303.9746731308312064
 31
0.0
  0
LINE
  5
31F9D
  8
0
 10
6732.6311755516799167
 20
304.0348324270689773
 30
0.0
 11
6733.3069074449804248
 21
304.3499313840690093
 31
0.0
  0
ARC
  5
31F9E
  8
0
 10
6732.4585294644975875
 20
304.1714936555259214
 30
0.0
 40
0.1968205248060041
 50
269.9980723731648027
 51
295.0019276767930023
  0
LINE
  5
31F9F
  8
0
 10
6732.5417154139877312
 20
303.9931164798780969
 30
0.0
 11
6732.6311755516799167
 21
304.0348324270689773
 31
0.0
  0
ARC
  5
31FA0
  8
0
 10
6733.3900982697568907
 20
304.1715235202864847
 30
0.0
 40
0.1968503979843204
 50
89.9997531372177946
 51
114.9994385500124991
  0
ARC
  5
31FA1
  8
0
 10
6733.6507137659791624
 20
304.388058957569001
 30
0.0
 40
0.0196850394000059
 50
270.0
 51
359.9999999999902229
  0
LINE
  5
31FA2
  8
0
 10
6733.6507137659791624
 20
304.3683739181690271
 30
0.0
 11
6733.3900991178988988
 21
304.3683739182690147
 31
0.0
  0
LINE
  5
31FA3
  8
0
 10
6733.5323846600340403
 20
303.888058957569001
 30
0.0
 11
6731.5540534217789173
 21
303.888058957569001
 31
0.0
  0
ARC
  5
31FA4
  8
0
 10
6731.554053421826211
 20
303.8486888786331974
 30
0.0
 40
0.0393700789357834
 50
90.0000000682643844
 51
134.9999999085422075
  0
ARC
  5
31FA5
  8
0
 10
6731.4591158802140853
 20
303.753751337022095
 30
0.0
 40
0.0393700789357891
 50
135.0000002972900859
 51
179.99999993174211
  0
LINE
  5
31FA6
  8
0
 10
6731.4312770303304205
 20
303.7815901867189723
 30
0.0
 11
6731.5262145720344051
 21
303.8765277284244917
 31
0.0
  0
LINE
  5
31FA7
  8
0
 10
6731.4197458012786228
 20
303.753751337022095
 30
0.0
 11
6731.4197458011785784
 21
303.138058957569001
 31
0.0
  0
LINE
  5
31FA8
  8
0
 10
6731.4197458012786228
 20
303.7537513366499979
 30
0.0
 11
6733.6700271335639627
 21
303.7537513366499979
 31
0.0
  0
LINE
  5
31FA9
  8
0
 10
6731.5621209420223749
 20
303.7815901893584964
 30
0.0
 11
6731.6413860493375978
 21
303.8765277284690001
 31
0.0
  0
ARC
  5
31FAA
  8
0
 10
6731.667605206744156
 20
303.8524916357716847
 30
0.0
 40
0.0355693402699023
 50
90.6103981601666106
 51
137.4873382907587995
  0
ARC
  5
31FAB
  8
0
 10
6731.6006349700192004
 20
303.7531899360142802
 30
0.0
 40
0.0478529491510151
 50
143.5949279316876073
 51
179.82911276874961
  0
LINE
  5
31FAC
  8
0
 10
6731.5527812571781396
 20
303.7533327646689827
 30
0.0
 11
6731.5527813396793135
 21
303.1380590988690074
 31
0.0
  0
LINE
  5
31FAD
  8
0
 10
6732.8382160255778217
 20
303.8765277284690001
 30
0.0
 11
6732.8684933777785773
 21
303.7815901868689821
 31
0.0
  0
ARC
  5
31FAE
  8
0
 10
6732.8206321903589924
 20
303.8692103051395748
 30
0.0
 40
0.0190456279808443
 50
22.5943874900587502
 51
81.7525221816310648
  0
ARC
  5
31FAF
  8
0
 10
6732.7992979522259702
 20
303.7597946715330863
 30
0.0
 40
0.072547276329373
 50
354.8896915665433198
 51
17.4819806690759698
  0
LINE
  5
31FB0
  8
0
 10
6732.8715559200791176
 20
303.7533326304690036
 30
0.0
 11
6732.8715568012803487
 21
303.1380589595689798
 31
0.0
  0
LINE
  5
31FB1
  8
0
 10
6731.2405987496777016
 20
301.8492685169690048
 30
0.0
 11
6731.3086213874366877
 21
301.6890172247025248
 31
0.0
  0
LINE
  5
31FB2
  8
0
 10
6731.2686581167790791
 20
301.6842195924689918
 30
0.0
 11
6731.1997360875793674
 21
301.8465897775690223
 31
0.0
  0
ARC
  5
31FB3
  8
0
 10
6731.2732154525001533
 20
301.8631124698495114
 30
0.0
 40
0.0354330965940556
 50
153.3722911571180134
 51
202.9984876348243006
  0
ARC
  5
31FB4
  8
0
 10
6731.225096011318783
 20
301.8573564182875089
 30
0.0
 40
0.0275507946243421
 50
133.044559501283203
 51
203.0038128473819086
  0
ARC
  5
31FB5
  8
0
 10
6729.8292277134660253
 20
302.591977151736728
 30
0.0
 40
1.5820788025811621
 50
333.2137913372565095
 51
345.9610584235028909
  0
ARC
  5
31FB6
  8
0
 10
6729.2713765235412211
 20
302.6578769490380978
 30
0.0
 40
2.1404445948167679
 50
347.87246820038132
 51
358.5089766678298133
  0
ARC
  5
31FB7
  8
0
 10
6719.3331186850264203
 20
303.0651367025483864
 30
0.0
 40
12.0868470950950595
 50
357.8048992005049058
 51
0.3456784684832737
  0
ARC
  5
31FB8
  8
0
 10
6722.9050126123684095
 20
303.085955537140876
 30
0.0
 40
8.6479256481912383
 50
356.4795021120066281
 51
0.3452069643230466
  0
ARC
  5
31FB9
  8
0
 10
6729.8217828802053191
 20
302.6224097460763005
 30
0.0
 40
1.716163223429914
 50
341.1634409078466774
 51
357.7463505174878833
  0
ARC
  5
31FBA
  8
0
 10
6731.3974694985627139
 20
301.8621199089590164
 30
0.0
 40
0.0361514660196712
 50
150.9848308484392021
 51
202.9571603886101059
  0
ARC
  5
31FBB
  8
0
 10
6729.8502535772813644
 20
302.6351472938249003
 30
0.0
 40
1.6934631882521309
 50
333.5048063222503174
 51
340.4445383186376262
  0
ARC
  5
31FBC
  8
0
 10
6731.453559222277363
 20
301.7013721662124794
 30
0.0
 40
0.0339453287830835
 50
201.3439551923239037
 51
269.35962832798009
  0
ARC
  5
31FBD
  8
0
 10
6731.341237701179125
 20
301.702862028468985
 30
0.0
 40
0.0354330709000077
 50
202.9999999777436983
 51
270.0
  0
ARC
  5
31FBE
  8
0
 10
6731.2940287316623653
 20
301.6949917485064248
 30
0.0
 40
0.0275627909542658
 50
203.0056810438316006
 51
269.9979936407896162
  0
LINE
  5
31FBF
  8
0
 10
6731.294027766479303
 20
301.6674289575689727
 30
0.0
 11
6733.8493032845781272
 21
301.6674289575689727
 31
0.0
  0
LINE
  5
31FC0
  8
0
 10
6731.4219421261777825
 20
301.6890172246689872
 30
0.0
 11
6731.3641813464064398
 21
301.8480192911948734
 31
0.0
  0
ARC
  5
31FC1
  8
0
 10
6729.9085098783716603
 20
303.2657209228008242
 30
0.0
 40
1.900372864259249
 50
313.0713473933030855
 51
315.8157673315329248
  0
ARC
  5
31FC2
  8
0
 10
6733.5322247697240527
 20
303.8487845349484928
 30
0.0
 40
0.0392747480843909
 50
45.771883263927883
 51
89.7667441360368201
  0
ARC
  5
31FC3
  8
0
 10
6733.6305730321528245
 20
303.7533063212657112
 30
0.0
 40
0.0394566110680119
 50
0.6462300219237531
 51
45.7876600864260723
  0
LINE
  5
31FC4
  8
0
 10
6733.6580868959781583
 20
303.7815872592689743
 30
0.0
 11
6733.559619567478876
 21
303.8769275783690205
 31
0.0
  0
LINE
  5
31FC5
  8
0
 10
6733.6700271335639627
 20
303.7537513366499979
 30
0.0
 11
6733.6700296352291844
 21
303.1378496109924754
 31
0.0
  0
LINE
  5
31FC6
  8
0
 10
6733.902315989278577
 20
301.8473364442689899
 30
0.0
 11
6733.8347096636207425
 21
301.6890172247025248
 31
0.0
  0
LINE
  5
31FC7
  8
0
 10
6733.875228664777751
 20
301.6836912679689817
 30
0.0
 11
6733.9478833718803799
 21
301.8455869370690152
 31
0.0
  0
ARC
  5
31FC8
  8
0
 10
6733.8698320617486388
 20
301.8618118790699896
 30
0.0
 40
0.0355632360790384
 50
335.9813691710758121
 51
30.2023534271686813
  0
ARC
  5
31FC9
  8
0
 10
6733.9219743714547803
 20
301.8568122514063816
 30
0.0
 40
0.0282362176101791
 50
336.5748804470109121
 51
54.1602404736998722
  0
ARC
  5
31FCA
  8
0
 10
6735.0527101853067506
 20
302.6114263514833169
 30
0.0
 40
1.363757658004936
 50
196.9035922799720026
 51
208.9408942041839907
  0
ARC
  5
31FCB
  8
0
 10
6735.4301773445040453
 20
302.6812824589974866
 30
0.0
 40
1.745755559828329
 50
182.5873890750725081
 51
195.4949722980124989
  0
ARC
  5
31FCC
  8
0
 10
6741.4783700896132359
 20
303.105780876337576
 30
0.0
 40
7.808406307007961
 50
179.764688434091795
 51
183.695682107462801
  0
ARC
  5
31FCD
  8
0
 10
6733.8020933498792147
 20
301.702862028468985
 30
0.0
 40
0.0354330709000077
 50
270.0
 51
337.000000022256188
  0
ARC
  5
31FCE
  8
0
 10
6733.849868246735241
 20
301.6953245744401215
 30
0.0
 40
0.0279013372951237
 50
268.8397631584427927
 51
335.3581752699765843
  0
ARC
  5
31FCF
  8
0
 10
6735.9814858953077419
 20
304.2144798328116053
 30
0.0
 40
3.1024101156616788
 50
226.8384817609108097
 51
228.8134052130363045
  0
ARC
  5
31FD0
  8
0
 10
6736.5533912101673195
 20
303.4538829498565065
 30
0.0
 40
3.0847232533492548
 50
209.1463210026545028
 51
210.6848192842896026
  0
ARC
  5
31FD1
  8
0
 10
6750.1943135439641992
 20
303.0606672499063166
 30
0.0
 40
17.3229296206785612
 50
179.7440252208562868
 51
182.2066218437398106
  0
ARC
  5
31FD2
  8
0
 10
6736.5085069789820409
 20
302.5547313436101149
 30
0.0
 40
3.6278542951029089
 50
182.5444097012411078
 51
190.7234310777635926
  0
ARC
  5
31FD3
  8
0
 10
6732.87651197838386
 20
301.8621043579880734
 30
0.0
 40
0.0697511093055964
 50
348.3500007335068744
 51
14.6133130587506308
  0
ARC
  5
31FD4
  8
0
 10
6732.8950105280855496
 20
301.6945804999800202
 30
0.0
 40
0.028304413945447
 50
286.4091561385208138
 51
348.6654243394215769
  0
LINE
  5
31FD5
  8
0
 10
6732.9227628993794497
 20
301.6890176107689854
 30
0.0
 11
6732.9448261733787149
 21
301.8480193300690075
 31
0.0
  0
ARC
  5
31FD6
  8
0
 10
6733.0009698571811896
 20
303.888058957569001
 30
0.0
 40
1.355105545302091
 50
176.3353320719236876
 51
180.0
  0
ARC
  5
31FD7
  8
0
 10
6732.0033571916792425
 20
303.888058957569001
 30
0.0
 40
1.355105545300006
 50
0.0
 51
19.3968958786963093
  0
ARC
  5
31FD8
  8
0
 10
6733.6782180800337301
 20
304.6740327144439107
 30
0.0
 40
0.0187266525397331
 50
122.5907965452229007
 51
141.4150351709535016
  0
ARC
  5
31FD9
  8
0
 10
6733.7052656507612483
 20
304.6524718132649241
 30
0.0
 40
0.0533162963965803
 50
141.4312246770298884
 51
155.8876557654498072
  0
ARC
  5
31FDA
  8
0
 10
6733.8105211229967608
 20
304.6062845816570075
 30
0.0
 40
0.1682586727569252
 50
156.1745452120273114
 51
168.1145796472818859
  0
ARC
  5
31FDB
  8
0
 10
6733.9865294893852479
 20
304.5683035431375174
 30
0.0
 40
0.3483172692570473
 50
167.9637486008086
 51
178.7749041281817881
  0
ARC
  5
31FDC
  8
0
 10
6734.0271459275618327
 20
304.565167630555095
 30
0.0
 40
0.3889980746614837
 50
178.4410233478832879
 51
187.8767200666065946
  0
ARC
  5
31FDD
  8
0
 10
6733.8338961276322152
 20
304.5333375825755979
 30
0.0
 40
0.1932753781194334
 50
186.3805678619416994
 51
203.5142625226852999
  0
ARC
  5
31FDE
  8
0
 10
6733.6843101726308305
 20
304.4631211015073973
 30
0.0
 40
0.0276992558900559
 50
209.7639761248358923
 51
234.2610845880309114
  0
ARC
  5
31FDF
  8
0
 10
6733.7007016727975497
 20
304.4749470471027735
 30
0.0
 40
0.047846459902451
 50
203.0349459012699924
 51
212.3138437023474978
  0
LINE
  5
31FE0
  8
0
 10
6733.6681312409809834
 20
304.4406379756185856
 30
0.0
 11
6733.6703988053777721
 21
304.439240059968995
 31
0.0
  0
LINE
  5
31FE1
  8
0
 10
6733.6703988053777721
 20
304.439240059968995
 30
0.0
 11
6733.6703988053777721
 21
304.388058957569001
 31
0.0
  0
LINE
  5
31FE2
  8
0
 10
6733.6681312410328246
 20
304.6898106482224193
 30
0.0
 11
6733.6703988053777721
 21
304.6912085638689973
 31
0.0
  0
LINE
  5
31FE3
  8
0
 10
6733.6703988053777721
 20
304.6912085638689973
 30
0.0
 11
6733.6703987894788952
 21
304.9285872125690275
 31
0.0
  0
LINE
  5
31FE4
  8
0
 10
6733.6861468368797432
 20
304.5849094137249722
 30
0.0
 11
6733.6861468368797432
 21
304.5455392101130201
 31
0.0
  0
ARC
  5
31FE5
  8
0
 10
6733.5384821875759371
 20
304.5860664308435162
 30
0.0
 40
0.1474076473322937
 50
21.14525054851579
 51
36.744622190182767
  0
ARC
  5
31FE6
  8
0
 10
6733.5360976242800461
 20
304.5849093512690047
 30
0.0
 40
0.1500492126001505
 50
0.0000238486111881
 51
21.2288674451624111
  0
ARC
  5
31FE7
  8
0
 10
6733.5360976242800461
 20
304.5455392725691013
 30
0.0
 40
0.1500492126000545
 50
336.7838258062063801
 51
359.9999761513954013
  0
ARC
  5
31FE8
  8
0
 10
6733.5360976242800461
 20
304.5455392725691013
 30
0.0
 40
0.1500492126001688
 50
323.470783170012794
 51
336.7838258061975125
  0
ARC
  5
31FE9
  8
0
 10
6733.6310368540343916
 20
304.9285888266301754
 30
0.0
 40
0.0393619354776284
 50
359.9976505501182942
 51
45.8326469675261166
  0
LINE
  5
31FEA
  8
0
 10
6733.5772956881037317
 20
305.0355792656595213
 30
0.0
 11
6733.6584625382783997
 21
304.9568234473697999
 31
0.0
  0
LINE
  5
31FEB
  8
0
 10
6731.5585256934409699
 20
304.9565119804689743
 30
0.0
 11
6731.6233416205277535
 21
305.035142948522207
 31
0.0
  0
LINE
  5
31FEC
  8
0
 10
6731.5478750281799876
 20
304.9286734090690061
 30
0.0
 11
6731.5478575094539337
 21
304.0526732951192912
 31
0.0
  0
LINE
  5
31FED
  8
0
 10
6731.5584805235803287
 20
304.0248342811689781
 30
0.0
 11
6731.5954158906788507
 21
303.9804387453689856
 31
0.0
  0
LINE
  5
31FEE
  8
0
 10
6732.8495702071786582
 20
305.0351419017690091
 30
0.0
 11
6732.8743533231790934
 21
304.9565125019689731
 31
0.0
  0
LINE
  5
31FEF
  8
0
 10
6732.8802670308778033
 20
304.928673130869015
 30
0.0
 11
6732.8802670299401143
 21
304.1678664180205942
 31
0.0
  0
ARC
  5
31FF0
  8
0
 10
6732.8500097709184047
 20
304.1575958887252114
 30
0.0
 40
0.0319528636513172
 50
1.44514069633327
 51
18.7492764232168092
  0
ARC
  5
31FF1
  8
0
 10
6732.870000431606968
 20
304.1579445183585904
 30
0.0
 40
0.0119607817122931
 50
330.7081075355540065
 51
2.1907318325139231
  0
ARC
  5
31FF2
  8
0
 10
6732.8755712007287002
 20
304.1550920999168284
 30
0.0
 40
0.0057116821982813
 50
297.5074516365691011
 51
328.3215132267886247
  0
ARC
  5
31FF3
  8
0
 10
6732.8193367422745723
 20
304.9302779567814241
 30
0.0
 40
0.0609514194705348
 50
358.4912512335926067
 51
25.4940457400224609
  0
ARC
  5
31FF4
  8
0
 10
6732.8321260292641455
 20
305.0279854087410172
 30
0.0
 40
0.0188551301622598
 50
22.3062035008588992
 51
82.3641590438870566
  0
ARC
  5
31FF5
  8
0
 10
6731.5889702881158883
 20
304.9289075987667275
 30
0.0
 40
0.0410959272206646
 50
137.8011268372233928
 51
180.3265081192718071
  0
ARC
  5
31FF6
  8
0
 10
6731.588931347475409
 20
304.0524002394088825
 30
0.0
 40
0.0410747456433244
 50
179.6191076836358889
 51
222.153330591037502
  0
ARC
  5
31FF7
  8
0
 10
6731.6084632126267024
 20
303.9923173775591181
 30
0.0
 40
0.017644673778227
 50
222.3155696551241078
 51
269.6013512310784108
  0
LINE
  5
31FF8
  8
0
 10
6731.416547113713932
 20
304.0505015478689756
 30
0.0
 11
6732.6647780896419135
 21
304.0505015478689756
 31
0.0
  0
LINE
  5
31FF9
  8
0
 10
6731.4280184068302333
 20
304.9565119804689743
 30
0.0
 11
6733.6584625382783997
 21
304.9568234473697999
 31
0.0
  0
LINE
  5
31FFA
  8
0
 10
6728.8831953044791589
 20
304.6485664399689881
 30
0.0
 11
6728.8832113178777945
 21
304.3336887238978079
 31
0.0
  0
ARC
  5
31FFB
  8
0
 10
6731.6494555383269471
 20
305.0113382665978179
 30
0.0
 40
0.0353355286408173
 50
90.3537853913845765
 51
137.648616165293106
  0
ARC
  5
31FFC
  8
0
 10
6725.3009455790015636
 20
305.8814289484189999
 30
0.0
 40
1.6877130982000039
 50
90.0
 51
162.0000000000065086
  0
ARC
  5
31FFD
  8
0
 10
6723.5821825627363069
 20
305.9587190574965234
 30
0.0
 40
0.0283730559101792
 50
180.5004289009025911
 51
249.6714110321148041
  0
ARC
  5
31FFE
  8
0
 10
6724.7103341683059625
 20
305.5913291242707146
 30
0.0
 40
0.0275590550551765
 50
251.9999999614063029
 51
342.0000000991719844
  0
LINE
  5
31FFF
  8
0
 10
6723.5723256613027843
 20
305.9321131973189836
 30
0.0
 11
6724.7018179519027399
 21
305.5651189053190251
 31
0.0
  0
LINE
  5
32000
  8
0
 10
6723.695835039299709
 20
306.4029609773199923
 30
0.0
 11
6723.5538105890645966
 21
305.9584712466236738
 31
0.0
  0
ARC
  5
32001
  8
0
 10
6724.0543620643020404
 20
305.8419947336190035
 30
0.0
 40
0.1968503936999831
 50
180.7420708300053889
 51
203.8596654665593917
  0
ARC
  5
32002
  8
0
 10
6724.3109295922040474
 20
305.7586308909429249
 30
0.0
 40
0.1968503949126673
 50
300.1403346498991027
 51
323.2579291156861814
  0
LINE
  5
32003
  8
0
 10
6723.8743347146273663
 20
305.7623691669438131
 30
0.0
 11
6724.4097715602147218
 21
305.5883947510729968
 31
0.0
  0
LINE
  5
32004
  8
0
 10
6724.4097720446407038
 20
305.588395032339406
 30
0.0
 11
6724.4097715602147218
 21
305.5883947510729968
 31
0.0
  0
ARC
  5
32005
  8
0
 10
6724.0071542694313393
 20
305.8185582593982872
 30
0.0
 40
0.0381869086022501
 50
160.219050310068809
 51
193.8145251487819962
  0
ARC
  5
32006
  8
0
 10
6723.9820711350575948
 20
305.8118163917499146
 30
0.0
 40
0.012232225212305
 50
191.2022464547378036
 51
248.4880723027538068
  0
LINE
  5
32007
  8
0
 10
6723.9712206424028409
 20
305.8314816666190268
 30
0.0
 11
6724.112877212701278
 21
306.2674557610492911
 31
0.0
  0
LINE
  5
32008
  8
0
 10
6725.3009455790015636
 20
307.1306379553190027
 30
0.0
 11
6731.4630295404031131
 21
307.1306379553190027
 31
0.0
  0
LINE
  5
32009
  8
0
 10
6731.4630295404031131
 20
307.5691420466189925
 30
0.0
 11
6725.3009455790015636
 21
307.5691420466189925
 31
0.0
  0
ARC
  5
3200A
  8
0
 10
6725.3009455790015636
 20
305.8814289484189999
 30
0.0
 40
1.2492090069000019
 50
89.9999999998957776
 51
162.0000000000065086
  0
ARC
  5
3200B
  8
0
 10
6725.3009455790070206
 20
305.8814289484017763
 30
0.0
 40
0.4445000000172131
 50
90.0000000007295284
 51
161.9999999872725027
  0
LINE
  5
3200C
  8
0
 10
6724.8782009574897529
 20
306.0187870023764845
 30
0.0
 11
6724.7365443872404285
 21
305.5828129079483801
 31
0.0
  0
LINE
  5
3200D
  8
0
 10
6725.3009455790070206
 20
306.3259289484190049
 30
0.0
 11
6731.4630295404031131
 21
306.3259289484190049
 31
0.0
  0
ARC
  5
3200E
  8
0
 10
6731.4630295404031131
 20
305.8814289484189999
 30
0.0
 40
1.687713098200001
 50
0.0
 51
90.0
  0
ARC
  5
3200F
  8
0
 10
6731.4630295403321725
 20
305.8814289482482991
 30
0.0
 40
1.24920900707071
 50
0.0000000078295587
 51
89.9999999967691622
  0
ARC
  5
32010
  8
0
 10
6731.4630295404031131
 20
305.8814289484189999
 30
0.0
 40
0.444500000000005
 50
0.0
 51
90.0
  0
LINE
  5
32011
  8
0
 10
6732.7122385474031034
 20
305.8814289482482991
 30
0.0
 11
6732.7122385474031034
 21
305.0466733431917987
 31
0.0
  0
LINE
  5
32012
  8
0
 10
6733.150742638603333
 20
305.8814289484189999
 30
0.0
 11
6733.1507426387015585
 21
305.0466733431917987
 31
0.0
  0
LINE
  5
32013
  8
0
 10
6731.9075295404036297
 20
305.8814289484189999
 30
0.0
 11
6731.9075295404036297
 21
305.0466733431917987
 31
0.0
  0
ARC
  5
32014
  8
0
 10
6731.4630295404031131
 20
305.8814289484189999
 30
0.0
 40
0.5211365678999976
 50
0.0
 51
90.0
  0
LINE
  5
32015
  8
0
 10
6731.9841670835021432
 20
305.8814289484189999
 30
0.0
 11
6731.9841670835021432
 21
305.0466733431917987
 31
0.0
  0
LINE
  5
32016
  8
0
 10
6731.4630295404031131
 20
306.402565516019024
 30
0.0
 11
6725.3009455790015636
 21
306.4025655163189867
 31
0.0
  0
ARC
  5
32017
  8
0
 10
6725.3009455790015636
 20
305.8814289484189999
 30
0.0
 40
0.5211365678999967
 50
90.0
 51
162.0000000000962928
  0
ARC
  5
32018
  8
0
 10
6724.6333586753453346
 20
305.6139992618618066
 30
0.0
 40
0.0312154703538389
 50
287.7523933709239827
 51
346.0895606724536719
  0
LINE
  5
32019
  8
0
 10
6724.6636586800022997
 20
305.6064949098189913
 30
0.0
 11
6724.8053152501806835
 21
306.0424690041647864
 31
0.0
  0
ENDSEC
  0
EOF
