  0
SECTION
  2
HEADER
  9
$ACADVER
  1
AC1009
  9
$INSBASE
 10
2721.3920948698860229
 20
137.8572582517064973
 30
0.0
  9
$EXTMIN
 10
2713.5958033286610771
 20
128.9014554211883876
 30
-0.0000000349181948
  9
$EXTMAX
 10
2741.8349682748871601
 20
139.5823666032694064
 30
0.0000000814935746
  9
$LIMMIN
 10
0.0
 20
0.0
  9
$LIMMAX
 10
11.6929133858000007
 20
8.2677165353999982
  9
$ORTHOMODE
 70
     0
  9
$REGENMODE
 70
     1
  9
$FILLMODE
 70
     1
  9
$QTEXTMODE
 70
     0
  9
$MIRRTEXT
 70
     0
  9
$DRAGMODE
 70
     2
  9
$LTSCALE
 40
0.6431102362
  9
$OSMODE
 70
  4095
  9
$ATTMODE
 70
     1
  9
$TEXTSIZE
 40
0.2
  9
$TRACEWID
 40
0.05
  9
$TEXTSTYLE
  7
STANDARD
  9
$CLAYER
  8
0
  9
$CELTYPE
  6
BYLAYER
  9
$CECOLOR
 62
   256
  9
$DIMSCALE
 40
1.0
  9
$DIMASZ
 40
0.1875
  9
$DIMEXO
 40
0.0625
  9
$DIMDLI
 40
0.4443307087
  9
$DIMRND
 40
0.0
  9
$DIMDLE
 40
0.0
  9
$DIMEXE
 40
0.125
  9
$DIMTP
 40
0.01
  9
$DIMTM
 40
0.01
  9
$DIMTXT
 40
2.0
  9
$DIMCEN
 40
0.1052362205
  9
$DIMTSZ
 40
0.0
  9
$DIMTOL
 70
     1
  9
$DIMLIM
 70
     0
  9
$DIMTIH
 70
     1
  9
$DIMTOH
 70
     1
  9
$DIMSE1
 70
     0
  9
$DIMSE2
 70
     0
  9
$DIMTAD
 70
     0
  9
$DIMZIN
 70
     0
  9
$DIMBLK
  1

  9
$DIMASO
 70
     1
  9
$DIMSHO
 70
     1
  9
$DIMPOST
  1
\X
  9
$DIMAPOST
  1

  9
$DIMALT
 70
     1
  9
$DIMALTD
 70
     2
  9
$DIMALTF
 40
25.3999999999999986
  9
$DIMLFAC
 40
1.0
  9
$DIMTOFL
 70
     0
  9
$DIMTVP
 40
0.0
  9
$DIMTIX
 70
     0
  9
$DIMSOXD
 70
     0
  9
$DIMSAH
 70
     0
  9
$DIMBLK1
  1

  9
$DIMBLK2
  1

  9
$DIMSTYLE
  2
STANDARD
  9
$DIMCLRD
 70
     0
  9
$DIMCLRE
 70
     0
  9
$DIMCLRT
 70
     0
  9
$DIMTFAC
 40
1.0
  9
$DIMGAP
 40
0.09
  9
$LUNITS
 70
     2
  9
$LUPREC
 70
     4
  9
$SKETCHINC
 40
0.1
  9
$FILLETRAD
 40
0.0
  9
$AUNITS
 70
     0
  9
$AUPREC
 70
     0
  9
$MENU
  1
.
  9
$ELEVATION
 40
0.0
  9
$PELEVATION
 40
0.0
  9
$THICKNESS
 40
0.0
  9
$LIMCHECK
 70
     0
  9
$BLIPMODE
 70
     0
  9
$CHAMFERA
 40
0.0
  9
$CHAMFERB
 40
0.0
  9
$SKPOLY
 70
     0
  9
$TDCREATE
 40
2458060.468368056230247
  9
$TDUPDATE
 40
2460277.7359259258955717
  9
$TDINDWG
 40
0.7064422454
  9
$TDUSRTIMER
 40
0.7064422454
  9
$USRTIMER
 70
     1
  9
$ANGBASE
 50
0.0
  9
$ANGDIR
 70
     0
  9
$PDMODE
 70
     0
  9
$PDSIZE
 40
0.3125
  9
$PLINEWID
 40
0.0
  9
$COORDS
 70
     1
  9
$SPLFRAME
 70
     0
  9
$SPLINETYPE
 70
     6
  9
$SPLINESEGS
 70
     8
  9
$ATTDIA
 70
     1
  9
$ATTREQ
 70
     1
  9
$HANDLING
 70
     1
  9
$HANDSEED
  5
4977D
  9
$SURFTAB1
 70
     6
  9
$SURFTAB2
 70
     6
  9
$SURFTYPE
 70
     6
  9
$SURFU
 70
     6
  9
$SURFV
 70
     6
  9
$UCSNAME
  2

  9
$UCSORG
 10
0.0
 20
0.0
 30
0.0
  9
$UCSXDIR
 10
1.0
 20
0.0
 30
0.0
  9
$UCSYDIR
 10
0.0
 20
1.0
 30
0.0
  9
$PUCSNAME
  2

  9
$PUCSORG
 10
0.0
 20
0.0
 30
0.0
  9
$PUCSXDIR
 10
1.0
 20
0.0
 30
0.0
  9
$PUCSYDIR
 10
0.0
 20
1.0
 30
0.0
  9
$USERI1
 70
     0
  9
$USERI2
 70
     0
  9
$USERI3
 70
     0
  9
$USERI4
 70
     0
  9
$USERI5
 70
     0
  9
$USERR1
 40
0.0
  9
$USERR2
 40
0.0
  9
$USERR3
 40
0.0
  9
$USERR4
 40
0.0
  9
$USERR5
 40
0.0
  9
$WORLDVIEW
 70
     1
  9
$SHADEDGE
 70
     3
  9
$SHADEDIF
 70
    70
  9
$TILEMODE
 70
     1
  9
$MAXACTVP
 70
    64
  9
$PLIMCHECK
 70
     0
  9
$PEXTMIN
 10
1.0000000000000000E+20
 20
1.0000000000000000E+20
 30
1.0000000000000000E+20
  9
$PEXTMAX
 10
-1.0000000000000000E+20
 20
-1.0000000000000000E+20
 30
-1.0000000000000000E+20
  9
$PLIMMIN
 10
0.0
 20
0.0
  9
$PLIMMAX
 10
12.0
 20
9.0
  9
$UNITMODE
 70
     0
  9
$VISRETAIN
 70
     1
  9
$PLINEGEN
 70
     0
  9
$PSLTSCALE
 70
     1
  0
ENDSEC
  0
SECTION
  2
TABLES
  0
TABLE
  2
VPORT
 70
     1
  0
VPORT
  2
*ACTIVE
 70
     0
 10
0.0
 20
0.0
 11
1.0
 21
1.0
 12
-575.9777294326013362
 22
-61.0196005636588197
 13
0.0
 23
0.0
 14
1.0
 24
1.0
 15
0.0
 25
0.0
 16
0.0
 26
0.0
 36
96.5995694866707311
 17
3303.693115234375
 27
195.2615115758877096
 37
0.0
 40
11.5744838178324496
 41
2.4474358974358972
 42
50.0
 43
0.0
 44
0.0
 50
0.0
 51
0.0
 71
     0
 72
   100
 73
     1
 74
     1
 75
     0
 76
     0
 77
     0
 78
     0
  0
ENDTAB
  0
TABLE
  2
LTYPE
 70
     2
  0
LTYPE
  2
CONTINUOUS
 70
     0
  3
Solid line
 72
    65
 73
     0
 40
0.0
  0
LTYPE
  2
PHANTOM2
 70
     0
  3
___ _ _ ___ _ _ ___ _ _ ___ _ _
 72
    65
 73
     6
 40
1.25
 49
0.625
 49
-0.125
 49
0.125
 49
-0.125
 49
0.125
 49
-0.125
  0
ENDTAB
  0
TABLE
  2
LAYER
 70
     2
  0
LAYER
  2
0
 70
     0
 62
   255
  6
CONTINUOUS
  0
LAYER
  2
DEFPOINTS
 70
     0
 62
     7
  6
CONTINUOUS
  0
ENDTAB
  0
TABLE
  2
STYLE
 70
     1
  0
STYLE
  2
STANDARD
 70
     0
 40
0.0
 41
0.8
 50
0.0
 71
     0
 42
0.2
  3
txt
  4

  0
ENDTAB
  0
TABLE
  2
VIEW
 70
     0
  0
ENDTAB
  0
TABLE
  2
UCS
 70
     0
  0
ENDTAB
  0
TABLE
  2
APPID
 70
     9
  0
APPID
  2
ACAD
 70
     0
  0
APPID
  2
ACAD_MLEADERVER
 70
     0
  0
APPID
  2
ACAD_EXEMPT_FROM_CAD_STANDARDS
 70
     0
  0
APPID
  2
ACAD_NAV_VCDISPLAY
 70
     0
  0
APPID
  2
ACAECLAYERSTANDARD
 70
     0
  0
APPID
  2
ACCMTRANSPARENCY
 70
     0
  0
APPID
  2
ACAD_DSTYLE_DIMJAG
 70
     0
  0
APPID
  2
ACAD_DSTYLE_DIMTALN
 70
     0
  0
APPID
  2
ACDBATTR
 70
     0
  0
ENDTAB
  0
TABLE
  2
DIMSTYLE
 70
     1
  0
DIMSTYLE
  2
STANDARD
 70
     0
  3

  4

  5

  6

  7

 40
1.0
 41
0.1875
 42
0.0625
 43
0.38
 44
0.125
 45
0.0
 46
0.0
 47
0.01
 48
0.01
140
0.15625
141
0.09
142
0.0
143
25.3999999999999986
144
1.0
145
0.0
146
1.0
147
0.09
 71
     1
 72
     0
 73
     1
 74
     1
 75
     0
 76
     0
 77
     0
 78
     4
170
     0
171
     2
172
     0
173
     0
174
     0
175
     0
176
     0
177
     0
178
     0
  0
ENDTAB
  0
ENDSEC
  0
SECTION
  2
BLOCKS
  0
BLOCK
  8
0
  2
$MODEL_SPACE
 70
     0
 10
0.0
 20
0.0
 30
0.0
  3
$MODEL_SPACE
  1

  0
ENDBLK
  5
21
  8
0
  0
BLOCK
 67
     1
  8
0
  2
$PAPER_SPACE
 70
     0
 10
0.0
 20
0.0
 30
0.0
  3
$PAPER_SPACE
  1

  0
ENDBLK
  5
1D
 67
     1
  8
0
  0
ENDSEC
  0
SECTION
  2
ENTITIES
  0
ATTDEF
  5
42910
  8
DEFPOINTS
 10
2721.3869967914970402
 20
137.8535404500761103
 30
0.0
 40
0.001
  1
K-EX27114T-3
  3

  2
MODELNUMBER
 70
     0
1001
ACDBATTR
1070
     0
1070
     1
  0
ATTDEF
  5
42911
  8
DEFPOINTS
 10
2721.3869967914970402
 20
137.8518737834093884
 30
0.0
 40
0.001
  1
OCCASION
  3

  2
TRADENAME
 70
     0
1001
ACDBATTR
1070
     0
1070
     1
  0
ATTDEF
  5
42912
  8
DEFPOINTS
 10
2721.3869967914970402
 20
137.8502071167426948
 30
0.0
 40
0.001
  1
BATHTUB SHOWER FAUCET
  3

  2
PRODUCT
 70
     0
1001
ACDBATTR
1070
     0
1070
     1
  0
ARC
  5
49397
  8
0
 10
2739.1220823803960229
 20
139.0902760770788973
 30
0.0
 40
0.1242042379110925
 50
96.2381340446755189
 51
105.1863301691700059
  0
ARC
  5
49398
  8
0
 10
2739.8571425224949962
 20
136.8309030828120001
 30
0.0
 40
2.4999973923050591
 50
107.8808736179384056
 51
144.119124917115812
  0
ARC
  5
49399
  8
0
 10
2739.116696751481868
 20
139.1638045051128927
 30
0.0
 40
2.5301606347511041
 50
251.9110838448054039
 51
257.6858697492883152
  0
ARC
  5
4939A
  8
0
 10
2738.3503219865451683
 20
136.8175410497348992
 30
0.0
 40
0.0619056879564208
 50
216.0852377777239894
 51
251.9110838448054039
  0
ARC
  5
4939B
  8
0
 10
2740.324308868980097
 20
138.256218145807793
 30
0.0
 40
2.504530505400218
 50
180.135380410033406
 51
216.0852377777239894
  0
ARC
  5
4939C
  8
0
 10
2737.9141576370579969
 20
138.2505233481801952
 30
0.0
 40
0.0943725455445702
 50
151.0830341109623021
 51
180.135380410033406
  0
ARC
  5
4939D
  8
0
 10
2739.1110238237602061
 20
139.0906544250385934
 30
0.0
 40
0.0370285132500951
 50
93.7745315928925152
 51
104.4441121539199031
  0
ARC
  5
4939E
  8
0
 10
2739.857565247877119
 20
136.8303189707509091
 30
0.0
 40
2.417375574663319
 50
108.2186347243250992
 51
143.7813139608641961
  0
ARC
  5
4939F
  8
0
 10
2737.9248480542942161
 20
138.2458223172860983
 30
0.0
 40
0.0217450784427947
 50
143.7813139608614961
 51
180.218298274536096
  0
ARC
  5
493A0
  8
0
 10
2740.3204231325880755
 20
138.2549495591352979
 30
0.0
 40
2.4173375442610889
 50
180.218298274536096
 51
215.7815572832649877
  0
ARC
  5
493A1
  8
0
 10
2738.3769936188450629
 20
136.8542547245010894
 30
0.0
 40
0.0217448629690673
 50
215.7815572832656983
 51
252.2262091899702057
  0
ARC
  5
493A2
  8
0
 10
2739.1116165947219088
 20
139.1459385055092071
 30
0.0
 40
2.4282953961643701
 50
252.2262091899702057
 51
257.2835771711093003
  0
ARC
  5
493A3
  8
0
 10
2739.1085862262198134
 20
137.8612019426103075
 30
0.0
 40
0.5315007056946253
 50
90.0000003180025345
 51
211.5871520278890898
  0
ARC
  5
493A4
  8
0
 10
2739.1085862262198134
 20
137.8612019426103075
 30
0.0
 40
0.4527559055000015
 50
90.0000003733175475
 51
193.9720807279263113
  0
ARC
  5
493A5
  8
0
 10
2739.1245587737012102
 20
137.4400481474586115
 30
0.0
 40
0.6089009618430486
 50
91.5031421726310583
 51
121.5206397044340036
  0
ARC
  5
493A6
  8
0
 10
2738.9595096723069219
 20
137.7267935606737979
 30
0.0
 40
0.2783282976191084
 50
123.4181037149984945
 51
166.1037543310710021
  0
ARC
  5
493A7
  8
0
 10
2739.156394679756886
 20
137.107219030174889
 30
0.0
 40
0.8871842174886069
 50
93.0890430666207465
 51
107.3045392732185945
  0
ARC
  5
493A8
  8
0
 10
2739.0404777665739857
 20
137.5582388206742053
 30
0.0
 40
0.4227521631466172
 50
110.4892294815340961
 51
146.1634384714608075
  0
ARC
  5
493A9
  8
0
 10
2738.8254380115117783
 20
137.7023941912295868
 30
0.0
 40
0.1638644131134301
 50
146.1634384714604096
 51
166.3793178331584954
  0
ARC
  5
493AA
  8
0
 10
2738.9601992162261013
 20
137.5583393348140078
 30
0.0
 40
0.3459003664798184
 50
129.902764408022108
 51
151.634194600938514
  0
ARC
  5
493AB
  8
0
 10
2739.2895372746088469
 20
136.8846898597724078
 30
0.0
 40
1.088841888877728
 50
104.0008017975220014
 51
120.4145067780536067
  0
ARC
  5
493AC
  8
0
 10
2739.1085400836541339
 20
137.2674303747388933
 30
0.0
 40
0.6787783983395363
 50
89.9961053485610165
 51
96.9753387036236774
  0
ARC
  5
493AD
  8
0
 10
2739.1085862266909317
 20
137.0961635360540072
 30
0.0
 40
0.679284313671039
 50
90.0000002884821271
 51
96.974038875586217
  0
ARC
  5
493AE
  8
0
 10
2738.4755891792378861
 20
138.7076845748264873
 30
0.0
 40
1.0869829190834961
 50
283.9866693215843156
 51
300.428639262095885
  0
ARC
  5
493AF
  8
0
 10
2738.9539361673610074
 20
137.3926902962001861
 30
0.0
 40
0.3379632026412041
 50
129.6443633815048884
 51
151.8925956273718896
  0
LINE
  5
493B0
  8
0
 10
2738.6558303206211349
 20
137.7226763024104059
 30
0.0
 11
2738.6558303206211349
 21
137.4186589158288996
 31
0.0
  0
ARC
  5
493B1
  8
0
 10
2738.8809093262761962
 20
137.344605396747113
 30
0.0
 40
0.2369482696191265
 50
161.788214186668597
 51
175.2932418916570043
  0
ARC
  5
493B2
  8
0
 10
2738.967598757792075
 20
137.3160836008015053
 30
0.0
 40
0.3282091614651443
 50
134.3365445171870931
 51
161.788214186668597
  0
ARC
  5
493B3
  8
0
 10
2739.0452892358221106
 20
137.236572731135908
 30
0.0
 40
0.4393747531359563
 50
106.7493120250023964
 51
134.3365445171870931
  0
ARC
  5
493B4
  8
0
 10
2739.1198576592228164
 20
136.9887982195978111
 30
0.0
 40
0.6981268706855384
 50
90.9250951316819709
 51
106.7493123575829941
  0
ARC
  5
493B5
  8
0
 10
2737.6831112631211909
 20
137.4468697729969904
 30
0.0
 40
0.9652087262632253
 50
348.2791212271152972
 51
355.0775876041889774
  0
ARC
  5
493B6
  8
0
 10
2594.7065399278549194
 20
167.11023394924689
 30
0.0
 40
146.9864918497910082
 50
348.222051400324176
 51
348.2791212271152972
  0
ARC
  5
493B7
  8
0
 10
2739.5901669481750105
 20
136.9003182967308874
 30
0.0
 40
1.0131851711297899
 50
168.2032703249956
 51
179.1772849218129124
  0
LINE
  5
493B8
  8
0
 10
2738.5770862262202172
 20
136.9148662107344023
 30
0.0
 11
2738.5770862262202172
 21
134.9091588659539127
 31
0.0
  0
ARC
  5
493B9
  8
0
 10
2735.0267811917569816
 20
135.1886728867833085
 30
0.0
 40
3.561291047580796
 50
353.3026387999174744
 51
355.4984128737298192
  0
ARC
  5
493BA
  8
0
 10
2739.11819940016494
 20
134.0640409909906055
 30
0.0
 40
0.9043245311992937
 50
90.6090787308623646
 51
119.7099877844183027
  0
ARC
  5
493BB
  8
0
 10
2739.0406780874432116
 20
134.2201856310373955
 30
0.0
 40
0.7303547534201239
 50
120.4989060750203009
 51
130.7667605790475136
  0
ARC
  5
493BC
  8
0
 10
2739.0635752089870039
 20
134.1936279276218897
 30
0.0
 40
0.765420260484966
 50
130.7667605790475136
 51
144.628367074189697
  0
ARC
  5
493BD
  8
0
 10
2738.9652418850951108
 20
134.2634365367304099
 30
0.0
 40
0.6448272072303192
 50
144.628367074189697
 51
168.3341111615725083
  0
ARC
  5
493BE
  8
0
 10
2738.956791311309189
 20
134.26518132024691
 30
0.0
 40
0.6361983911569226
 50
168.3341111615725083
 51
193.6910949278133955
  0
ARC
  5
493BF
  8
0
 10
2738.9785967356560832
 20
134.2704933194000034
 30
0.0
 40
0.6586415162951555
 50
193.6910949278133955
 51
226.3871734460938967
  0
ARC
  5
493C0
  8
0
 10
2739.1039140509519711
 20
134.4020304881613015
 30
0.0
 40
0.8403183069943867
 50
226.3871734460938967
 51
247.7220552799794859
  0
ARC
  5
493C1
  8
0
 10
2739.1073450910271276
 20
134.4329750130980017
 30
0.0
 40
0.8702957672561678
 50
248.2853561920298944
 51
270.0817097659370916
  0
ARC
  5
493C2
  8
0
 10
2739.1437771981909464
 20
134.0702702856976032
 30
0.0
 40
0.8603153519208323
 50
101.9094438925081931
 51
123.0805187988623004
  0
ARC
  5
493C3
  8
0
 10
2739.1083602366961713
 20
134.1513609956423068
 30
0.0
 40
0.7738687986830078
 50
92.0669838790685162
 51
100.5825410756490044
  0
ARC
  5
493C4
  8
0
 10
2739.08068317818379
 20
134.9065552866464088
 30
0.0
 40
0.0181725008386868
 50
1.941982435477168
 51
90.7400810621949887
  0
ARC
  5
493C5
  8
0
 10
2720.3327740463291775
 20
134.6263934944707046
 30
0.0
 40
18.7681715725891216
 50
359.7142505326481796
 51
0.8571944411019444
  0
ARC
  5
493C6
  8
0
 10
2740.0653139175151409
 20
134.5097139094314116
 30
0.0
 40
0.9648777382738085
 50
178.6294625382722927
 51
181.3705374617267978
  0
ARC
  5
493C7
  8
0
 10
2739.0866812732251674
 20
134.4863001678752994
 30
0.0
 40
0.0140349522988326
 50
336.5056969899086994
 51
1.3705374617284489
  0
ARC
  5
493C8
  8
0
 10
2739.0493070436609742
 20
134.2800859359005017
 30
0.0
 40
0.2373994429728265
 50
181.1221006547580998
 51
208.3485994007583031
  0
ARC
  5
493C9
  8
0
 10
2739.051436424358144
 20
134.2801276437718059
 30
0.0
 40
0.2395292320934121
 50
144.7497327298756034
 51
181.122100654757304
  0
ARC
  5
493CA
  8
0
 10
2739.0925326801861956
 20
134.2510833942151862
 30
0.0
 40
0.2898528912941587
 50
112.4042118061087052
 51
144.7497327298756034
  0
ARC
  5
493CB
  8
0
 10
2739.1103402535568421
 20
134.2078879956310118
 30
0.0
 40
0.3365749645384608
 50
95.894700237034499
 51
112.4042118061087052
  0
ARC
  5
493CC
  8
0
 10
2739.1003301664850369
 20
134.3048413135713872
 30
0.0
 40
0.239106263393661
 50
94.2464420260146625
 51
95.894700237034499
  0
ARC
  5
493CD
  8
0
 10
2739.081152113636108
 20
134.5631302110178922
 30
0.0
 40
0.0198936444349299
 50
274.2464420260146767
 51
351.5321884476283003
  0
ARC
  5
493CE
  8
0
 10
2739.105724599864061
 20
134.2010456978638899
 30
0.0
 40
0.2797274217383589
 50
91.2642705283364108
 51
98.5539525541667416
  0
ARC
  5
493CF
  8
0
 10
2739.1069199909111376
 20
134.1930983493176086
 30
0.0
 40
0.287764169132136
 50
98.5539525541667416
 51
149.7392567825596927
  0
ARC
  5
493D0
  8
0
 10
2739.0175331159739471
 20
134.245249697216309
 30
0.0
 40
0.1842761191042291
 50
149.7392567825596927
 51
175.3382514106808117
  0
ARC
  5
493D1
  8
0
 10
2739.090813955062913
 20
134.2392741667761129
 30
0.0
 40
0.2578001855151984
 50
175.3382514106808117
 51
205.4392324114809014
  0
ARC
  5
493D2
  8
0
 10
2739.0212210245990718
 20
134.2061705979639896
 30
0.0
 40
0.1807351335224706
 50
205.4392324114809014
 51
222.9154985355447991
  0
ARC
  5
493D3
  8
0
 10
2739.1225272337860588
 20
134.3003612164692981
 30
0.0
 40
0.3190638024026093
 50
222.9154985355447991
 51
245.7338736367424872
  0
ARC
  5
493D4
  8
0
 10
2739.1197336594727858
 20
134.3295557359473094
 30
0.0
 40
0.3448376752615477
 50
248.1512818953046917
 51
268.1476498416261052
  0
ARC
  5
493D5
  8
0
 10
2739.050503854281942
 20
134.2067229196846938
 30
0.0
 40
0.2372178450741692
 50
165.3302744338820958
 51
172.1777841438562007
  0
ARC
  5
493D6
  8
0
 10
2739.0583340530820351
 20
134.2046731270147859
 30
0.0
 40
0.2453118961757501
 50
144.5389162836758885
 51
165.3302744338820958
  0
ARC
  5
493D7
  8
0
 10
2739.0648484387529606
 20
134.2000331335464978
 30
0.0
 40
0.2533098184100582
 50
131.7937028594726883
 51
144.5389162836758885
  0
ARC
  5
493D8
  8
0
 10
2738.824531724436838
 20
134.1618322674621879
 30
0.0
 40
0.0167811200038876
 50
352.3372272877778073
 51
18.7856638686551207
  0
ARC
  5
493D9
  8
0
 10
2738.8251340292290479
 20
134.1617512311190126
 30
0.0
 40
0.0161733881949984
 50
296.106218906831316
 51
352.3372272877771252
  0
LINE
  5
493DA
  8
0
 10
2738.8322509126201112
 20
134.1472278549103123
 30
0.0
 11
2738.517775319131033
 21
134.0101494301146943
 31
0.0
  0
ARC
  5
493DB
  8
0
 10
2738.5097374481410952
 20
134.0303636502032134
 30
0.0
 40
0.021753667975507
 50
219.9656075329492069
 51
291.6844743702355913
  0
ARC
  5
493DC
  8
0
 10
2739.0700391314521767
 20
134.2478961966913005
 30
0.0
 40
0.6721548643694978
 50
126.0794897553232943
 51
142.2723572832088905
  0
ARC
  5
493DD
  8
0
 10
2738.9622976229888991
 20
134.3184002387166913
 30
0.0
 40
0.5438919924173292
 50
141.2015447565966895
 51
159.0154701218808952
  0
ARC
  5
493DE
  8
0
 10
2738.9980302237181604
 20
134.2993879042018079
 30
0.0
 40
0.5840843416487244
 50
158.5294061776598937
 51
183.2505114441831893
  0
ARC
  5
493DF
  8
0
 10
2738.9738505526602239
 20
134.3049310261390019
 30
0.0
 40
0.5603004283517686
 50
183.9566517032818922
 51
200.952218561409893
  0
ARC
  5
493E0
  8
0
 10
2740.6207725182898685
 20
135.0953661279633877
 30
0.0
 40
2.3856504896696489
 50
204.5390518905660997
 51
206.8898845572716141
  0
ARC
  5
493E1
  8
0
 10
2738.8503140863808767
 20
134.0736714777108887
 30
0.0
 40
0.0189103556500938
 50
40.7634056984907502
 51
113.6433056995156932
  0
ARC
  5
493E2
  8
0
 10
2739.1614732301231925
 20
134.3419102302466115
 30
0.0
 40
0.3919083891707026
 50
220.7634056984904021
 51
233.1986142992469979
  0
ARC
  5
493E3
  8
0
 10
2739.1034030694008834
 20
134.2876785867736942
 30
0.0
 40
0.314010398787459
 50
235.7559151568484026
 51
257.4083950387437767
  0
ARC
  5
493E4
  8
0
 10
2739.120393551019788
 20
134.3771596724662913
 30
0.0
 40
0.4050538401522483
 50
257.8221549806274879
 51
268.3295895129976998
  0
ARC
  5
493E5
  8
0
 10
2737.1375338276188813
 20
137.8569965483434885
 30
0.0
 40
4.1340617186915223
 50
293.4967368338208189
 51
294.360395098370816
  0
ARC
  5
493E6
  8
0
 10
2754.4413082630057943
 20
98.0548409698062642
 30
0.0
 40
39.2667700522412702
 50
113.4967368338207052
 51
113.9051891547146056
  0
ARC
  5
493E7
  8
0
 10
2738.5368716111679532
 20
133.9364683816667139
 30
0.0
 40
0.0183014077720851
 50
113.9051891547146056
 51
153.8324045429538955
  0
ARC
  5
493E8
  8
0
 10
2738.5345592723119807
 20
133.9376045694687036
 30
0.0
 40
0.0157250084035637
 50
153.8324045429509965
 51
191.4164763455322884
  0
ARC
  5
493E9
  8
0
 10
2738.5447359668528406
 20
133.939659596665507
 30
0.0
 40
0.0261071203543474
 50
191.4164763455331126
 51
206.388614198677999
  0
ARC
  5
493EA
  8
0
 10
2739.1075970311658239
 20
134.4085481220035945
 30
0.0
 40
0.7685436851464813
 50
250.6587580963322068
 51
270.0737453828622847
  0
ARC
  5
493EB
  8
0
 10
2739.0909723769809716
 20
134.3611848808504874
 30
0.0
 40
0.7183475125899496
 50
229.7793975408841902
 51
250.6587580963322068
  0
ARC
  5
493EC
  8
0
 10
2739.0265350949280219
 20
134.2849892468182134
 30
0.0
 40
0.6185580443886284
 50
215.2426670549619985
 51
229.7793975408841902
  0
LINE
  5
493ED
  8
0
 10
2738.5040644989180691
 20
134.0093627045698952
 30
0.0
 11
2738.5040644989180691
 21
133.9329631201063933
 31
0.0
  0
LINE
  5
493EE
  8
0
 10
2738.8413385193198337
 20
134.1624641765102126
 30
0.0
 11
2738.8427302484201391
 21
134.0909944957101914
 31
0.0
  0
ARC
  5
493EF
  8
0
 10
2738.9627182030208132
 20
134.2614723913742978
 30
0.0
 40
0.5627706816508585
 50
158.9442791637571872
 51
172.6621372272626047
  0
ARC
  5
493F0
  8
0
 10
2738.9625845163059239
 20
134.2614896068390919
 30
0.0
 40
0.5626358910348844
 50
172.6621372272618089
 51
192.9180429401328922
  0
ARC
  5
493F1
  8
0
 10
2738.9766664330750245
 20
134.2647194637902999
 30
0.0
 40
0.5770834636968745
 50
192.9180429401320112
 51
209.2587698007016002
  0
ARC
  5
493F2
  8
0
 10
2739.0264269091321694
 20
134.292596675394293
 30
0.0
 40
0.6341206787782956
 50
209.2587698007016002
 51
221.9035708847951867
  0
ARC
  5
493F3
  8
0
 10
2739.0610393722517983
 20
134.3236565564249076
 30
0.0
 40
0.6806259345331139
 50
221.9035708847951867
 51
245.6877886065981045
  0
ARC
  5
493F4
  8
0
 10
2739.1174837314938486
 20
134.4528511225018121
 30
0.0
 40
0.8216034472584716
 50
245.8099595165454048
 51
269.3795064565052257
  0
ARC
  5
493F5
  8
0
 10
2738.9330775843241099
 20
134.1999879520062962
 30
0.0
 40
0.5362571479497255
 50
164.8990807470937057
 51
173.7971677405911066
  0
LINE
  5
493F6
  8
0
 10
2738.4040974296558488
 20
134.2880318313791861
 30
0.0
 11
2738.4140137252788918
 21
134.2904857858800938
 31
0.0
  0
ARC
  5
493F7
  8
0
 10
2739.107203787501021
 20
134.0859423297141007
 30
0.0
 40
0.8332386148318168
 50
88.8951006617866142
 51
90.9178758141926551
  0
ARC
  5
493F8
  8
0
 10
2739.1086058886880892
 20
134.7318853391236075
 30
0.0
 40
0.1546421293630322
 50
267.1369776307653865
 51
272.8484338519435823
  0
LINE
  5
493F9
  8
0
 10
2738.8277378443690395
 20
134.2882997578863069
 30
0.0
 11
2738.8386343103347826
 21
134.2894413866254979
 31
0.0
  0
LINE
  5
493FA
  8
0
 10
2738.8711554929941485
 20
134.3632780626124941
 30
0.0
 11
2738.8715857005117869
 21
134.358706286321592
 31
0.0
  0
LINE
  5
493FB
  8
0
 10
2739.0261077962200034
 20
137.9411848048102911
 30
0.0
 11
2739.0261077962200034
 21
137.7704220082341067
 31
0.0
  0
LINE
  5
493FC
  8
0
 10
2738.7383087506200354
 20
137.8236913365101941
 30
0.0
 11
2738.7383087506200354
 21
137.652928539910306
 31
0.0
  0
LINE
  5
493FD
  8
0
 10
2737.8227462082718375
 20
138.2739781566426984
 30
0.0
 11
2737.9038854231121149
 21
138.2516030205648008
 31
0.0
  0
LINE
  5
493FE
  8
0
 10
2738.3139331284978653
 20
136.7674594641825081
 30
0.0
 11
2738.3642135014069936
 21
136.8366618946025142
 31
0.0
  0
LINE
  5
493FF
  8
0
 10
2739.1085862232707768
 20
139.213744884710195
 30
0.0
 11
2739.1085862232707768
 21
139.1276026171101989
 31
0.0
  0
ARC
  5
49400
  8
0
 10
2739.106463666028958
 20
132.6369979748203889
 30
0.0
 40
2.8289228203596331
 50
246.0541526500622922
 51
270.0429893605522125
  0
ARC
  5
49401
  8
0
 10
2738.9751824969721383
 20
132.341383722916305
 30
0.0
 40
2.5054687567310712
 50
214.4399098278813938
 51
246.0541498416230866
  0
ARC
  5
49402
  8
0
 10
2738.5923121114401511
 20
132.0788349863180997
 30
0.0
 40
2.0412257479453921
 50
187.2602129396751991
 51
214.4399098278813938
  0
ARC
  5
49403
  8
0
 10
2742.9133158890981576
 20
132.359126315822607
 30
0.0
 40
6.3686501264400066
 50
182.2458353243320914
 51
184.8481936967816921
  0
ARC
  5
49404
  8
0
 10
2740.3911762111229109
 20
132.0984143699764104
 30
0.0
 40
3.8416347665140331
 50
164.4429033870746082
 51
179.8338160822918042
  0
ARC
  5
49405
  8
0
 10
2738.9002193128358158
 20
132.3285191186625127
 30
0.0
 40
2.350352306900076
 50
126.899229669417295
 51
160.094706829530594
  0
ARC
  5
49406
  8
0
 10
2739.0463903416180074
 20
132.1510984516800136
 30
0.0
 40
2.5800176228691312
 50
112.0764642877192045
 51
127.1294524837280022
  0
ARC
  5
49407
  8
0
 10
2739.1108423139089609
 20
131.9939440532853894
 30
0.0
 40
2.7498738904716351
 50
103.6627145202753013
 51
112.090238257192695
  0
ARC
  5
49408
  8
0
 10
2739.1039143418738604
 20
139.1369226484447097
 30
0.0
 40
0.0769641634829266
 50
72.0556456879967016
 51
86.5198900981790757
  0
ARC
  5
49409
  8
0
 10
2738.3600299240461027
 20
136.8309030828120001
 30
0.0
 40
2.4999973923050591
 50
35.8808750828841667
 51
72.1191263820615518
  0
ARC
  5
4940A
  8
0
 10
2739.1004756950578667
 20
139.1638045051128927
 30
0.0
 40
2.5301606347511041
 50
282.3141251714502005
 51
288.0889161551946245
  0
ARC
  5
4940B
  8
0
 10
2739.8668504599968401
 20
136.8175410497348992
 30
0.0
 40
0.0619056879564208
 50
288.0889161551937718
 51
323.9147622222748168
  0
ARC
  5
4940C
  8
0
 10
2737.8928635775610019
 20
138.256218145807793
 30
0.0
 40
2.504530505400218
 50
323.9147622222748168
 51
359.8646195899648887
  0
ARC
  5
4940D
  8
0
 10
2740.303014809483102
 20
138.2505233481801952
 30
0.0
 40
0.0943725455445702
 50
359.8646195899648887
 51
28.9169658890376589
  0
ARC
  5
4940E
  8
0
 10
2739.1069928783340401
 20
139.0959198028907053
 30
0.0
 40
0.0317228539850764
 50
74.6603648185582216
 51
87.1209914346355134
  0
ARC
  5
4940F
  8
0
 10
2738.3596071986639799
 20
136.8303189707509091
 30
0.0
 40
2.417375574663319
 50
36.2186860391358323
 51
71.7813652756748866
  0
ARC
  5
49410
  8
0
 10
2740.2923243922459733
 20
138.2458223172860983
 30
0.0
 40
0.0217450784427947
 50
359.7817017254631082
 51
36.21868603913844
  0
ARC
  5
49411
  8
0
 10
2737.8967493139521139
 20
138.2549495591352979
 30
0.0
 40
2.4173375442610889
 50
324.2184427167342733
 51
359.7817017254631082
  0
ARC
  5
49412
  8
0
 10
2739.840178827696036
 20
136.8542547245010894
 30
0.0
 40
0.0217448629690673
 50
287.7737908100298796
 51
324.2184427167342733
  0
ARC
  5
49413
  8
0
 10
2739.1055558518178259
 20
139.1459385055092071
 30
0.0
 40
2.4282953961643701
 50
282.7164195627058803
 51
287.7737908100298796
  0
ARC
  5
49414
  8
0
 10
2739.1085862203199213
 20
137.8612019426103075
 30
0.0
 40
0.5315007056946253
 50
328.4128479721097733
 51
89.9999996819974513
  0
ARC
  5
49415
  8
0
 10
2739.1085862203199213
 20
137.8612019426103075
 30
0.0
 40
0.4527559055000015
 50
346.0279192720736887
 51
89.9999996266824667
  0
ARC
  5
49416
  8
0
 10
2739.0968552203908075
 20
137.4543564669060913
 30
0.0
 40
0.5944988650132275
 50
58.106885682697623
 51
88.8693324402519238
  0
ARC
  5
49417
  8
0
 10
2739.2576627742328128
 20
137.7267935606737979
 30
0.0
 40
0.2783282976191084
 50
13.8962456689289304
 51
56.5818962850015268
  0
ARC
  5
49418
  8
0
 10
2739.0987211589099388
 20
137.3181673224572137
 30
0.0
 40
0.6750189313853515
 50
70.4437966559503934
 51
89.1626210042093135
  0
ARC
  5
49419
  8
0
 10
2739.1766946799671132
 20
137.5582388206742053
 30
0.0
 40
0.4227521631466172
 50
33.8365615285392209
 51
69.5107705184659181
  0
ARC
  5
4941A
  8
0
 10
2739.3917344350297753
 20
137.7023941912295868
 30
0.0
 40
0.1638644131134301
 50
13.6206821668415099
 51
33.8365615285395478
  0
ARC
  5
4941B
  8
0
 10
2739.2569732303149976
 20
137.5583393348140078
 30
0.0
 40
0.3459003664798184
 50
28.3658053990614611
 51
50.097235591977892
  0
ARC
  5
4941C
  8
0
 10
2738.9276351719308877
 20
136.8846898597724078
 30
0.0
 40
1.088841888877728
 50
59.585493221946372
 51
75.999198202478027
  0
ARC
  5
4941D
  8
0
 10
2739.10863236164505
 20
137.2674303543543033
 30
0.0
 40
0.6787784187239817
 50
83.0246614013213673
 51
90.0038945465150846
  0
ARC
  5
4941E
  8
0
 10
2739.1085862198501673
 20
137.0961635360540072
 30
0.0
 40
0.679284313671039
 50
83.0259611244137972
 51
89.9999997115178871
  0
ARC
  5
4941F
  8
0
 10
2739.7415832673018485
 20
138.7076845748264873
 30
0.0
 40
1.0869829190834961
 50
239.5713607379040866
 51
256.013330678415798
  0
ARC
  5
49420
  8
0
 10
2739.2632362791800915
 20
137.3926902962001861
 30
0.0
 40
0.3379632026412041
 50
28.1074043726280607
 51
50.3556366184951116
  0
LINE
  5
49421
  8
0
 10
2739.561342125919964
 20
137.7226763024104059
 30
0.0
 11
2739.561342125919964
 21
137.4186589158288996
 31
0.0
  0
ARC
  5
49422
  8
0
 10
2739.3362631202639932
 20
137.344605396747113
 30
0.0
 40
0.2369482696191265
 50
4.7067581083430152
 51
18.2117858133313817
  0
ARC
  5
49423
  8
0
 10
2739.2495736887481144
 20
137.3160836008015053
 30
0.0
 40
0.3282091614651443
 50
18.2117858133313817
 51
45.6634554828128216
  0
ARC
  5
49424
  8
0
 10
2739.1718832107180788
 20
137.236572731135908
 30
0.0
 40
0.4393747531359563
 50
45.6634554828128216
 51
73.2506879749975752
  0
ARC
  5
49425
  8
0
 10
2739.0973147873178277
 20
136.9887982195978964
 30
0.0
 40
0.6981268706853847
 50
73.2506876424169917
 51
89.0749048683180433
  0
ARC
  5
49426
  8
0
 10
2740.5340611834189986
 20
137.4468697729969904
 30
0.0
 40
0.9652087262632253
 50
184.9224123958101131
 51
191.720878772883907
  0
ARC
  5
49427
  8
0
 10
2883.5106325186861795
 20
167.11023394924689
 30
0.0
 40
146.9864918497910082
 50
191.720878772883907
 51
191.7779485996749997
  0
ARC
  5
49428
  8
0
 10
2738.6270054983660884
 20
136.9003182967308874
 30
0.0
 40
1.013185171129737
 50
0.8227150781862743
 51
11.7967296750035793
  0
LINE
  5
49429
  8
0
 10
2739.6400862203199722
 20
136.9148662107344023
 30
0.0
 11
2739.6400862203199722
 21
134.9091588659539127
 31
0.0
  0
ARC
  5
4942A
  8
0
 10
2741.4793963734518911
 20
135.0209242256140101
 30
0.0
 40
1.8427027256272781
 50
183.4772924141481951
 51
187.7216559122136914
  0
ARC
  5
4942B
  8
0
 10
2739.0937745918090513
 20
134.0448539506224961
 30
0.0
 40
0.9235792512238166
 50
60.5998371423653026
 51
89.0810963423728026
  0
ARC
  5
4942C
  8
0
 10
2739.1764943590978874
 20
134.2201856310373955
 30
0.0
 40
0.7303547534201239
 50
49.2332394209525006
 51
59.5010939249796778
  0
ARC
  5
4942D
  8
0
 10
2739.153597237554095
 20
134.1936279276218897
 30
0.0
 40
0.765420260484966
 50
35.371632925810232
 51
49.2332394209525006
  0
ARC
  5
4942E
  8
0
 10
2739.2519305614459881
 20
134.2634365367304099
 30
0.0
 40
0.6448272072303192
 50
11.6658888384275201
 51
35.371632925810232
  0
ARC
  5
4942F
  8
0
 10
2739.2603811352319099
 20
134.26518132024691
 30
0.0
 40
0.6361983911569226
 50
346.3089050721856097
 51
11.6658888384275201
  0
ARC
  5
49430
  8
0
 10
2739.2385757108841062
 20
134.2704933194000034
 30
0.0
 40
0.6586415162951555
 50
313.6128265539060749
 51
346.3089050721856097
  0
ARC
  5
49431
  8
0
 10
2739.1132583955882183
 20
134.4020304881613015
 30
0.0
 40
0.8403183069943867
 50
292.2779447200205141
 51
313.6128265539060749
  0
ARC
  5
49432
  8
0
 10
2739.1098273555130618
 20
134.4329750130980017
 30
0.0
 40
0.8702957672561678
 50
269.9182902340629084
 51
291.7146438079456061
  0
ARC
  5
49433
  8
0
 10
2739.0733952483501525
 20
134.0702702856976032
 30
0.0
 40
0.8603153519208323
 50
56.9194812011376783
 51
78.0905561074917927
  0
ARC
  5
49434
  8
0
 10
2739.1088122098449276
 20
134.1513609956423068
 30
0.0
 40
0.7738687986830078
 50
79.4174589243509956
 51
87.9330161209314696
  0
ARC
  5
49435
  8
0
 10
2739.1364892683568542
 20
134.9065552866464088
 30
0.0
 40
0.0181725008386868
 50
89.2599189378049971
 51
178.0580175645235954
  0
ARC
  5
49436
  8
0
 10
2757.8843984002119214
 20
134.6263934944707046
 30
0.0
 40
18.7681715725891216
 50
179.1428055588980044
 51
180.2857494673509109
  0
ARC
  5
49437
  8
0
 10
2738.1518585290250485
 20
134.5097139094314116
 30
0.0
 40
0.9648777382738085
 50
358.6294625382731738
 51
1.3705374617268209
  0
ARC
  5
49438
  8
0
 10
2739.130491173315022
 20
134.4863001678752994
 30
0.0
 40
0.0140349522988326
 50
178.6294625382714969
 51
203.4943030100913006
  0
ARC
  5
49439
  8
0
 10
2739.1678654028801247
 20
134.2800859359005017
 30
0.0
 40
0.2373994429728265
 50
331.6514005992410148
 51
358.877899345241417
  0
ARC
  5
4943A
  8
0
 10
2739.1657360221829549
 20
134.2801276437718059
 30
0.0
 40
0.2395292320934121
 50
358.877899345241417
 51
35.2502672701243966
  0
ARC
  5
4943B
  8
0
 10
2739.1246397663549033
 20
134.2510833942151862
 30
0.0
 40
0.2898528912941587
 50
35.2502672701243966
 51
67.5957881938912664
  0
ARC
  5
4943C
  8
0
 10
2739.1068321929828926
 20
134.2078879956310118
 30
0.0
 40
0.3365749645384608
 50
67.5957881938912664
 51
84.1052997629655152
  0
ARC
  5
4943D
  8
0
 10
2739.1168422800551525
 20
134.3048413135713872
 30
0.0
 40
0.239106263393661
 50
84.1052997629655152
 51
85.7535579739853375
  0
ARC
  5
4943E
  8
0
 10
2739.1360203329049909
 20
134.5631302110178922
 30
0.0
 40
0.0198936444349299
 50
188.467811552371586
 51
265.7535579739853233
  0
ARC
  5
4943F
  8
0
 10
2739.1114478466761284
 20
134.2010456978638899
 30
0.0
 40
0.2797274217383589
 50
81.4460474458332726
 51
88.7357294716635749
  0
ARC
  5
49440
  8
0
 10
2739.1102524556299613
 20
134.1930983493176086
 30
0.0
 40
0.287764169132136
 50
30.2607432174403002
 51
81.4460474458332726
  0
ARC
  5
49441
  8
0
 10
2739.1996393305657875
 20
134.245249697216309
 30
0.0
 40
0.1842761191042291
 50
4.6617485893192221
 51
30.2607432174395896
  0
ARC
  5
49442
  8
0
 10
2739.1263584914781859
 20
134.2392741667761129
 30
0.0
 40
0.2578001855151984
 50
334.560767588519127
 51
4.6617485893192221
  0
ARC
  5
49443
  8
0
 10
2739.1959514219411176
 20
134.2061705979639896
 30
0.0
 40
0.1807351335224706
 50
317.0845014644551725
 51
334.560767588519127
  0
ARC
  5
49444
  8
0
 10
2739.0946452127550401
 20
134.3003612164692981
 30
0.0
 40
0.3190638024026093
 50
294.2661263632575128
 51
317.0845014644551725
  0
ARC
  5
49445
  8
0
 10
2739.0974382233630422
 20
134.3295575964694137
 30
0.0
 40
0.3448396119284934
 50
271.8527363167531234
 51
291.8486899929014271
  0
ARC
  5
49446
  8
0
 10
2739.1666685922591569
 20
134.2067229196846938
 30
0.0
 40
0.2372178450741692
 50
7.822215856143762
 51
14.6697255661179202
  0
ARC
  5
49447
  8
0
 10
2739.1588383934590638
 20
134.2046731270147859
 30
0.0
 40
0.2453118961757501
 50
14.6697255661179202
 51
35.4610837163240475
  0
ARC
  5
49448
  8
0
 10
2739.152324007786774
 20
134.2000331335464978
 30
0.0
 40
0.2533098184100582
 50
35.4610837163240475
 51
48.2062971405272975
  0
ARC
  5
49449
  8
0
 10
2739.3926407221028967
 20
134.1618322674621879
 30
0.0
 40
0.0167811200038876
 50
161.2143361313449077
 51
187.6627727122221074
  0
ARC
  5
4944A
  8
0
 10
2739.3920384173111415
 20
134.1617512311190126
 30
0.0
 40
0.0161733881949984
 50
187.6627727122229032
 51
243.8937810931687125
  0
LINE
  5
4944B
  8
0
 10
2739.3849215339200782
 20
134.1472278549103123
 30
0.0
 11
2739.6993971274100659
 21
134.0101494301146943
 31
0.0
  0
ARC
  5
4944C
  8
0
 10
2739.7074349983990942
 20
134.0303636502032134
 30
0.0
 40
0.021753667975507
 50
248.315525629764295
 51
320.0343924670507931
  0
ARC
  5
4944D
  8
0
 10
2739.1471333150880128
 20
134.2478961966913005
 30
0.0
 40
0.6721548643694978
 50
37.7276427167910882
 51
53.9205102446766418
  0
ARC
  5
4944E
  8
0
 10
2739.2548748235521998
 20
134.3184002387166913
 30
0.0
 40
0.5438919924173292
 50
20.9845298781201492
 51
38.7984552434033318
  0
ARC
  5
4944F
  8
0
 10
2739.2191422228229385
 20
134.2993879042018079
 30
0.0
 40
0.5840843416487244
 50
356.7494885558168107
 51
21.4705938223400707
  0
ARC
  5
49450
  8
0
 10
2739.243321893880875
 20
134.3049310261390019
 30
0.0
 40
0.5603004283517686
 50
339.047781438590107
 51
356.0433482967172267
  0
ARC
  5
49451
  8
0
 10
2737.5963999282507757
 20
135.0953661279633877
 30
0.0
 40
2.3856504896696489
 50
333.1101154427277038
 51
335.4609481094328203
  0
ARC
  5
49452
  8
0
 10
2739.3668583601602222
 20
134.0736714777108887
 30
0.0
 40
0.0189103556500938
 50
66.35669430048425
 51
139.2365943015092
  0
ARC
  5
49453
  8
0
 10
2739.0556992164179064
 20
134.3419102302466115
 30
0.0
 40
0.3919083891707026
 50
306.8013857007526894
 51
319.2365943015092853
  0
ARC
  5
49454
  8
0
 10
2739.1137693771402155
 20
134.2876785867736942
 30
0.0
 40
0.314010398787459
 50
282.5916049612561096
 51
304.2440848431517111
  0
ARC
  5
49455
  8
0
 10
2739.0967789013598122
 20
134.3771596377661126
 30
0.0
 40
0.4050538050010654
 50
271.6704083709497013
 51
282.1778452473520247
  0
ARC
  5
49456
  8
0
 10
2741.0796386189222176
 20
137.8569965483434885
 30
0.0
 40
4.1340617186915223
 50
245.6396049016285019
 51
246.5032631661792095
  0
ARC
  5
49457
  8
0
 10
2723.7758641835348499
 20
98.0548409698062642
 30
0.0
 40
39.2667700522412702
 50
66.0948108452852523
 51
66.5032631661792237
  0
ARC
  5
49458
  8
0
 10
2739.6803008353717814
 20
133.9364683816667139
 30
0.0
 40
0.0183014077720851
 50
26.1675954570456888
 51
66.0948108452854228
  0
ARC
  5
49459
  8
0
 10
2739.6826131742282087
 20
133.9376045694687036
 30
0.0
 40
0.0157250084035637
 50
348.5835236544676263
 51
26.1675954570489608
  0
ARC
  5
4945A
  8
0
 10
2739.6724364796878035
 20
133.939659596665507
 30
0.0
 40
0.0261071203543474
 50
333.611385801322001
 51
348.5835236544668874
  0
ARC
  5
4945B
  8
0
 10
2739.1095754153739108
 20
134.4085481220035945
 30
0.0
 40
0.7685436851464813
 50
269.9262546171377153
 51
289.3412419036678216
  0
ARC
  5
4945C
  8
0
 10
2739.1262000695601273
 20
134.3611848808504874
 30
0.0
 40
0.7183475125899496
 50
289.3412419036678216
 51
310.2206024591155256
  0
ARC
  5
4945D
  8
0
 10
2739.1906373516121675
 20
134.2849892468182134
 30
0.0
 40
0.6185580443886284
 50
310.2206024591155256
 51
324.7573329450372057
  0
LINE
  5
4945E
  8
0
 10
2739.7131079476230298
 20
134.0093627045698952
 30
0.0
 11
2739.7131079476230298
 21
133.9329631201063933
 31
0.0
  0
LINE
  5
4945F
  8
0
 10
2739.3758339272199009
 20
134.1624641765102126
 30
0.0
 11
2739.3744421981200503
 21
134.0909944957101914
 31
0.0
  0
ARC
  5
49460
  8
0
 10
2739.2544542435189214
 20
134.2614723913742978
 30
0.0
 40
0.5627706816508585
 50
7.3378627727373731
 51
21.0557208362427488
  0
ARC
  5
49461
  8
0
 10
2739.254587930235175
 20
134.2614896068390919
 30
0.0
 40
0.5626358910348844
 50
347.0819570598670794
 51
7.3378627727381787
  0
ARC
  5
49462
  8
0
 10
2739.2405060134660744
 20
134.2647194637902999
 30
0.0
 40
0.5770834636968745
 50
330.7412301992977177
 51
347.0819570598670794
  0
ARC
  5
49463
  8
0
 10
2739.19074553740802
 20
134.292596675394293
 30
0.0
 40
0.6341206787782956
 50
318.0964291152047849
 51
330.7412301992977177
  0
ARC
  5
49464
  8
0
 10
2739.1561330742888458
 20
134.3236565564249076
 30
0.0
 40
0.6806259345331139
 50
294.3122113934019239
 51
318.0964291152047849
  0
ARC
  5
49465
  8
0
 10
2739.0996887149171926
 20
134.4528511230942911
 30
0.0
 40
0.8216034478523841
 50
270.6204935521195125
 51
294.1900404748017763
  0
ARC
  5
49466
  8
0
 10
2739.2840948622160795
 20
134.1999879520062962
 30
0.0
 40
0.5362571479497255
 50
6.2028322594088561
 51
15.1009192529062908
  0
LINE
  5
49467
  8
0
 10
2739.8130750168838858
 20
134.2880318313791861
 30
0.0
 11
2739.8031587212622071
 21
134.2904857858800938
 31
0.0
  0
LINE
  5
49468
  8
0
 10
2739.3894346021711499
 20
134.2882997578863069
 30
0.0
 11
2739.3785381362058615
 21
134.2894413866254979
 31
0.0
  0
LINE
  5
49469
  8
0
 10
2739.3460169535469504
 20
134.3632780626124941
 30
0.0
 11
2739.3455867460288573
 21
134.358706286321592
 31
0.0
  0
LINE
  5
4946A
  8
0
 10
2739.1910646503210955
 20
137.9411848048102911
 30
0.0
 11
2739.1910646503210955
 21
137.7704220082341067
 31
0.0
  0
LINE
  5
4946B
  8
0
 10
2739.478863695920154
 20
137.8236913365101941
 30
0.0
 11
2739.478863695920154
 21
137.652928539910306
 31
0.0
  0
LINE
  5
4946C
  8
0
 10
2740.3944262382678971
 20
138.2739781566426984
 30
0.0
 11
2740.3132870234280745
 21
138.2516030205648008
 31
0.0
  0
LINE
  5
4946D
  8
0
 10
2739.9032393180427789
 20
136.7674594641825081
 30
0.0
 11
2739.8529589451331958
 21
136.8366618946025142
 31
0.0
  0
LINE
  5
4946E
  8
0
 10
2739.1085862232707768
 20
139.213744884710195
 30
0.0
 11
2739.1085862232707768
 21
139.1276026171101989
 31
0.0
  0
ARC
  5
4946F
  8
0
 10
2739.1107087805121409
 20
132.6369979748203889
 30
0.0
 40
2.8289228203596548
 50
269.9570106394479012
 51
293.9458473499377078
  0
ARC
  5
49470
  8
0
 10
2739.2419899495689606
 20
132.341383722916305
 30
0.0
 40
2.5054687567310712
 50
293.9458501583767998
 51
325.5600901721185778
  0
ARC
  5
49471
  8
0
 10
2739.6248603351000384
 20
132.0788349863180997
 30
0.0
 40
2.0412257479453921
 50
325.5600901721185778
 51
352.7397870603247156
  0
ARC
  5
49472
  8
0
 10
2734.4832914081230228
 20
132.4099901045383092
 30
0.0
 40
7.1906024333733187
 50
355.3005644643193932
 51
357.6054065145684149
  0
ARC
  5
49473
  8
0
 10
2736.080650055489059
 20
131.8574184785929901
 30
0.0
 40
5.5926513651651781
 50
2.5839913644269901
 51
13.1392891662061206
  0
ARC
  5
49474
  8
0
 10
2739.3169531337048284
 20
132.3285191186625127
 30
0.0
 40
2.350352306900076
 50
19.9052931704694096
 51
53.1007703305836074
  0
ARC
  5
49475
  8
0
 10
2739.1707821049230915
 20
132.1510984516800136
 30
0.0
 40
2.5800176228691312
 50
52.870547516272012
 51
67.923535712280767
  0
ARC
  5
49476
  8
0
 10
2739.1063301326307737
 20
131.9939440532853894
 30
0.0
 40
2.7498738904716351
 50
67.909761742806495
 51
76.3372854797246561
  0
ARC
  5
49477
  8
0
 10
2733.2029654556040441
 20
139.1592651250851134
 30
0.0
 40
0.0620108332701384
 50
69.4588624350093369
 51
110.5408663574895058
  0
ARC
  5
49478
  8
0
 10
2734.0510980871590618
 20
136.6899162004222035
 30
0.0
 40
2.6729286863944401
 50
108.9925244221052054
 51
143.0074791736111877
  0
ARC
  5
49479
  8
0
 10
2731.9646961857529277
 20
138.2596079731831082
 30
0.0
 40
0.0620123499282288
 50
141.4591372382128895
 51
182.5404452506519988
  0
ARC
  5
4947A
  8
0
 10
2734.5752726390928729
 20
138.3031598912999129
 30
0.0
 40
2.67292889690885
 50
180.9925296364804126
 51
215.007420243694412
  0
ARC
  5
4947B
  8
0
 10
2732.4376691613101684
 20
136.8039361601524035
 30
0.0
 40
0.0620096226729981
 50
213.4595046295249006
 51
254.5422487464392134
  0
ARC
  5
4947C
  8
0
 10
2733.2029618486822073
 20
139.3001565265788884
 30
0.0
 40
2.6728845199347431
 50
252.9922851740874137
 51
264.6328991370727977
  0
LINE
  5
4947D
  8
0
 10
2733.0204527728838002
 20
136.3415200408207113
 30
0.0
 11
2733.3854784447189559
 21
136.3415200408207113
 31
0.0
  0
ARC
  5
4947E
  8
0
 10
2733.2029656649510798
 20
138.4239942232655096
 30
0.0
 40
0.0410308064865898
 50
67.3326147152658763
 51
112.6665018275783012
  0
ARC
  5
4947F
  8
0
 10
2733.5813063943110137
 20
137.3365286239746865
 30
0.0
 40
1.1923581264812371
 50
109.3031113793497013
 51
142.6968576112454912
  0
ARC
  5
49480
  8
0
 10
2732.663980187604011
 20
138.0323970746570126
 30
0.0
 40
0.0410320537824705
 50
139.3334671630184971
 51
184.6657179331276097
  0
ARC
  5
49481
  8
0
 10
2733.8151338588781982
 20
138.0561755625402043
 30
0.0
 40
1.192358126294309
 50
181.303109686605012
 51
214.6968571253518121
  0
ARC
  5
49482
  8
0
 10
2732.869855279703188
 20
137.3987829691087938
 30
0.0
 40
0.0410336100842733
 50
211.3342488788323976
 51
256.6660955630579224
  0
ARC
  5
49483
  8
0
 10
2733.202965608831164
 20
138.5009418316560073
 30
0.0
 40
1.1923581273353501
 50
253.3031566990916872
 51
286.696890214736186
  0
ARC
  5
49484
  8
0
 10
2733.5360773584520757
 20
137.3987810561606011
 30
0.0
 40
0.0410313638311357
 50
283.3339513507639253
 51
328.6660958094719263
  0
ARC
  5
49485
  8
0
 10
2732.5907973578409838
 20
138.056175562999897
 30
0.0
 40
1.192358127276629
 50
325.3031116711604795
 51
358.6968531285756967
  0
ARC
  5
49486
  8
0
 10
2733.7419501309291263
 20
138.0323966702169116
 30
0.0
 40
0.0410329624281259
 50
355.3338689902701049
 51
40.6652650647186533
  0
ARC
  5
49487
  8
0
 10
2732.8246248228620061
 20
137.3365286231548907
 30
0.0
 40
1.192358127396858
 50
37.3031121393810068
 51
70.6968531726429319
  0
ARC
  5
49488
  8
0
 10
2732.3548323648788028
 20
136.6899146684008031
 30
0.0
 40
2.6729303841958671
 50
36.9925369782245212
 51
71.0075561454972615
  0
ARC
  5
49489
  8
0
 10
2734.4363395297391435
 20
138.2580177824789018
 30
0.0
 40
0.0668568139093411
 50
359.0071342816539754
 51
36.9925369782248481
  0
ARC
  5
4948A
  8
0
 10
2731.8306059442120386
 20
138.303176475888904
 30
0.0
 40
2.6729816816654601
 50
324.9929357888071877
 51
359.0071342816539754
  0
ARC
  5
4948B
  8
0
 10
2733.965239394956825
 20
136.8080977834584075
 30
0.0
 40
0.0668503984032353
 50
287.0042122684723722
 51
324.992935788805994
  0
ARC
  5
4948C
  8
0
 10
2733.2026525438759563
 20
139.3017512784497001
 30
0.0
 40
2.6745019200836571
 50
275.3706626915910078
 51
287.0042122684723722
  0
ARC
  5
4948D
  8
0
 10
2732.8744435677631373
 20
137.2733719564971864
 30
0.0
 40
0.0785225617977461
 50
0.2086695402593067
 51
72.0607246253280067
  0
LINE
  5
4948E
  8
0
 10
2732.9529656088011507
 20
137.2736579327207096
 30
0.0
 11
2732.9529656088011507
 21
136.4119353752207076
 31
0.0
  0
ARC
  5
4948F
  8
0
 10
2732.9805246639011784
 20
136.4119353752207076
 30
0.0
 40
0.0275590551000065
 50
180.0
 51
224.9999999998834141
  0
LINE
  5
49490
  8
0
 10
2732.9610374691569632
 20
136.3924481804764071
 30
0.0
 11
2733.0038937484118833
 21
136.3495919012206059
 31
0.0
  0
ARC
  5
49491
  8
0
 10
2733.0238860696931624
 20
136.3695842225014019
 30
0.0
 40
0.0282734118986584
 50
224.9999999998831015
 51
263.0252457237348835
  0
LINE
  5
49492
  8
0
 10
2733.4529656088020602
 20
137.2736579327207096
 30
0.0
 11
2733.4529656088020602
 21
136.4119353752207076
 31
0.0
  0
ARC
  5
49493
  8
0
 10
2733.4254065537011229
 20
136.4119353752207076
 30
0.0
 40
0.0275590551000065
 50
315.0000000001165859
 51
0.0
  0
LINE
  5
49494
  8
0
 10
2733.4448937484448834
 20
136.3924481804764071
 30
0.0
 11
2733.4020374691899633
 21
136.3495919012206059
 31
0.0
  0
ARC
  5
49495
  8
0
 10
2733.3820451479091389
 20
136.3695842225014019
 30
0.0
 40
0.0282734118986584
 50
276.9747542762651165
 51
315.0000000001169269
  0
LINE
  5
49496
  8
0
 10
2733.2029547933721005
 20
137.308583704369795
 30
0.0
 11
2733.2029547933721005
 21
136.3415200408207113
 31
0.0
  0
LINE
  5
49497
  8
0
 10
2732.9529656088011507
 20
136.4119353752207076
 30
0.0
 11
2733.4529656088020602
 21
136.4119353752207076
 31
0.0
  0
ARC
  5
49498
  8
0
 10
2733.2029657003881766
 20
138.2949396335864947
 30
0.0
 40
0.0561917291337171
 50
77.6719586485798033
 51
102.3302900598251028
  0
ARC
  5
49499
  8
0
 10
2733.5813063943351153
 20
137.3365286240751004
 30
0.0
 40
1.085889355513963
 50
111.0674025917312946
 51
140.9325810659794058
  0
ARC
  5
4949A
  8
0
 10
2732.7867176331978953
 20
137.992517298205712
 30
0.0
 40
0.0561921735047658
 50
149.6696935978771137
 51
174.3306236587112039
  0
ARC
  5
4949B
  8
0
 10
2733.8151336513469687
 20
138.0561754638634113
 30
0.0
 40
1.0858891275279321
 50
183.0674219683639024
 51
212.9326994828396096
  0
ARC
  5
4949C
  8
0
 10
2732.9457008005279022
 20
137.5031769060458942
 30
0.0
 40
0.0561779082027815
 50
221.6694977924861973
 51
246.3347484044496127
  0
ARC
  5
4949D
  8
0
 10
2733.2029656088011507
 20
138.5009418314207039
 30
0.0
 40
1.085889356199998
 50
255.0674326343888083
 51
284.9325859189889911
  0
ARC
  5
4949E
  8
0
 10
2733.4602330813049775
 20
137.5031716473000927
 30
0.0
 40
0.0561720756692981
 50
293.665270148967295
 51
318.3350015689929933
  0
ARC
  5
4949F
  8
0
 10
2732.5907973576408949
 20
138.0561755629844924
 30
0.0
 40
1.0858893565628129
 50
327.0674224450514203
 51
356.9325859169630917
  0
ARC
  5
494A0
  8
0
 10
2733.6192338250489229
 20
137.9925238457327907
 30
0.0
 40
0.0561714364893251
 50
5.6650067930210337
 51
30.3347060350892015
  0
ARC
  5
494A1
  8
0
 10
2732.8246248229920639
 20
137.3365286234107998
 30
0.0
 40
1.0858893562134431
 50
39.0674052558873726
 51
68.9327034030859522
  0
LINE
  5
494A2
  8
0
 10
2733.2029659812828868
 20
138.4650250297509047
 30
0.0
 11
2733.2029659812828868
 21
138.3511313627195136
 31
0.0
  0
LINE
  5
494A3
  8
0
 10
2732.6249564756471955
 20
138.0450769541025977
 30
0.0
 11
2732.733275652346947
 21
138.0098814868109116
 31
0.0
  0
LINE
  5
494A4
  8
0
 10
2733.7809748930471869
 20
138.0450762580348965
 30
0.0
 11
2733.6726560790830263
 21
138.009881640848306
 31
0.0
  0
LINE
  5
494A5
  8
0
 10
2733.5021961174011267
 20
137.4658299054206907
 30
0.0
 11
2733.5711243495861709
 21
137.3774437360314096
 31
0.0
  0
LINE
  5
494A6
  8
0
 10
2732.9126819387151954
 20
137.4577268000543029
 30
0.0
 11
2732.8457364286318807
 21
137.3655860087129099
 31
0.0
  0
ARC
  5
494A7
  8
0
 10
2733.5314309905861592
 20
137.2734203422575092
 30
0.0
 40
0.0784657414909618
 50
107.9258234655726056
 51
179.8265108907856984
  0
LINE
  5
494A8
  8
0
 10
2721.3920943202710987
 20
139.305312066385909
 30
0.0
 11
2721.3920943202710987
 21
128.9072357638000028
 31
0.0
  0
LINE
  5
494A9
  8
0
 10
2717.2031817382999179
 20
137.5777685573551992
 30
0.0
 11
2717.2031817382999179
 21
138.1367469117552105
 31
0.0
  0
LINE
  5
494AA
  8
0
 10
2717.1516794674321318
 20
137.6292816326150046
 30
0.0
 11
2717.1516794674321318
 21
138.0852458958588045
 31
0.0
  0
LINE
  5
494AB
  8
0
 10
2717.1605817383001522
 20
137.5351685573552061
 30
0.0
 11
2715.9354836780698861
 21
137.5351685573552061
 31
0.0
  0
LINE
  5
494AC
  8
0
 10
2717.1605817383001522
 20
138.1793469117552036
 30
0.0
 11
2715.9354836780698861
 21
138.1793469117552036
 31
0.0
  0
ARC
  5
494AD
  8
0
 10
2717.1605817383001522
 20
137.5777685573551992
 30
0.0
 40
0.0426
 50
270.0
 51
0.0
  0
ARC
  5
494AE
  8
0
 10
2717.1605817383001522
 20
138.1367469117552105
 30
0.0
 40
0.0426
 50
359.9999999999951115
 51
90.0
  0
LINE
  5
494AF
  8
0
 10
2717.1090794674319113
 20
138.1278458958587976
 30
0.0
 11
2715.880755571311056
 21
138.1278458958587976
 31
0.0
  0
LINE
  5
494B0
  8
0
 10
2717.1090794674319113
 20
137.5866816326150115
 30
0.0
 11
2715.880755571311056
 21
137.5866816326150115
 31
0.0
  0
ARC
  5
494B1
  8
0
 10
2717.1090794674319113
 20
137.6292816326150046
 30
0.0
 40
0.0426
 50
270.0
 51
0.0
  0
ARC
  5
494B2
  8
0
 10
2717.1090794674319113
 20
138.0852458958588045
 30
0.0
 40
0.0426
 50
359.9999999999951115
 51
90.0
  0
LINE
  5
494B3
  8
0
 10
2717.1392022163108777
 20
138.1153686447372877
 30
0.0
 11
2717.1865548264490826
 21
138.1705131477314978
 31
0.0
  0
LINE
  5
494B4
  8
0
 10
2717.1907044871782091
 20
137.5476458084766875
 30
0.0
 11
2717.1392022163108777
 21
137.5991588837364077
 31
0.0
  0
LINE
  5
494B5
  8
0
 10
2715.8086836780707927
 20
137.4083685573552032
 30
0.0
 11
2715.8086836780707927
 21
136.1832685573552908
 31
0.0
  0
LINE
  5
494B6
  8
0
 10
2715.8086836780707927
 20
138.3061469117552065
 30
0.0
 11
2715.8086836780707927
 21
139.5312469117552041
 31
0.0
  0
LINE
  5
494B7
  8
0
 10
2715.766083678071027
 20
136.1406685573552124
 30
0.0
 11
2715.2070813405712215
 21
136.1406685573552124
 31
0.0
  0
ARC
  5
494B8
  8
0
 10
2715.9354836780698861
 20
137.4083685573552884
 30
0.0
 40
0.1268
 50
90.0
 51
180.0000000000032117
  0
ARC
  5
494B9
  8
0
 10
2715.9354836780698861
 20
138.3061469117552065
 30
0.0
 40
0.1268
 50
179.9999999999984084
 51
270.0
  0
LINE
  5
494BA
  8
0
 10
2715.7539555713101436
 20
138.2546458958588005
 30
0.0
 11
2715.7539555713101436
 21
139.4797480984321965
 31
0.0
  0
LINE
  5
494BB
  8
0
 10
2715.7539555713101436
 20
137.4598816326148949
 30
0.0
 11
2715.7539555713101436
 21
136.2347805535752059
 31
0.0
  0
ARC
  5
494BC
  8
0
 10
2715.880755571311056
 20
137.4598816326148949
 30
0.0
 40
0.1268
 50
90.0
 51
180.0000000000015916
  0
ARC
  5
494BD
  8
0
 10
2715.880755571311056
 20
138.2546458958588005
 30
0.0
 40
0.1268
 50
180.0000000000048885
 51
270.0
  0
LINE
  5
494BE
  8
0
 10
2715.7113555713099231
 20
136.1921805535752128
 30
0.0
 11
2715.2618094473300516
 21
136.1921805535752128
 31
0.0
  0
LINE
  5
494BF
  8
0
 10
2715.7113555713099231
 20
139.5223480984321895
 30
0.0
 11
2715.2618094473300516
 21
139.5223480984321895
 31
0.0
  0
ARC
  5
494C0
  8
0
 10
2715.766083678071027
 20
136.1832685573552908
 30
0.0
 40
0.0426
 50
270.0
 51
0.0
  0
ARC
  5
494C1
  8
0
 10
2715.7113555713099231
 20
136.2347805535752059
 30
0.0
 40
0.0426
 50
270.0
 51
0.0
  0
LINE
  5
494C2
  8
0
 10
2715.766083678071027
 20
139.5738469117551972
 30
0.0
 11
2715.2070813405712215
 21
139.5738469117551972
 31
0.0
  0
ARC
  5
494C3
  8
0
 10
2715.7113555713099231
 20
139.4797480984321965
 30
0.0
 40
0.0426
 50
0.0
 51
90.0
  0
ARC
  5
494C4
  8
0
 10
2715.766083678071027
 20
139.5312469117552041
 30
0.0
 40
0.0426
 50
359.9999999999951115
 51
90.0
  0
LINE
  5
494C5
  8
0
 10
2713.7699813405711211
 20
137.5777685573551992
 30
0.0
 11
2713.7699813405711211
 21
138.1367469117552105
 31
0.0
  0
LINE
  5
494C6
  8
0
 10
2713.8214836114389072
 20
137.6292816326150046
 30
0.0
 11
2713.8214836114389072
 21
138.0852458958588045
 31
0.0
  0
LINE
  5
494C7
  8
0
 10
2713.8125813405717963
 20
137.5351685573552061
 30
0.0
 11
2715.0376813405709981
 21
137.5351685573552061
 31
0.0
  0
LINE
  5
494C8
  8
0
 10
2713.8125813405717963
 20
138.1793469117552036
 30
0.0
 11
2715.0376813405709981
 21
138.1793469117552036
 31
0.0
  0
ARC
  5
494C9
  8
0
 10
2713.8125813405717963
 20
137.5777685573551992
 30
0.0
 40
0.0426
 50
180.0
 51
270.0
  0
ARC
  5
494CA
  8
0
 10
2713.8125813405717963
 20
138.1367469117552105
 30
0.0
 40
0.0426
 50
90.0
 51
180.0000000000048885
  0
LINE
  5
494CB
  8
0
 10
2713.8640836114391277
 20
138.1278458958587976
 30
0.0
 11
2715.0924094473311925
 21
138.1278458958587976
 31
0.0
  0
LINE
  5
494CC
  8
0
 10
2713.8640836114391277
 20
137.5866816326150115
 30
0.0
 11
2715.0924094473311925
 21
137.5866816326150115
 31
0.0
  0
ARC
  5
494CD
  8
0
 10
2713.8640836114391277
 20
137.6292816326150046
 30
0.0
 40
0.0426
 50
180.0
 51
270.0
  0
ARC
  5
494CE
  8
0
 10
2713.8640836114391277
 20
138.0852458958588045
 30
0.0
 40
0.0426
 50
90.0
 51
180.0000000000048885
  0
LINE
  5
494CF
  8
0
 10
2713.8339608625601613
 20
138.1153686447372877
 30
0.0
 11
2713.7866082524228659
 21
138.1705131477314978
 31
0.0
  0
LINE
  5
494D0
  8
0
 10
2713.7824585916928299
 20
137.5476458084766875
 30
0.0
 11
2713.8339608625601613
 21
137.5991588837364077
 31
0.0
  0
LINE
  5
494D1
  8
0
 10
2715.1644813405710011
 20
137.4083685573552032
 30
0.0
 11
2715.1644813405710011
 21
136.1832685573552908
 31
0.0
  0
LINE
  5
494D2
  8
0
 10
2715.1644813405710011
 20
138.3061469117552065
 30
0.0
 11
2715.1644813405710011
 21
139.5312469117552041
 31
0.0
  0
ARC
  5
494D3
  8
0
 10
2715.0376813405709981
 20
137.4083685573552884
 30
0.0
 40
0.1268
 50
359.9999999999968168
 51
90.0
  0
ARC
  5
494D4
  8
0
 10
2715.0376813405709981
 20
138.3061469117552065
 30
0.0
 40
0.1268
 50
270.0
 51
0.0000000000016284
  0
LINE
  5
494D5
  8
0
 10
2715.2192094473311954
 20
138.2546458958588005
 30
0.0
 11
2715.2192094473311954
 21
139.4797480984321965
 31
0.0
  0
LINE
  5
494D6
  8
0
 10
2715.2192094473311954
 20
137.4598816326148949
 30
0.0
 11
2715.2192094473311954
 21
136.2347805535752059
 31
0.0
  0
ARC
  5
494D7
  8
0
 10
2715.0924094473311925
 20
137.4598816326148949
 30
0.0
 40
0.1268
 50
359.9999999999984084
 51
90.0
  0
ARC
  5
494D8
  8
0
 10
2715.0924094473311925
 20
138.2546458958588005
 30
0.0
 40
0.1268
 50
270.0
 51
359.9999999999951115
  0
ARC
  5
494D9
  8
0
 10
2715.2070813405712215
 20
136.1832685573552908
 30
0.0
 40
0.0426
 50
180.0
 51
270.0
  0
ARC
  5
494DA
  8
0
 10
2715.2618094473300516
 20
136.2347805535752059
 30
0.0
 40
0.0426
 50
180.0
 51
270.0
  0
ARC
  5
494DB
  8
0
 10
2715.2618094473300516
 20
139.4797480984321965
 30
0.0
 40
0.0426
 50
90.0
 51
180.0
  0
ARC
  5
494DC
  8
0
 10
2715.2070813405712215
 20
139.5312469117552041
 30
0.0
 40
0.0426
 50
90.0
 51
180.0000000000048885
  0
LINE
  5
494DD
  8
0
 10
2715.1769585916908909
 20
136.1531458084766939
 30
0.0
 11
2715.2316866984519947
 21
136.2046578046966943
 31
0.0
  0
LINE
  5
494DE
  8
0
 10
2715.7962064269490838
 20
136.1531458084766939
 30
0.0
 11
2715.7414783201888895
 21
136.2046578046966943
 31
0.0
  0
LINE
  5
494DF
  8
0
 10
2715.2316866984519947
 20
139.5098708473107934
 30
0.0
 11
2715.1769585916908909
 21
139.561369660633801
 31
0.0
  0
LINE
  5
494E0
  8
0
 10
2715.7414783201888895
 20
139.5098708473107934
 30
0.0
 11
2715.7982427478209502
 21
139.5591853124390127
 31
0.0
  0
ARC
  5
494E1
  8
0
 10
2716.2934375819240813
 20
136.7270897239096996
 30
0.0
 40
2.613500913914915
 50
115.5927011328350034
 51
143.3086220015622132
  0
ARC
  5
494E2
  8
0
 10
2714.2258105546388833
 20
138.2648927990009895
 30
0.0
 40
0.0367700806786103
 50
139.7144314578075921
 51
184.285586619989914
  0
ARC
  5
494E3
  8
0
 10
2776.0369167889230084
 20
140.1305048049185871
 30
0.0
 40
61.8759877144506518
 50
181.7303223155514047
 51
181.8070280868934105
  0
LINE
  5
494E4
  8
0
 10
2714.1908354700899508
 20
138.2762410276702099
 30
0.0
 11
2714.4855065086808281
 21
138.1793708948551966
 31
0.0
  0
ARC
  5
494E5
  8
0
 10
2714.6797274367168029
 20
136.7270897239096996
 30
0.0
 40
2.613500913914915
 50
36.6913779984378081
 51
64.4072988671650108
  0
ARC
  5
494E6
  8
0
 10
2716.7473544640029104
 20
138.2648927990009895
 30
0.0
 40
0.0367700806786103
 50
355.7144133800097165
 51
40.2855685421923866
  0
ARC
  5
494E7
  8
0
 10
2654.9362482297178758
 20
140.1305048049185871
 30
0.0
 40
61.8759877144506518
 50
358.1929719131057936
 51
358.2696776844476858
  0
LINE
  5
494E8
  8
0
 10
2716.7823295485518429
 20
138.2762410276702099
 30
0.0
 11
2716.4876585099609656
 21
138.1793708948551966
 31
0.0
  0
ARC
  5
494E9
  8
0
 10
2716.8164481509488724
 20
138.2847071649493955
 30
0.0
 40
2.6235921980404511
 50
196.6002013541848896
 51
215.2288011716593985
  0
ARC
  5
494EA
  8
0
 10
2714.7103711066920368
 20
136.7974471866484123
 30
0.0
 40
0.0453170460444161
 50
215.2288011716590859
 51
251.886955409623198
  0
ARC
  5
494EB
  8
0
 10
2715.4815391759148042
 20
139.3157319356903088
 30
0.0
 40
2.6790247057801988
 50
252.9555844339946873
 51
263.2032161124126901
  0
LINE
  5
494EC
  8
0
 10
2714.6834523075999641
 20
136.7609915572114971
 30
0.0
 11
2715.1637250326730282
 21
137.4221970670886037
 31
0.0
  0
ARC
  5
494ED
  8
0
 10
2714.1567168676929214
 20
138.2847071649493955
 30
0.0
 40
2.6235921980404511
 50
324.7711988283405731
 51
343.3997986458149967
  0
ARC
  5
494EE
  8
0
 10
2716.2627939119488474
 20
136.7974471866484123
 30
0.0
 40
0.0453170460444161
 50
288.1130445903767736
 51
324.7711988283409141
  0
ARC
  5
494EF
  8
0
 10
2715.4916258427269895
 20
139.3157319356903088
 30
0.0
 40
2.6790247057801988
 50
276.7967838875873099
 51
287.0444155660052274
  0
LINE
  5
494F0
  8
0
 10
2716.2897127110409201
 20
136.7609915572114971
 30
0.0
 11
2715.8094399859701298
 21
137.4221970670886037
 31
0.0
  0
LINE
  5
494F1
  8
0
 10
2720.7721092017268347
 20
138.0470710130917098
 30
0.0
 11
2720.7721092017268347
 21
129.3682336761424949
 31
0.0
  0
ARC
  5
494F2
  8
0
 10
2720.0609294926412076
 20
138.290320830150506
 30
0.0
 40
0.0483167734657641
 50
143.2839382067259919
 51
180.1967213532230971
  0
ARC
  5
494F3
  8
0
 10
2722.2954791997221946
 20
136.6126440804931974
 30
0.0
 40
2.8425627037929249
 50
108.8587192227864051
 51
143.1042649375878
  0
ARC
  5
494F4
  8
0
 10
2721.3920946843968522
 20
139.2598275687151101
 30
0.0
 40
0.0454844976722851
 50
70.1430636235457996
 51
109.8346622483926041
  0
ARC
  5
494F5
  8
0
 10
2721.3696416727748328
 20
139.3277413563637026
 30
0.0
 40
2.7712821435191528
 50
252.9058042093544998
 51
257.5483371734550815
  0
ARC
  5
494F6
  8
0
 10
2720.5673586839939162
 20
136.7221188218869941
 30
0.0
 40
0.0449525714488575
 50
216.268165722198404
 51
254.0970696768634127
  0
ARC
  5
494F7
  8
0
 10
2722.8646182279608183
 20
138.3358891301679137
 30
0.0
 40
2.8523718926595301
 50
180.918705056470003
 51
215.1057421556778024
  0
LINE
  5
494F8
  8
0
 10
2720.0151735608978925
 20
138.3058419547359961
 30
0.0
 11
2720.7743581846862071
 21
138.0579835923269911
 31
0.0
  0
ARC
  5
494F9
  8
0
 10
2720.8196313875168926
 20
138.041841554848105
 30
0.0
 40
0.0480648340118195
 50
146.970515670283703
 51
173.6376502444917946
  0
ARC
  5
494FA
  8
0
 10
2721.6986248359671663
 20
137.435366676394608
 30
0.0
 40
1.115961905479834
 50
106.5363069963004961
 51
145.4634960922959124
  0
ARC
  5
494FB
  8
0
 10
2721.3920903809871561
 20
138.4678067553494998
 30
0.0
 40
0.0389772775850121
 50
73.4513097792808338
 51
106.5363069963004961
  0
LINE
  5
494FC
  8
0
 10
2720.5424257578720244
 20
136.6847145056266868
 30
0.0
 11
2720.7721092017268347
 21
137.0020908361636884
 31
0.0
  0
ARC
  5
494FD
  8
0
 10
2720.760422037934859
 20
138.7271434628266888
 30
0.0
 40
0.1617953838235866
 50
126.9000595720682014
 51
146.2892404559360102
  0
ARC
  5
494FE
  8
0
 10
2720.7719826762859157
 20
138.7194303385078911
 30
0.0
 40
0.1756928888451832
 50
146.2892404559360102
 51
174.0539524433204122
  0
ARC
  5
494FF
  8
0
 10
2720.7631284293838689
 20
138.7203525285027013
 30
0.0
 40
0.166790747385265
 50
174.0539524433204122
 51
199.0180215802778889
  0
ARC
  5
49500
  8
0
 10
2720.7001909131181492
 20
138.698659258175411
 30
0.0
 40
0.1002195153753045
 50
199.0180215802768089
 51
219.626821250825401
  0
ARC
  5
49501
  8
0
 10
2720.6967268329799481
 20
138.6957907894081075
 30
0.0
 40
0.095721964456344
 50
219.626821250825401
 51
252.7154192544298894
  0
ARC
  5
49502
  8
0
 10
2720.6993395572458212
 20
138.7166011018381937
 30
0.0
 40
0.1164272249850828
 50
254.5308368671832113
 51
280.979714877314791
  0
ARC
  5
49503
  8
0
 10
2720.6781583715751367
 20
138.82577520320541
 30
0.0
 40
0.2276370583441663
 50
280.979714877314791
 51
303.8191871874610115
  0
ARC
  5
49504
  8
0
 10
2720.6171450444021502
 20
138.9168498321691061
 30
0.0
 40
0.3372601130980433
 50
303.8191871874610115
 51
317.1501209447282008
  0
ARC
  5
49505
  8
0
 10
2720.7436401710901919
 20
138.7995093466169862
 30
0.0
 40
0.1647208230065801
 50
317.1501209447282008
 51
344.0780381087631099
  0
ARC
  5
49506
  8
0
 10
2720.8158716996617841
 20
138.7789037176856937
 30
0.0
 40
0.0896076706061912
 50
344.0780381087641899
 51
25.5140878377373603
  0
ARC
  5
49507
  8
0
 10
2720.7596520845418127
 20
138.7274784041574094
 30
0.0
 40
0.161065774006176
 50
107.7319508624825062
 51
126.7525692919052034
  0
ARC
  5
49508
  8
0
 10
2720.7637247599382135
 20
138.7147415523772054
 30
0.0
 40
0.1744379121356795
 50
78.315565704124154
 51
107.7319508624825062
  0
ARC
  5
49509
  8
0
 10
2720.7649005698158362
 20
138.7204271015924917
 30
0.0
 40
0.1686320531337825
 50
53.5507587216358232
 51
78.315565704124154
  0
ARC
  5
4950A
  8
0
 10
2720.8045641016688023
 20
138.7741287201482123
 30
0.0
 40
0.1018708398843262
 50
25.1984368504426683
 51
53.5507587216367327
  0
ARC
  5
4950B
  8
0
 10
2721.3920926489131489
 20
128.946321174574507
 30
0.0
 40
0.0390854108102567
 50
253.4949518054772
 51
286.5034641209425104
  0
ARC
  5
4950C
  8
0
 10
2721.6975307332550074
 20
129.9771293448939957
 30
0.0
 40
1.1141937343591839
 50
214.5036133508176022
 51
253.4949518054772
  0
ARC
  5
4950D
  8
0
 10
2720.8132461639052053
 20
129.3692952855799092
 30
0.0
 40
0.0411506582185268
 50
181.4782871509202948
 51
214.5036133508176022
  0
LINE
  5
4950F
  8
0
 10
2722.0120799884289227
 20
138.0470710130917098
 30
0.0
 11
2722.0120799884289227
 21
129.3682336761424949
 31
0.0
  0
ARC
  5
49510
  8
0
 10
2722.723259697515914
 20
138.290320830150506
 30
0.0
 40
0.0483167734657641
 50
359.8032786467769029
 51
36.7160617932739726
  0
ARC
  5
49511
  8
0
 10
2720.4887099904340175
 20
136.6126440804931974
 30
0.0
 40
2.8425627037929249
 50
36.8957350624121432
 51
71.1412807772135807
  0
ARC
  5
49512
  8
0
 10
2721.3920945057589051
 20
139.2598275687151101
 30
0.0
 40
0.0454844976722851
 50
70.1653377516073959
 51
109.8569363764542004
  0
ARC
  5
49513
  8
0
 10
2721.414547517381834
 20
139.3277413563637026
 30
0.0
 40
2.7712821435191528
 50
282.4516628265449185
 51
287.0941957906454718
  0
ARC
  5
49514
  8
0
 10
2722.2168305061632054
 20
136.7221188218869941
 30
0.0
 40
0.0449525714488575
 50
285.9029303231366157
 51
326.0939043290613881
  0
ARC
  5
49515
  8
0
 10
2719.9195709621958486
 20
138.3358891301679137
 30
0.0
 40
2.8523718926595301
 50
324.9314807624713808
 51
359.0812949435301107
  0
LINE
  5
49516
  8
0
 10
2722.7690156292587744
 20
138.3058419547359961
 30
0.0
 11
2722.0098310054709145
 21
138.0579835923269911
 31
0.0
  0
ARC
  5
49517
  8
0
 10
2721.9645578026388648
 20
138.041841554848105
 30
0.0
 40
0.0480648340118195
 50
6.3623497555082267
 51
33.0294843297174125
  0
ARC
  5
49518
  8
0
 10
2721.0855643541899553
 20
137.435366676394608
 30
0.0
 40
1.115961905479834
 50
34.5365039077040521
 51
73.4636930036995324
  0
ARC
  5
49519
  8
0
 10
2721.392098809169056
 20
138.4678067553494998
 30
0.0
 40
0.0389772775850121
 50
73.4636930036995324
 51
106.5486902207190951
  0
LINE
  5
4951A
  8
0
 10
2722.2417634322850972
 20
136.6847145056266868
 30
0.0
 11
2722.0120799884289227
 21
137.0020908361636884
 31
0.0
  0
ARC
  5
4951B
  8
0
 10
2721.3920965412439728
 20
128.946321174574507
 30
0.0
 40
0.0390854108102567
 50
253.4965358790576033
 51
286.5050481945227716
  0
ARC
  5
4951C
  8
0
 10
2721.0866584569012048
 20
129.9771293448939957
 30
0.0
 40
1.1141937343591839
 50
286.5050481945227716
 51
325.4963866491821136
  0
ARC
  5
4951D
  8
0
 10
2721.9709430262510068
 20
129.3692952855799092
 30
0.0
 40
0.0411506582185268
 50
325.4963866491823978
 51
358.5217128490788809
  0
LINE
  5
4951E
  8
0
 10
2725.5810069022409152
 20
137.5777685573551992
 30
0.0
 11
2725.5810069022409152
 21
138.1367469117552105
 31
0.0
  0
LINE
  5
4951F
  8
0
 10
2725.6325091731091561
 20
137.6292816326150046
 30
0.0
 11
2725.6325091731091561
 21
138.0852458958588045
 31
0.0
  0
LINE
  5
49520
  8
0
 10
2725.6236069022411357
 20
137.5351685573552061
 30
0.0
 11
2726.8487049624709471
 21
137.5351685573552061
 31
0.0
  0
LINE
  5
49521
  8
0
 10
2725.6236069022411357
 20
138.1793469117552036
 30
0.0
 11
2726.8487049624709471
 21
138.1793469117552036
 31
0.0
  0
ARC
  5
49522
  8
0
 10
2725.6236069022411357
 20
137.5777685573551992
 30
0.0
 40
0.0426
 50
180.0
 51
270.0
  0
ARC
  5
49523
  8
0
 10
2725.6236069022411357
 20
138.1367469117552105
 30
0.0
 40
0.0426
 50
90.0
 51
180.0000000000048885
  0
LINE
  5
49524
  8
0
 10
2725.6751091731089218
 20
138.1278458958587976
 30
0.0
 11
2726.9034330692311414
 21
138.1278458958587976
 31
0.0
  0
LINE
  5
49525
  8
0
 10
2725.6751091731089218
 20
137.5866816326150115
 30
0.0
 11
2726.9034330692311414
 21
137.5866816326150115
 31
0.0
  0
ARC
  5
49526
  8
0
 10
2725.6751091731089218
 20
137.6292816326150046
 30
0.0
 40
0.0426
 50
180.0
 51
270.0
  0
ARC
  5
49527
  8
0
 10
2725.6751091731089218
 20
138.0852458958588045
 30
0.0
 40
0.0426
 50
90.0
 51
180.0000000000048885
  0
LINE
  5
49528
  8
0
 10
2725.6449864242308649
 20
138.1153686447372877
 30
0.0
 11
2725.5976338140922053
 21
138.1705131477314978
 31
0.0
  0
LINE
  5
49529
  8
0
 10
2725.5934841533630788
 20
137.5476458084766875
 30
0.0
 11
2725.6449864242308649
 21
137.5991588837364077
 31
0.0
  0
LINE
  5
4952A
  8
0
 10
2726.97550496247095
 20
137.4083685573552032
 30
0.0
 11
2726.97550496247095
 21
136.1832685573552908
 31
0.0
  0
LINE
  5
4952B
  8
0
 10
2726.97550496247095
 20
138.3061469117552065
 30
0.0
 11
2726.97550496247095
 21
139.5312469117552041
 31
0.0
  0
LINE
  5
4952C
  8
0
 10
2727.0181049624698062
 20
136.1406685573552124
 30
0.0
 11
2727.5771072999709759
 21
136.1406685573552124
 31
0.0
  0
ARC
  5
4952D
  8
0
 10
2726.8487049624709471
 20
137.4083685573552884
 30
0.0
 40
0.1268
 50
359.9999999999968168
 51
90.0
  0
ARC
  5
4952E
  8
0
 10
2726.8487049624709471
 20
138.3061469117552065
 30
0.0
 40
0.1268
 50
270.0
 51
0.0000000000016284
  0
LINE
  5
4952F
  8
0
 10
2727.0302330692311443
 20
138.2546458958588005
 30
0.0
 11
2727.0302330692311443
 21
139.4797480984321965
 31
0.0
  0
LINE
  5
49530
  8
0
 10
2727.0302330692311443
 20
137.4598816326148949
 30
0.0
 11
2727.0302330692311443
 21
136.2347805535752059
 31
0.0
  0
ARC
  5
49531
  8
0
 10
2726.9034330692311414
 20
137.4598816326148949
 30
0.0
 40
0.1268
 50
359.9999999999984084
 51
90.0
  0
ARC
  5
49532
  8
0
 10
2726.9034330692311414
 20
138.2546458958588005
 30
0.0
 40
0.1268
 50
270.0
 51
359.9999999999951115
  0
LINE
  5
49533
  8
0
 10
2727.07283306923091
 20
136.1921805535752128
 30
0.0
 11
2727.5223791932107815
 21
136.1921805535752128
 31
0.0
  0
LINE
  5
49534
  8
0
 10
2727.07283306923091
 20
139.5223480984321895
 30
0.0
 11
2727.5223791932107815
 21
139.5223480984321895
 31
0.0
  0
ARC
  5
49535
  8
0
 10
2727.0181049624698062
 20
136.1832685573552908
 30
0.0
 40
0.0426
 50
180.0
 51
270.0
  0
ARC
  5
49536
  8
0
 10
2727.07283306923091
 20
136.2347805535752059
 30
0.0
 40
0.0426
 50
180.0
 51
270.0
  0
LINE
  5
49537
  8
0
 10
2727.0181049624698062
 20
139.5738469117551972
 30
0.0
 11
2727.5771072999709759
 21
139.5738469117551972
 31
0.0
  0
ARC
  5
49538
  8
0
 10
2727.07283306923091
 20
139.4797480984321965
 30
0.0
 40
0.0426
 50
90.0
 51
180.0
  0
ARC
  5
49539
  8
0
 10
2727.0181049624698062
 20
139.5312469117552041
 30
0.0
 40
0.0426
 50
90.0
 51
180.0000000000048885
  0
LINE
  5
4953A
  8
0
 10
2729.0142072999710763
 20
137.5777685573551992
 30
0.0
 11
2729.0142072999710763
 21
138.1367469117552105
 31
0.0
  0
LINE
  5
4953B
  8
0
 10
2728.9627050291028354
 20
137.6292816326150046
 30
0.0
 11
2728.9627050291028354
 21
138.0852458958588045
 31
0.0
  0
LINE
  5
4953C
  8
0
 10
2728.9716072999699463
 20
137.5351685573552061
 30
0.0
 11
2727.7465072999711992
 21
137.5351685573552061
 31
0.0
  0
LINE
  5
4953D
  8
0
 10
2728.9716072999699463
 20
138.1793469117552036
 30
0.0
 11
2727.7465072999711992
 21
138.1793469117552036
 31
0.0
  0
ARC
  5
4953E
  8
0
 10
2728.9716072999699463
 20
137.5777685573551992
 30
0.0
 40
0.0426
 50
270.0
 51
0.0
  0
ARC
  5
4953F
  8
0
 10
2728.9716072999699463
 20
138.1367469117552105
 30
0.0
 40
0.0426
 50
359.9999999999951115
 51
90.0
  0
LINE
  5
49540
  8
0
 10
2728.9201050291021602
 20
138.1278458958587976
 30
0.0
 11
2727.6917791932110049
 21
138.1278458958587976
 31
0.0
  0
LINE
  5
49541
  8
0
 10
2728.9201050291021602
 20
137.5866816326150115
 30
0.0
 11
2727.6917791932110049
 21
137.5866816326150115
 31
0.0
  0
ARC
  5
49542
  8
0
 10
2728.9201050291021602
 20
137.6292816326150046
 30
0.0
 40
0.0426
 50
270.0
 51
0.0
  0
ARC
  5
49543
  8
0
 10
2728.9201050291021602
 20
138.0852458958588045
 30
0.0
 40
0.0426
 50
359.9999999999951115
 51
90.0
  0
LINE
  5
49544
  8
0
 10
2728.9502277779811266
 20
138.1153686447372877
 30
0.0
 11
2728.9975803881188767
 21
138.1705131477314978
 31
0.0
  0
LINE
  5
49545
  8
0
 10
2729.0017300488489127
 20
137.5476458084766875
 30
0.0
 11
2728.9502277779811266
 21
137.5991588837364077
 31
0.0
  0
LINE
  5
49546
  8
0
 10
2727.6197072999711963
 20
137.4083685573552032
 30
0.0
 11
2727.6197072999711963
 21
136.1832685573552908
 31
0.0
  0
LINE
  5
49547
  8
0
 10
2727.6197072999711963
 20
138.3061469117552065
 30
0.0
 11
2727.6197072999711963
 21
139.5312469117552041
 31
0.0
  0
ARC
  5
49548
  8
0
 10
2727.7465072999711992
 20
137.4083685573552884
 30
0.0
 40
0.1268
 50
90.0
 51
180.0000000000032117
  0
ARC
  5
49549
  8
0
 10
2727.7465072999711992
 20
138.3061469117552065
 30
0.0
 40
0.1268
 50
179.9999999999984084
 51
270.0
  0
LINE
  5
4954A
  8
0
 10
2727.564979193211002
 20
138.2546458958588005
 30
0.0
 11
2727.564979193211002
 21
139.4797480984321965
 31
0.0
  0
LINE
  5
4954B
  8
0
 10
2727.564979193211002
 20
137.4598816326148949
 30
0.0
 11
2727.564979193211002
 21
136.2347805535752059
 31
0.0
  0
ARC
  5
4954C
  8
0
 10
2727.6917791932110049
 20
137.4598816326148949
 30
0.0
 40
0.1268
 50
90.0
 51
180.0000000000015916
  0
ARC
  5
4954D
  8
0
 10
2727.6917791932110049
 20
138.2546458958588005
 30
0.0
 40
0.1268
 50
180.0000000000048885
 51
270.0
  0
ARC
  5
4954E
  8
0
 10
2727.5771072999709759
 20
136.1832685573552908
 30
0.0
 40
0.0426
 50
270.0
 51
0.0
  0
ARC
  5
4954F
  8
0
 10
2727.5223791932107815
 20
136.2347805535752059
 30
0.0
 40
0.0426
 50
270.0
 51
0.0
  0
ARC
  5
49550
  8
0
 10
2727.5223791932107815
 20
139.4797480984321965
 30
0.0
 40
0.0426
 50
0.0
 51
90.0
  0
ARC
  5
49551
  8
0
 10
2727.5771072999709759
 20
139.5312469117552041
 30
0.0
 40
0.0426
 50
359.9999999999951115
 51
90.0
  0
LINE
  5
49552
  8
0
 10
2727.6072300488499422
 20
136.1531458084766939
 30
0.0
 11
2727.5525019420902026
 21
136.2046578046966943
 31
0.0
  0
LINE
  5
49553
  8
0
 10
2726.9879822135922041
 20
136.1531458084766939
 30
0.0
 11
2727.0427103203528532
 21
136.2046578046966943
 31
0.0
  0
LINE
  5
49554
  8
0
 10
2727.5525019420902026
 20
139.5098708473107934
 30
0.0
 11
2727.6072300488499422
 21
139.561369660633801
 31
0.0
  0
LINE
  5
49555
  8
0
 10
2727.0427103203528532
 20
139.5098708473107934
 30
0.0
 11
2726.985945892719883
 21
139.5591853124390127
 31
0.0
  0
ARC
  5
49556
  8
0
 10
2726.4907510586181161
 20
136.7270897239096996
 30
0.0
 40
2.613500913914915
 50
36.6913779984378081
 51
64.4072988671650108
  0
ARC
  5
49557
  8
0
 10
2728.5583780859028593
 20
138.2648927990009895
 30
0.0
 40
0.0367700806786103
 50
355.7144133800097165
 51
40.2855685421923866
  0
ARC
  5
49558
  8
0
 10
2666.7472718516178247
 20
140.1305048049185871
 30
0.0
 40
61.8759877144506518
 50
358.1929719131057936
 51
358.2696776844476858
  0
LINE
  5
49559
  8
0
 10
2728.5933531704517918
 20
138.2762410276702099
 30
0.0
 11
2728.2986821318609145
 21
138.1793708948551966
 31
0.0
  0
ARC
  5
4955A
  8
0
 10
2728.1044612038240302
 20
136.7270897239096996
 30
0.0
 40
2.613500913914915
 50
115.5927011328350034
 51
143.3086220015622132
  0
ARC
  5
4955B
  8
0
 10
2726.0368341765388323
 20
138.2648927990009895
 30
0.0
 40
0.0367700806786103
 50
139.7144314578075921
 51
184.285586619989914
  0
ARC
  5
4955C
  8
0
 10
2787.8479404108229573
 20
140.1305048049185871
 30
0.0
 40
61.8759877144506518
 50
181.7303223155514047
 51
181.8070280868934105
  0
LINE
  5
4955D
  8
0
 10
2726.0018590919898998
 20
138.2762410276702099
 30
0.0
 11
2726.296530130580777
 21
138.1793708948551966
 31
0.0
  0
ARC
  5
4955E
  8
0
 10
2725.9677404895928703
 20
138.2847071649493955
 30
0.0
 40
2.6235921980404511
 50
324.7711988283405731
 51
343.3997986458149967
  0
ARC
  5
4955F
  8
0
 10
2728.0738175338487963
 20
136.7974471866484123
 30
0.0
 40
0.0453170460444161
 50
288.1130445903767736
 51
324.7711988283409141
  0
ARC
  5
49560
  8
0
 10
2727.3026494646269384
 20
139.3157319356903088
 30
0.0
 40
2.6790247057801988
 50
276.7967838875873099
 51
287.0444155660052274
  0
LINE
  5
49561
  8
0
 10
2728.100736332940869
 20
136.7609915572114971
 30
0.0
 11
2727.6204636078691692
 21
137.4221970670886037
 31
0.0
  0
ARC
  5
49562
  8
0
 10
2728.6274717728488213
 20
138.2847071649493955
 30
0.0
 40
2.6235921980404511
 50
196.6002013541848896
 51
215.2288011716593985
  0
ARC
  5
49563
  8
0
 10
2726.5213947285919858
 20
136.7974471866484123
 30
0.0
 40
0.0453170460444161
 50
215.2288011716590859
 51
251.886955409623198
  0
ARC
  5
49564
  8
0
 10
2727.2925627978138436
 20
139.3157319356903088
 30
0.0
 40
2.6790247057801988
 50
252.9555844339946873
 51
263.2032161124126901
  0
LINE
  5
49565
  8
0
 10
2726.4944759295008225
 20
136.7609915572114971
 30
0.0
 11
2726.9747486545720676
 21
137.4221970670886037
 31
0.0
  0
ENDSEC
  0
EOF
