  0
SECTION
  2
HEADER
  9
$ACADVER
  1
AC1009
  9
$INSBASE
 10
4211.0635701441733545
 20
181.5972143068104003
 30
0.0
  9
$EXTMIN
 10
4205.3403484776654295
 20
179.8012910354825067
 30
-0.0000000000112498
  9
$EXTMAX
 10
4216.9221126093198109
 20
183.2545448523206915
 30
0.0000000000002956
  9
$LIMMIN
 10
0.0
 20
0.0
  9
$LIMMAX
 10
11.6929133858000007
 20
8.2677165353999982
  9
$ORTHOMODE
 70
     1
  9
$REGENMODE
 70
     1
  9
$FILLMODE
 70
     1
  9
$QTEXTMODE
 70
     0
  9
$MIRRTEXT
 70
     0
  9
$DRAGMODE
 70
     2
  9
$LTSCALE
 40
0.6431102362
  9
$OSMODE
 70
  4095
  9
$ATTMODE
 70
     1
  9
$TEXTSIZE
 40
0.2
  9
$TRACEWID
 40
0.05
  9
$TEXTSTYLE
  7
STANDARD
  9
$CLAYER
  8
0
  9
$CELTYPE
  6
BYLAYER
  9
$CECOLOR
 62
   256
  9
$DIMSCALE
 40
1.0
  9
$DIMASZ
 40
0.1875
  9
$DIMEXO
 40
0.0625
  9
$DIMDLI
 40
0.4443307087
  9
$DIMRND
 40
0.0
  9
$DIMDLE
 40
0.0
  9
$DIMEXE
 40
0.125
  9
$DIMTP
 40
0.01
  9
$DIMTM
 40
0.01
  9
$DIMTXT
 40
2.0
  9
$DIMCEN
 40
0.1052362205
  9
$DIMTSZ
 40
0.0
  9
$DIMTOL
 70
     1
  9
$DIMLIM
 70
     0
  9
$DIMTIH
 70
     1
  9
$DIMTOH
 70
     1
  9
$DIMSE1
 70
     0
  9
$DIMSE2
 70
     0
  9
$DIMTAD
 70
     0
  9
$DIMZIN
 70
     0
  9
$DIMBLK
  1

  9
$DIMASO
 70
     1
  9
$DIMSHO
 70
     1
  9
$DIMPOST
  1
\X
  9
$DIMAPOST
  1

  9
$DIMALT
 70
     1
  9
$DIMALTD
 70
     2
  9
$DIMALTF
 40
25.3999999999999986
  9
$DIMLFAC
 40
1.0
  9
$DIMTOFL
 70
     0
  9
$DIMTVP
 40
0.0
  9
$DIMTIX
 70
     0
  9
$DIMSOXD
 70
     0
  9
$DIMSAH
 70
     0
  9
$DIMBLK1
  1

  9
$DIMBLK2
  1

  9
$DIMSTYLE
  2
STANDARD
  9
$DIMCLRD
 70
     0
  9
$DIMCLRE
 70
     0
  9
$DIMCLRT
 70
     0
  9
$DIMTFAC
 40
1.0
  9
$DIMGAP
 40
0.09
  9
$LUNITS
 70
     2
  9
$LUPREC
 70
     4
  9
$SKETCHINC
 40
0.1
  9
$FILLETRAD
 40
0.0
  9
$AUNITS
 70
     0
  9
$AUPREC
 70
     0
  9
$MENU
  1
.
  9
$ELEVATION
 40
0.0
  9
$PELEVATION
 40
0.0
  9
$THICKNESS
 40
0.0
  9
$LIMCHECK
 70
     0
  9
$BLIPMODE
 70
     0
  9
$CHAMFERA
 40
0.0
  9
$CHAMFERB
 40
0.0
  9
$SKPOLY
 70
     0
  9
$TDCREATE
 40
2458060.468368056230247
  9
$TDUPDATE
 40
2460277.7429166659712791
  9
$TDINDWG
 40
0.4342663194
  9
$TDUSRTIMER
 40
0.4342663194
  9
$USRTIMER
 70
     1
  9
$ANGBASE
 50
0.0
  9
$ANGDIR
 70
     0
  9
$PDMODE
 70
     0
  9
$PDSIZE
 40
0.3125
  9
$PLINEWID
 40
0.0
  9
$COORDS
 70
     1
  9
$SPLFRAME
 70
     0
  9
$SPLINETYPE
 70
     6
  9
$SPLINESEGS
 70
     8
  9
$ATTDIA
 70
     1
  9
$ATTREQ
 70
     1
  9
$HANDLING
 70
     1
  9
$HANDSEED
  5
DFDD
  9
$SURFTAB1
 70
     6
  9
$SURFTAB2
 70
     6
  9
$SURFTYPE
 70
     6
  9
$SURFU
 70
     6
  9
$SURFV
 70
     6
  9
$UCSNAME
  2

  9
$UCSORG
 10
0.0
 20
0.0
 30
0.0
  9
$UCSXDIR
 10
1.0
 20
0.0
 30
0.0
  9
$UCSYDIR
 10
0.0
 20
1.0
 30
0.0
  9
$PUCSNAME
  2

  9
$PUCSORG
 10
0.0
 20
0.0
 30
0.0
  9
$PUCSXDIR
 10
1.0
 20
0.0
 30
0.0
  9
$PUCSYDIR
 10
0.0
 20
1.0
 30
0.0
  9
$USERI1
 70
     0
  9
$USERI2
 70
     0
  9
$USERI3
 70
     0
  9
$USERI4
 70
     0
  9
$USERI5
 70
     0
  9
$USERR1
 40
0.0
  9
$USERR2
 40
0.0
  9
$USERR3
 40
0.0
  9
$USERR4
 40
0.0
  9
$USERR5
 40
0.0
  9
$WORLDVIEW
 70
     1
  9
$SHADEDGE
 70
     3
  9
$SHADEDIF
 70
    70
  9
$TILEMODE
 70
     1
  9
$MAXACTVP
 70
    64
  9
$PLIMCHECK
 70
     0
  9
$PEXTMIN
 10
1.0000000000000000E+20
 20
1.0000000000000000E+20
 30
1.0000000000000000E+20
  9
$PEXTMAX
 10
-1.0000000000000000E+20
 20
-1.0000000000000000E+20
 30
-1.0000000000000000E+20
  9
$PLIMMIN
 10
0.0
 20
0.0
  9
$PLIMMAX
 10
12.0
 20
9.0
  9
$UNITMODE
 70
     0
  9
$VISRETAIN
 70
     1
  9
$PLINEGEN
 70
     0
  9
$PSLTSCALE
 70
     1
  0
ENDSEC
  0
SECTION
  2
TABLES
  0
TABLE
  2
VPORT
 70
     1
  0
VPORT
  2
*ACTIVE
 70
     0
 10
0.0
 20
0.0
 11
1.0
 21
1.0
 12
407.5871631606796086
 22
55.5326557471517077
 13
0.0
 23
0.0
 14
1.0
 24
1.0
 15
0.0
 25
0.0
 16
0.0
 26
0.0
 36
17.1152628219792007
 17
3803.5440673828129547
 27
125.9952621967499056
 37
0.0
 40
4.7486509975722813
 41
2.4474358974358972
 42
50.0
 43
0.0
 44
0.0
 50
0.0
 51
0.0
 71
     0
 72
   100
 73
     1
 74
     1
 75
     0
 76
     0
 77
     0
 78
     0
  0
ENDTAB
  0
TABLE
  2
LTYPE
 70
     2
  0
LTYPE
  2
CONTINUOUS
 70
     0
  3
Solid line
 72
    65
 73
     0
 40
0.0
  0
LTYPE
  2
PHANTOM2
 70
     0
  3
___ _ _ ___ _ _ ___ _ _ ___ _ _
 72
    65
 73
     6
 40
1.25
 49
0.625
 49
-0.125
 49
0.125
 49
-0.125
 49
0.125
 49
-0.125
  0
ENDTAB
  0
TABLE
  2
LAYER
 70
     2
  0
LAYER
  2
0
 70
     0
 62
   255
  6
CONTINUOUS
  0
LAYER
  2
DEFPOINTS
 70
     0
 62
     7
  6
CONTINUOUS
  0
ENDTAB
  0
TABLE
  2
STYLE
 70
     1
  0
STYLE
  2
STANDARD
 70
     0
 40
0.0
 41
0.8
 50
0.0
 71
     0
 42
0.2
  3
txt
  4

  0
ENDTAB
  0
TABLE
  2
VIEW
 70
     0
  0
ENDTAB
  0
TABLE
  2
UCS
 70
     0
  0
ENDTAB
  0
TABLE
  2
APPID
 70
     9
  0
APPID
  2
ACAD
 70
     0
  0
APPID
  2
ACAD_MLEADERVER
 70
     0
  0
APPID
  2
ACAD_EXEMPT_FROM_CAD_STANDARDS
 70
     0
  0
APPID
  2
ACAD_NAV_VCDISPLAY
 70
     0
  0
APPID
  2
ACAECLAYERSTANDARD
 70
     0
  0
APPID
  2
ACCMTRANSPARENCY
 70
     0
  0
APPID
  2
ACAD_DSTYLE_DIMJAG
 70
     0
  0
APPID
  2
ACAD_DSTYLE_DIMTALN
 70
     0
  0
APPID
  2
ACDBATTR
 70
     0
  0
ENDTAB
  0
TABLE
  2
DIMSTYLE
 70
     1
  0
DIMSTYLE
  2
STANDARD
 70
     0
  3

  4

  5

  6

  7

 40
1.0
 41
0.1875
 42
0.0625
 43
0.38
 44
0.125
 45
0.0
 46
0.0
 47
0.01
 48
0.01
140
0.15625
141
0.09
142
0.0
143
25.3999999999999986
144
1.0
145
0.0
146
1.0
147
0.09
 71
     1
 72
     0
 73
     1
 74
     1
 75
     0
 76
     0
 77
     0
 78
     4
170
     0
171
     2
172
     0
173
     0
174
     0
175
     0
176
     0
177
     0
178
     0
  0
ENDTAB
  0
ENDSEC
  0
SECTION
  2
BLOCKS
  0
BLOCK
  8
0
  2
$MODEL_SPACE
 70
     0
 10
0.0
 20
0.0
 30
0.0
  3
$MODEL_SPACE
  1

  0
ENDBLK
  5
21
  8
0
  0
BLOCK
 67
     1
  8
0
  2
$PAPER_SPACE
 70
     0
 10
0.0
 20
0.0
 30
0.0
  3
$PAPER_SPACE
  1

  0
ENDBLK
  5
1D
 67
     1
  8
0
  0
ENDSEC
  0
SECTION
  2
ENTITIES
  0
ATTDEF
  5
D74A
  8
DEFPOINTS
 10
4211.0642253697869819
 20
181.6020278650331079
 30
0.0
 40
0.001
  1
K-EX27125T-3
  3

  2
MODELNUMBER
 70
     0
1001
ACDBATTR
1070
     0
1070
     1
  0
ATTDEF
  5
D74B
  8
DEFPOINTS
 10
4211.0642253697869819
 20
181.6003611983664996
 30
0.0
 40
0.001
  1
OCCASION
  3

  2
TRADENAME
 70
     0
1001
ACDBATTR
1070
     0
1070
     1
  0
ATTDEF
  5
D74C
  8
DEFPOINTS
 10
4211.0642253697869819
 20
181.598694531699806
 30
0.0
 40
0.001
  1
BATH FAUCET
  3

  2
PRODUCT
 70
     0
1001
ACDBATTR
1070
     0
1070
     1
  0
LINE
  5
DC3E
  8
0
 10
4205.4099622763051229
 20
181.8108709345603984
 30
0.0
 11
4205.4099622763051229
 21
181.2518925801603871
 31
0.0
  0
LINE
  5
DC3F
  8
0
 10
4205.4614645471719996
 20
181.7593578593007067
 30
0.0
 11
4205.4614645471719996
 21
181.3033935960567931
 31
0.0
  0
LINE
  5
DC40
  8
0
 10
4205.4525622763048887
 20
181.8534709345603915
 30
0.0
 11
4206.6776603365333358
 21
181.8534709345603915
 31
0.0
  0
LINE
  5
DC41
  8
0
 10
4205.4525622763048887
 20
181.209292580160394
 30
0.0
 11
4206.6776603365333358
 21
181.209292580160394
 31
0.0
  0
ARC
  5
DC42
  8
0
 10
4205.4525622763030697
 20
181.8108709345607963
 30
0.0
 40
0.0425999999995757
 50
89.999999999739444
 51
180.000000000573209
  0
ARC
  5
DC43
  8
0
 10
4205.4525622763030697
 20
181.2518925801597902
 30
0.0
 40
0.0425999999994714
 50
179.9999999992834887
 51
270.0000000003647074
  0
LINE
  5
DC44
  8
0
 10
4205.5040645471726748
 20
181.2607935960569137
 30
0.0
 11
4206.7323884432953491
 21
181.2607935960568
 31
0.0
  0
LINE
  5
DC45
  8
0
 10
4205.5040645471726748
 20
181.8019578593005861
 30
0.0
 11
4206.7323884432953491
 21
181.8019578593005861
 31
0.0
  0
ARC
  5
DC46
  8
0
 10
4205.5040645471726748
 20
181.7593578593007067
 30
0.0
 40
0.0426
 50
90.0
 51
180.0
  0
ARC
  5
DC47
  8
0
 10
4205.5040645471726748
 20
181.3033935960567931
 30
0.0
 40
0.0426
 50
179.9999999999951115
 51
270.0
  0
LINE
  5
DC48
  8
0
 10
4205.4739417982937084
 20
181.2732708471783099
 30
0.0
 11
4205.4265891881559583
 21
181.2181263441840997
 31
0.0
  0
LINE
  5
DC49
  8
0
 10
4205.4224395274268318
 20
181.8409936834389953
 30
0.0
 11
4205.4739417982937084
 21
181.7894806081791899
 31
0.0
  0
LINE
  5
DC4A
  8
0
 10
4206.8044603365342482
 20
181.9802709345603944
 30
0.0
 11
4206.8044603365342482
 21
183.205370934560392
 31
0.0
  0
LINE
  5
DC4B
  8
0
 10
4206.8044603365342482
 20
181.0824925801603911
 30
0.0
 11
4206.8044603365342482
 21
179.8573925801603934
 31
0.0
  0
LINE
  5
DC4C
  8
0
 10
4206.8470603365340139
 20
183.2479709345602998
 30
0.0
 11
4207.4060626740338193
 21
183.2479709345602998
 31
0.0
  0
ARC
  5
DC4D
  8
0
 10
4206.6776603365333358
 20
181.9802709345603091
 30
0.0
 40
0.1268
 50
270.0
 51
0.0000000000032569
  0
ARC
  5
DC4E
  8
0
 10
4206.6776603365333358
 20
181.0824925801603911
 30
0.0
 40
0.1268
 50
359.9999999999984084
 51
90.0
  0
LINE
  5
DC4F
  8
0
 10
4206.859188443295352
 20
181.1339935960567971
 30
0.0
 11
4206.859188443295352
 21
179.9088913934834011
 31
0.0
  0
LINE
  5
DC50
  8
0
 10
4206.859188443295352
 20
181.9287578593007026
 30
0.0
 11
4206.859188443295352
 21
183.1538589383403917
 31
0.0
  0
ARC
  5
DC51
  8
0
 10
4206.7323884432953491
 20
181.9287578593007026
 30
0.0
 40
0.1268
 50
270.0
 51
0.0000000000016284
  0
ARC
  5
DC52
  8
0
 10
4206.7323884432953491
 20
181.1339935960567971
 30
0.0
 40
0.1268
 50
0.0000000000048853
 51
90.0
  0
LINE
  5
DC53
  8
0
 10
4206.9017884432942083
 20
183.1964589383404132
 30
0.0
 11
4207.351334567273625
 21
183.1964589383404132
 31
0.0
  0
LINE
  5
DC54
  8
0
 10
4206.9017884432942083
 20
179.866291393483408
 30
0.0
 11
4207.351334567273625
 21
179.866291393483408
 31
0.0
  0
ARC
  5
DC55
  8
0
 10
4206.8470603365340139
 20
183.205370934560392
 30
0.0
 40
0.0426
 50
90.0
 51
180.0
  0
ARC
  5
DC56
  8
0
 10
4206.9017884432942083
 20
183.1538589383403917
 30
0.0
 40
0.0426
 50
90.0
 51
180.0
  0
LINE
  5
DC57
  8
0
 10
4206.8470603365340139
 20
179.8147925652014862
 30
0.0
 11
4207.4060626740338193
 21
179.8147925652014862
 31
0.0
  0
ARC
  5
DC58
  8
0
 10
4206.9017884432942083
 20
179.9088913934834011
 30
0.0
 40
0.0426
 50
180.0
 51
270.0
  0
ARC
  5
DC59
  8
0
 10
4206.8470603620698967
 20
179.8573925907379021
 30
0.0
 40
0.0426000255364554
 50
180.0000142264823921
 51
269.9999656542141224
  0
LINE
  5
DC5A
  8
0
 10
4208.8431626740339198
 20
181.8108709345603984
 30
0.0
 11
4208.8431626740339198
 21
181.2518925801597902
 31
0.0
  0
LINE
  5
DC5B
  8
0
 10
4208.7916604031661336
 20
181.7593578593007067
 30
0.0
 11
4208.7916604031661336
 21
181.3033935960567931
 31
0.0
  0
LINE
  5
DC5C
  8
0
 10
4208.8005626740332445
 20
181.8534709345603915
 30
0.0
 11
4207.575462674035407
 21
181.8534709345603915
 31
0.0
  0
LINE
  5
DC5D
  8
0
 10
4208.8005626740332445
 20
181.209292580160394
 30
0.0
 11
4207.575462674035407
 21
181.209292580160394
 31
0.0
  0
ARC
  5
DC5E
  8
0
 10
4208.8005626740332445
 20
181.8108709345603984
 30
0.0
 40
0.0426
 50
0.0
 51
90.0
  0
ARC
  5
DC5F
  8
0
 10
4208.8005626740332445
 20
181.2518925801614955
 30
0.0
 40
0.0426000000011442
 50
270.0000000006252776
 51
359.9999999977300149
  0
LINE
  5
DC60
  8
0
 10
4208.7490604031663679
 20
181.2607935960569137
 30
0.0
 11
4207.5207345672743031
 21
181.2607935960568
 31
0.0
  0
LINE
  5
DC61
  8
0
 10
4208.7490604031663679
 20
181.8019578593005861
 30
0.0
 11
4207.5207345672743031
 21
181.8019578593005861
 31
0.0
  0
ARC
  5
DC62
  8
0
 10
4208.7490604031663679
 20
181.7593578593007067
 30
0.0
 40
0.0426
 50
0.0
 51
90.0
  0
ARC
  5
DC63
  8
0
 10
4208.7490604031663679
 20
181.3033935960567931
 30
0.0
 40
0.0426
 50
270.0
 51
0.0000000000048853
  0
LINE
  5
DC64
  8
0
 10
4208.7791831520453343
 20
181.2732708471783099
 30
0.0
 11
4208.8265357621821749
 21
181.2181263441840997
 31
0.0
  0
LINE
  5
DC65
  8
0
 10
4208.8306854229122109
 20
181.8409936834389953
 30
0.0
 11
4208.7791831520453343
 21
181.7894806081791899
 31
0.0
  0
LINE
  5
DC66
  8
0
 10
4207.4486626740354041
 20
181.9802709345603944
 30
0.0
 11
4207.4486626740354041
 21
183.205370934560392
 31
0.0
  0
LINE
  5
DC67
  8
0
 10
4207.4486626740354041
 20
181.0824925801603911
 30
0.0
 11
4207.4486626740354041
 21
179.8573925801603934
 31
0.0
  0
ARC
  5
DC68
  8
0
 10
4207.575462674035407
 20
181.9802709345603091
 30
0.0
 40
0.1268
 50
179.9999999999967031
 51
270.0
  0
ARC
  5
DC69
  8
0
 10
4207.575462674035407
 20
181.0824925801603911
 30
0.0
 40
0.1268
 50
90.0
 51
180.0000000000015916
  0
LINE
  5
DC6A
  8
0
 10
4207.3939345672733907
 20
181.1339935960567971
 30
0.0
 11
4207.3939345672733907
 21
179.9088913934834011
 31
0.0
  0
LINE
  5
DC6B
  8
0
 10
4207.3939345672733907
 20
181.9287578593007026
 30
0.0
 11
4207.3939345672733907
 21
183.1538589383403917
 31
0.0
  0
ARC
  5
DC6C
  8
0
 10
4207.5207345672743031
 20
181.9287578593007026
 30
0.0
 40
0.1268
 50
179.9999999999984084
 51
270.0
  0
ARC
  5
DC6D
  8
0
 10
4207.5207345672743031
 20
181.1339935960567971
 30
0.0
 40
0.1268
 50
90.0
 51
179.9999999999951115
  0
ARC
  5
DC6E
  8
0
 10
4207.4060626740338193
 20
183.205370934560392
 30
0.0
 40
0.0426
 50
0.0
 51
90.0
  0
ARC
  5
DC6F
  8
0
 10
4207.351334567273625
 20
183.1538589383403917
 30
0.0
 40
0.0426
 50
0.0
 51
90.0
  0
ARC
  5
DC70
  8
0
 10
4207.351334567273625
 20
179.9088913934834011
 30
0.0
 40
0.0426
 50
270.0
 51
0.0
  0
ARC
  5
DC71
  8
0
 10
4207.4060626484970271
 20
179.8573925907379021
 30
0.0
 40
0.042600025536455
 50
270.0000343457858776
 51
359.9999857735176079
  0
LINE
  5
DC72
  8
0
 10
4207.4361854229127857
 20
183.2354936834389036
 30
0.0
 11
4207.3814573161525914
 21
183.1839816872189033
 31
0.0
  0
LINE
  5
DC73
  8
0
 10
4206.816937587655957
 20
183.2354936834389036
 30
0.0
 11
4206.8716656944161514
 21
183.1839816872189033
 31
0.0
  0
LINE
  5
DC74
  8
0
 10
4207.3814573161525914
 20
179.8787686446048042
 30
0.0
 11
4207.4361854229127857
 21
179.8272698312817965
 31
0.0
  0
LINE
  5
DC75
  8
0
 10
4206.8716656944161514
 20
179.8787686446048042
 30
0.0
 11
4206.8149012667836359
 21
179.8294541794766133
 31
0.0
  0
ARC
  5
DC76
  8
0
 10
4206.3197064326795953
 20
180.4012137467142907
 30
0.0
 40
2.613500913914915
 50
36.6913779984371899
 51
64.4072988671649398
  0
ARC
  5
DC77
  8
0
 10
4208.3873334599657028
 20
181.939016821805609
 30
0.0
 40
0.0367700806786103
 50
355.7144133800097734
 51
40.2855685421914629
  0
ARC
  5
DC78
  8
0
 10
4146.5762272256815777
 20
183.8046288277232065
 30
0.0
 40
61.8759877144506518
 50
358.1929719131068168
 51
358.2696776844493911
  0
LINE
  5
DC79
  8
0
 10
4208.4223085445137258
 20
181.9503650504748009
 30
0.0
 11
4208.1275645512896517
 21
181.8534709345597946
 31
0.0
  0
ARC
  5
DC7A
  8
0
 10
4207.9334165778873285
 20
180.4012137467142907
 30
0.0
 40
2.613500913914915
 50
115.5927011328350034
 51
143.3086220015615027
  0
ARC
  5
DC7B
  8
0
 10
4205.8657895506021305
 20
181.939016821805609
 30
0.0
 40
0.0367700806786103
 50
139.7144314578085016
 51
184.2855866199901129
  0
ARC
  5
DC7C
  8
0
 10
4267.6768957848862556
 20
183.8046288277232918
 30
0.0
 40
61.8759877144506518
 50
181.7303223155504952
 51
181.8070280868932116
  0
LINE
  5
DC7D
  8
0
 10
4205.830814466053198
 20
181.9503650504748009
 30
0.0
 11
4206.125558459277272
 21
181.8534709345597946
 31
0.0
  0
ARC
  5
DC7E
  8
0
 10
4205.7966958636561685
 20
181.9588311877539866
 30
0.0
 40
2.6235921980404511
 50
324.7711988283247138
 51
343.3997986458077207
  0
ARC
  5
DC7F
  8
0
 10
4207.9027729079125493
 20
180.4715712094530033
 30
0.0
 40
0.0453170460444161
 50
288.1130445903519899
 51
324.771198828326078
  0
ARC
  5
DC80
  8
0
 10
4207.1316048386897819
 20
182.9898559584948998
 30
0.0
 40
2.6790247057801988
 50
276.7967838875612756
 51
287.0444155660051138
  0
LINE
  5
DC81
  8
0
 10
4207.9296917070041673
 20
180.4351155800160882
 30
0.0
 11
4207.4494189819333769
 21
181.0963210898931948
 31
0.0
  0
ARC
  5
DC82
  8
0
 10
4208.4564271469116647
 20
181.9588311877539866
 30
0.0
 40
2.6235921980404511
 50
196.600201354192393
 51
215.2288011716740073
  0
ARC
  5
DC83
  8
0
 10
4206.350350102655284
 20
180.4715712094530033
 30
0.0
 40
0.0453170460444161
 50
215.2288011716740073
 51
251.8869554096478964
  0
ARC
  5
DC84
  8
0
 10
4207.1215181718780514
 20
182.9898559584948998
 30
0.0
 40
2.6790247057801988
 50
252.9555844339948862
 51
263.2032161124387244
  0
LINE
  5
DC85
  8
0
 10
4206.3234313035627565
 20
180.4351155800160882
 30
0.0
 11
4206.8037040286362753
 21
181.0963210898931948
 31
0.0
  0
ARC
  5
DC87
  8
0
 10
4211.0653863101342722
 20
182.142221341495997
 30
0.0
 40
0.0522519052064829
 50
91.9918815941125558
 51
104.4139707118599034
  0
ARC
  5
DC88
  8
0
 10
4211.3732139235162322
 20
181.1029329252106947
 30
0.0
 40
1.1361369174883971
 50
106.4029397700989961
 51
145.4865969338434866
  0
LINE
  5
DC89
  8
0
 10
4211.0635701441733545
 20
180.7112116356221918
 30
0.0
 11
4211.0635701441733545
 21
182.8905724758716076
 31
0.0
  0
ARC
  5
DC8A
  8
0
 10
4211.0757811964631401
 20
179.0595252631773064
 30
0.0
 40
1.5327823002638621
 50
90.4598331077717859
 51
100.6679767994417034
  0
ARC
  5
DC8B
  8
0
 10
4210.8904049794264211
 20
180.0114092351981867
 30
0.0
 40
0.5630654992773046
 50
100.0612939947396995
 51
117.5001493399434054
  0
ARC
  5
DC8C
  8
0
 10
4211.0631085407821956
 20
181.8508800080095114
 30
0.0
 40
1.563992475706266
 50
266.0460854810041269
 51
270.0136019298346923
  0
ARC
  5
DC8D
  8
0
 10
4211.0453229160702904
 20
181.5935595522672088
 30
0.0
 40
1.306058093760299
 50
257.9553334183307243
 51
266.0460854810041269
  0
ARC
  5
DC8E
  8
0
 10
4210.9011492882746097
 20
180.9178665494206086
 30
0.0
 40
0.6151550115212518
 50
246.6142038439641055
 51
257.9553334183307243
  0
ARC
  5
DC8F
  8
0
 10
4210.7491141421160137
 20
180.566294960433197
 30
0.0
 40
0.2321181100994516
 50
227.2389919616730083
 51
246.6142038439641055
  0
ARC
  5
DC90
  8
0
 10
4210.634337045871689
 20
180.4421776456750024
 30
0.0
 40
0.0630651904414504
 50
182.9219448277978017
 51
227.2389919616718998
  0
ARC
  5
DC91
  8
0
 10
4210.6216438905512405
 20
180.4386989872631091
 30
0.0
 40
0.0502907372139686
 50
154.5015220050009077
 51
179.6993519477105963
  0
ARC
  5
DC92
  8
0
 10
4210.6585555225283315
 20
180.4190509992419891
 30
0.0
 40
0.0920837305374435
 50
127.5724367193757018
 51
153.3539446462563092
  0
ARC
  5
DC93
  8
0
 10
4210.7631013428836013
 20
180.2831603022546005
 30
0.0
 40
0.263536668924801
 50
120.2322487511468978
 51
127.5724367193757018
  0
ARC
  5
DC94
  8
0
 10
4211.0620219430229554
 20
179.5860229902594085
 30
0.0
 40
0.9571955611570547
 50
89.9127338058681431
 51
100.1522263912731034
  0
ARC
  5
DC95
  8
0
 10
4210.9706291822731146
 20
180.0964039616578987
 30
0.0
 40
0.4386964071718979
 50
100.1522263912731034
 51
115.1060287881645934
  0
ARC
  5
DC96
  8
0
 10
4210.8280469040237222
 20
180.4007011768742927
 30
0.0
 40
0.1026510214590273
 50
115.1060287881645934
 51
138.5302087400283142
  0
ARC
  5
DC97
  8
0
 10
4210.7831638962579746
 20
180.440368140362807
 30
0.0
 40
0.0427515024411398
 50
138.5302087400283142
 51
173.2954592265571137
  0
ARC
  5
DC98
  8
0
 10
4210.7724795063886631
 20
180.4434855319807127
 30
0.0
 40
0.0318299557911389
 50
176.6250584763558891
 51
198.5439956476110126
  0
ARC
  5
DC99
  8
0
 10
4210.9472643235867508
 20
180.5011493856160882
 30
0.0
 40
0.2158808407566413
 50
198.3005218101201876
 51
220.4190690472663903
  0
ARC
  5
DC9A
  8
0
 10
4210.8789231363280123
 20
180.438366174296192
 30
0.0
 40
0.1231935728640562
 50
218.7967796040639996
 51
250.1167984933950095
  0
ARC
  5
DC9B
  8
0
 10
4210.9969397330669381
 20
180.732578165187789
 30
0.0
 40
0.4401403169964714
 50
248.6952922087872082
 51
261.6588532483273752
  0
ARC
  5
DC9C
  8
0
 10
4211.0879601345468473
 20
181.323944859469691
 30
0.0
 40
1.038464270302109
 50
261.4232664942775273
 51
266.5837639750686776
  0
ARC
  5
DC9D
  8
0
 10
4211.0607664779336119
 20
179.6358738809312001
 30
0.0
 40
0.8253038316014064
 50
89.8116282678042381
 51
99.3573956975319561
  0
ARC
  5
DC9E
  8
0
 10
4211.0005929246226515
 20
180.0010377785503977
 30
0.0
 40
0.4552152899759863
 50
99.3573956975319561
 51
111.0784314036702938
  0
ARC
  5
DC9F
  8
0
 10
4210.8844611645581608
 20
180.302337927234305
 30
0.0
 40
0.1323091653936671
 50
111.0784314036702938
 51
135.054192703068793
  0
ARC
  5
DCA0
  8
0
 10
4210.8120917050246135
 20
180.3745706160717077
 30
0.0
 40
0.0300599599698661
 50
135.054192703068793
 51
175.4601499348777907
  0
ARC
  5
DCA1
  8
0
 10
4210.8169246260149521
 20
180.3741868745667034
 30
0.0
 40
0.0349080918610866
 50
175.460149934876199
 51
210.2122475032304862
  0
ARC
  5
DCA2
  8
0
 10
4210.6478232940626185
 20
180.4434757304329082
 30
0.0
 40
0.0670268337171198
 50
137.9370864790143969
 51
172.4577675344721115
  0
ARC
  5
DCA3
  8
0
 10
4210.6330096140827663
 20
180.4488066054126989
 30
0.0
 40
0.0517495217405532
 50
176.1586992802565135
 51
211.9539908715617003
  0
ARC
  5
DCA4
  8
0
 10
4211.0125284149453364
 20
181.3715239936452974
 30
0.0
 40
1.0693053349858781
 50
256.5959289070819977
 51
262.1427348311441961
  0
ARC
  5
DCA5
  8
0
 10
4210.9057445812077276
 20
180.9234336079998968
 30
0.0
 40
0.6086668858139869
 50
246.5732527482317948
 51
256.5959289070819977
  0
ARC
  5
DCA6
  8
0
 10
4210.7561032867042741
 20
180.5780753999152921
 30
0.0
 40
0.2322830273500084
 50
231.7476480581302951
 51
246.5732527482317948
  0
ARC
  5
DCA7
  8
0
 10
4210.6756609092872168
 20
180.4760433455751922
 30
0.0
 40
0.10235413834803
 50
212.2545703581837984
 51
231.7476480581302951
  0
ARC
  5
DCA8
  8
0
 10
4210.7519022856640731
 20
180.4066817561586902
 30
0.0
 40
0.1474698421685441
 50
123.2908439914528032
 51
132.115859298801297
  0
ARC
  5
DCA9
  8
0
 10
4210.7025369270222654
 20
180.4592827785754139
 30
0.0
 40
0.0753568944012364
 50
131.0948293556228066
 51
155.4249998244845017
  0
ARC
  5
DCAA
  8
0
 10
4210.8521940938289845
 20
180.705968071081287
 30
0.0
 40
0.3411681343602227
 50
237.6634808169825988
 51
256.5179644722467174
  0
ARC
  5
DCAB
  8
0
 10
4210.7272815016276581
 20
180.5086544444878882
 30
0.0
 40
0.1076390720789576
 50
213.5573630989019875
 51
237.6634808169825988
  0
ARC
  5
DCAC
  8
0
 10
4210.6737783822391066
 20
180.4731644183410992
 30
0.0
 40
0.0434352891665388
 50
156.3009061645620079
 51
213.5573630989019875
  0
LINE
  5
DCAD
  8
0
 10
4210.6304089641844257
 20
180.5108537551749919
 30
0.0
 11
4210.6304089641844257
 21
180.4755556361450886
 31
0.0
  0
ARC
  5
DCAE
  8
0
 10
4211.0932687713766427
 20
179.0526861893551995
 30
0.0
 40
1.53519348875918
 50
91.1118389015360464
 51
95.6332125878254686
  0
ARC
  5
DCAF
  8
0
 10
4211.0250473551377581
 20
179.7968668677690971
 30
0.0
 40
0.7879269813714679
 50
96.008192988883593
 51
107.5502272921367961
  0
ARC
  5
DCB0
  8
0
 10
4210.8527533760143342
 20
180.3416478520360897
 30
0.0
 40
0.2165501039414734
 50
107.5502272921367961
 51
129.9949761570067039
  0
ARC
  5
DCB1
  8
0
 10
4210.7448990025950479
 20
180.4702065798674084
 30
0.0
 40
0.0487409493423899
 50
129.9949761570067039
 51
164.2971125450966099
  0
ARC
  5
DCB2
  8
0
 10
4210.7334850121078489
 20
180.4734155285705981
 30
0.0
 40
0.0368844519418537
 50
164.2971125450966099
 51
196.5786106353249068
  0
ARC
  5
DCB3
  8
0
 10
4211.1441831418942456
 20
180.6290474533809913
 30
0.0
 40
0.4759914122567707
 50
200.4306822787970077
 51
204.7882511305678861
  0
ARC
  5
DCB4
  8
0
 10
4210.7897442614794272
 20
180.4719128508351105
 30
0.0
 40
0.0885281156374307
 50
208.6403227740287889
 51
238.5550264779701024
  0
ARC
  5
DCB5
  8
0
 10
4210.8976898264372721
 20
180.6484443369866995
 30
0.0
 40
0.2954474491883392
 50
238.5550264779701024
 51
243.5152799193143949
  0
ARC
  5
DCB6
  8
0
 10
4211.0606406946926654
 20
179.506095158097196
 30
0.0
 40
1.046858951725862
 50
89.8446106992362843
 51
99.2108063525213737
  0
ARC
  5
DCB7
  8
0
 10
4210.9846864816836387
 20
179.9744908638483025
 30
0.0
 40
0.5723449059486942
 50
99.2108063525213737
 51
111.4691893563550025
  0
ARC
  5
DCB8
  8
0
 10
4210.8343295394943198
 20
180.3567969582639989
 30
0.0
 40
0.1615345362011096
 50
111.4691893563550025
 51
133.265808244229504
  0
ARC
  5
DCB9
  8
0
 10
4210.7563627737217757
 20
180.4396322643945894
 30
0.0
 40
0.0477781978858429
 50
133.265808244229504
 51
162.3490804610744078
  0
ARC
  5
DCBA
  8
0
 10
4210.7444394671183545
 20
180.4434262260315052
 30
0.0
 40
0.0352658285960827
 50
162.3490804610744078
 51
189.9107396852542138
  0
ARC
  5
DCBB
  8
0
 10
4210.7520245741416147
 20
180.4447515042558905
 30
0.0
 40
0.0429658422922803
 50
189.9107396852542138
 51
198.3157546424577902
  0
ARC
  5
DCBC
  8
0
 10
4211.0632994678362593
 20
179.6341780339508887
 30
0.0
 40
0.8196949249848398
 50
90.2625863311323826
 51
94.1223844069644997
  0
ARC
  5
DCBD
  8
0
 10
4211.0513010414770179
 20
179.7762377458900005
 30
0.0
 40
0.6771122082957448
 50
95.2654356766769155
 51
99.6354014540612667
  0
ARC
  5
DCBE
  8
0
 10
4211.0221008668595459
 20
179.9526681850186094
 30
0.0
 40
0.4982841868240625
 50
100.5172480306662948
 51
105.7569562437920041
  0
ARC
  5
DCBF
  8
0
 10
4210.9460367159690577
 20
180.2089646224501109
 30
0.0
 40
0.2308154262384159
 50
107.7543563201460017
 51
116.7494824733127956
  0
ARC
  5
DCC0
  8
0
 10
4210.8865346941101961
 20
180.3240503914925057
 30
0.0
 40
0.101203180087873
 50
118.5211347626974003
 51
133.7536249957121015
  0
ARC
  5
DCC1
  8
0
 10
4210.8360408673461279
 20
180.373106924034289
 30
0.0
 40
0.0304915539905256
 50
140.6241682430205913
 51
175.6818243409115041
  0
ARC
  5
DCC2
  8
0
 10
4210.8858814095183334
 20
180.3734938853586129
 30
0.0
 40
0.0232289464101794
 50
141.7260506392603077
 51
175.2862476648082009
  0
ARC
  5
DCC3
  8
0
 10
4210.9200339479339164
 20
180.3427814206893061
 30
0.0
 40
0.0693852737098829
 50
117.8147665279421972
 51
134.1306181972938987
  0
ARC
  5
DCC4
  8
0
 10
4210.9668447867397845
 20
180.2579352095139029
 30
0.0
 40
0.1663188923931135
 50
107.7850725966762013
 51
116.9006076854285965
  0
ARC
  5
DCC5
  8
0
 10
4211.0252542947910115
 20
180.071376654624288
 30
0.0
 40
0.3619122324649907
 50
100.4364312382008961
 51
105.7233535220160974
  0
ARC
  5
DCC6
  8
0
 10
4211.050924836458762
 20
179.9316508678884077
 30
0.0
 40
0.503986270190795
 50
95.3485075264692057
 51
99.6415910450646578
  0
ARC
  5
DCC7
  8
0
 10
4211.0630697228252757
 20
179.8046825997498956
 30
0.0
 40
0.631548223943792
 50
90.3199717025672868
 51
93.9870158752431166
  0
ARC
  5
DCC8
  8
0
 10
4211.0628074069973081
 20
179.847317100160808
 30
0.0
 40
0.5870876870780064
 50
90.3186029758032163
 51
99.1480809078512948
  0
ARC
  5
DCC9
  8
0
 10
4211.0044344886082399
 20
180.1736210227834079
 30
0.0
 40
0.2555393074217889
 50
99.411150538036992
 51
114.9329251108355976
  0
ARC
  5
DCCA
  8
0
 10
4210.9143061595250401
 20
180.3601847904222097
 30
0.0
 40
0.048137246490557
 50
116.5722720016394049
 51
161.5704925613786997
  0
ARC
  5
DCCB
  8
0
 10
4210.9505034486601289
 20
180.3705839748010931
 30
0.0
 40
0.0252271533768075
 50
109.1548994143169011
 51
168.9878651084092951
  0
ARC
  5
DCCC
  8
0
 10
4211.0130973452205581
 20
180.2597486846887023
 30
0.0
 40
0.1522730101233669
 50
98.2676878558957441
 51
116.0763880414916969
  0
ARC
  5
DCCD
  8
0
 10
4211.0611157277007806
 20
180.0236949706410883
 30
0.0
 40
0.3930580597038642
 50
90.229281844028975
 51
99.237402018759866
  0
ARC
  5
DCCE
  8
0
 10
4211.0633204148325603
 20
180.0132390181902053
 30
0.0
 40
0.401703376716723
 50
89.9772622455658109
 51
98.928708548769535
  0
ARC
  5
DCCF
  8
0
 10
4211.030485437155221
 20
180.210798012056614
 30
0.0
 40
0.2013645724877212
 50
100.3943559603712004
 51
110.964561264608605
  0
ARC
  5
DCD0
  8
0
 10
4210.9826529533866051
 20
180.3356366312391117
 30
0.0
 40
0.0676760264457006
 50
110.964561264608605
 51
133.440562305114014
  0
ARC
  5
DCD1
  8
0
 10
4210.9460525945323752
 20
180.3742855806451928
 30
0.0
 40
0.0144470159483019
 50
133.4405623051129055
 51
175.5648144560985884
  0
ARC
  5
DCD2
  8
0
 10
4211.0091069694781254
 20
180.3705778602609939
 30
0.0
 40
0.0151984013477483
 50
110.5544038433918956
 51
161.4904451056133041
  0
ARC
  5
DCD3
  8
0
 10
4211.04061886515683
 20
180.3093594759685061
 30
0.0
 40
0.0839664439779386
 50
100.2498799889199006
 51
116.0300200986322068
  0
ARC
  5
DCD4
  8
0
 10
4211.062381717190874
 20
180.1982503665460058
 30
0.0
 40
0.1972294163316739
 50
89.6809929677921502
 51
98.7152190441678954
  0
ARC
  5
DCD5
  8
0
 10
4211.0634032511252371
 20
180.297688071800593
 30
0.0
 40
0.0850143639649635
 50
89.9483891543235075
 51
96.8583940953136846
  0
ARC
  5
DCD6
  8
0
 10
4211.062564005823333
 20
180.2120587615993088
 30
0.0
 40
0.1815953701396675
 50
89.7110438825271359
 51
98.5853815169050733
  0
ARC
  5
DCD7
  8
0
 10
4211.0453479719990355
 20
180.3051599411114125
 30
0.0
 40
0.0868655194956938
 50
101.0923757039115003
 51
113.4234841090501931
  0
ARC
  5
DCD8
  8
0
 10
4211.0210133268401478
 20
180.3613308108728859
 30
0.0
 40
0.0256499858073208
 50
113.4234841090501931
 51
135.8183048019866987
  0
ARC
  5
DCD9
  8
0
 10
4211.0080963261943907
 20
180.3738840183904983
 30
0.0
 40
0.0076379918953665
 50
135.8183048019843966
 51
168.530632373456001
  0
ARC
  5
DCDA
  8
0
 10
4211.0531740199967317
 20
180.3510162542509079
 30
0.0
 40
0.0306128655582223
 50
102.7226623347641947
 51
115.0565817610620059
  0
ARC
  5
DCDB
  8
0
 10
4211.044532257080391
 20
180.3695008941058973
 30
0.0
 40
0.0102079157452014
 50
115.0565817610612953
 51
144.6781873706327985
  0
LINE
  5
DCDC
  8
0
 10
4211.0043739598841057
 20
180.4517522229749886
 30
0.0
 11
4211.0191579169841134
 21
180.4347023712446969
 31
0.0
  0
LINE
  5
DCDD
  8
0
 10
4211.0595428223841736
 20
180.4538643505750031
 30
0.0
 11
4211.0595428223841736
 21
180.4362209755749973
 31
0.0
  0
LINE
  5
DCDE
  8
0
 10
4211.0595428223841736
 20
180.4343957105749894
 30
0.0
 11
4211.0595428223841736
 21
180.4167498831749867
 31
0.0
  0
LINE
  5
DCDF
  8
0
 10
4210.9694683201842054
 20
180.4269374648750102
 30
0.0
 11
4210.9980198685852884
 21
180.4116557300750117
 31
0.0
  0
LINE
  5
DCE0
  8
0
 10
4210.989162529584064
 20
180.4504927035750086
 30
0.0
 11
4211.0039464866840717
 21
180.4334428518750997
 31
0.0
  0
LINE
  5
DCE1
  8
0
 10
4210.9379673988842114
 20
180.4437978016750037
 30
0.0
 11
4210.9665149792836019
 21
180.4285181907750939
 31
0.0
  0
LINE
  5
DCE2
  8
0
 10
4210.9311483011842938
 20
180.4425811993750131
 30
0.0
 11
4210.9596958815827747
 21
180.427301588375002
 31
0.0
  0
LINE
  5
DCE3
  8
0
 10
4210.9626492224842877
 20
180.4257208624750035
 30
0.0
 11
4210.9912007708508099
 21
180.410439127792813
 31
0.0
  0
LINE
  5
DCE4
  8
0
 10
4210.8867881589831086
 20
180.4322279851751034
 30
0.0
 11
4210.9271786809840705
 21
180.419746627475007
 31
0.0
  0
LINE
  5
DCE5
  8
0
 10
4210.9160431410809906
 20
180.4163055563759031
 30
0.0
 11
4210.8756526190827572
 21
180.4287869140750047
 31
0.0
  0
LINE
  5
DCE6
  8
0
 10
4210.842148914183781
 20
180.4150788762750039
 30
0.0
 11
4210.8915947738842078
 21
180.4062571887751005
 31
0.0
  0
LINE
  5
DCE7
  8
0
 10
4210.8876577659839313
 20
180.4041499716749968
 30
0.0
 11
4210.8382119063835489
 21
180.4129716591750139
 31
0.0
  0
LINE
  5
DCE8
  8
0
 10
4210.8165467486833222
 20
180.3971514937749987
 30
0.0
 11
4210.8717212277852013
 21
180.3925829997749872
 31
0.0
  0
LINE
  5
DCE9
  8
0
 10
4210.8676453373564073
 20
180.3878824093773119
 30
0.0
 11
4210.8124708581854065
 21
180.3924509032750052
 31
0.0
  0
LINE
  5
DCEA
  8
0
 10
4210.8056358697840551
 20
180.375402787274993
 30
0.0
 11
4210.8627310305837455
 21
180.375402787274993
 31
0.0
  0
LINE
  5
DCEB
  8
0
 10
4210.8686377123049169
 20
180.375402787274993
 30
0.0
 11
4210.9257408091843899
 21
180.375402787274993
 31
0.0
  0
LINE
  5
DCEC
  8
0
 10
4210.8927731024841705
 20
180.403237339175007
 30
0.0
 11
4210.9422258349841286
 21
180.3944144254749915
 31
0.0
  0
LINE
  5
DCED
  8
0
 10
4210.896710110384447
 20
180.4053445562749971
 30
0.0
 11
4210.9461628428844051
 21
180.39652164257501
 31
0.0
  0
LINE
  5
DCEE
  8
0
 10
4210.9316488408840087
 20
180.375402787274993
 30
0.0
 11
4210.994694770382921
 21
180.3754027872869017
 31
0.0
  0
LINE
  5
DCEF
  8
0
 10
4211.0006108561838118
 20
180.375402787274993
 30
0.0
 11
4211.0362034395839146
 21
180.3754027872751067
 31
0.0
  0
LINE
  5
DCF0
  8
0
 10
4211.0286357943841722
 20
180.3904026627751023
 30
0.0
 11
4211.0464320860828593
 21
180.3808774977750886
 31
0.0
  0
LINE
  5
DCF1
  8
0
 10
4211.0354548920831803
 20
180.3916192650750929
 30
0.0
 11
4211.0532511837827769
 21
180.382094100074994
 31
0.0
  0
LINE
  5
DCF2
  8
0
 10
4211.0324968491840991
 20
180.3932025076749994
 30
0.0
 11
4211.0009738844828462
 21
180.4100746428750028
 31
0.0
  0
LINE
  5
DCF3
  8
0
 10
4210.9941547867838381
 20
180.4088580405750122
 30
0.0
 11
4211.0256777514841815
 21
180.3919859053750088
 31
0.0
  0
ARC
  5
DCF4
  8
0
 10
4211.0632994678362593
 20
181.1141943358992137
 30
0.0
 40
0.8196949249848398
 50
265.8776155930355003
 51
269.737413668867589
  0
ARC
  5
DCF5
  8
0
 10
4211.0513010414770179
 20
180.9721346239601019
 30
0.0
 40
0.6771122082957448
 50
260.3645985459388044
 51
264.7345643233231272
  0
ARC
  5
DCF6
  8
0
 10
4211.0221008668595459
 20
180.7957041848314077
 30
0.0
 40
0.4982841868240625
 50
254.2430437562080101
 51
259.4827519693337194
  0
ARC
  5
DCF7
  8
0
 10
4210.9460367159690577
 20
180.5394077473999914
 30
0.0
 40
0.2308154262384159
 50
243.2505175266871049
 51
252.245643679853913
  0
ARC
  5
DCF8
  8
0
 10
4210.8865346941101961
 20
180.4243219783575967
 30
0.0
 40
0.101203180087873
 50
226.2463750042878985
 51
241.4788652373025002
  0
ARC
  5
DCF9
  8
0
 10
4210.8360408673461279
 20
180.3752654458158133
 30
0.0
 40
0.0304915539905256
 50
184.3181756590884959
 51
219.3758317569794087
  0
ARC
  5
DCFA
  8
0
 10
4210.8858814095183334
 20
180.3748784844914894
 30
0.0
 40
0.0232289464101794
 50
184.7137523351917991
 51
218.2739493607384134
  0
ARC
  5
DCFB
  8
0
 10
4210.9200339479339164
 20
180.4055909491607963
 30
0.0
 40
0.0693852737098829
 50
225.8693818027061013
 51
242.1852334720576891
  0
ARC
  5
DCFC
  8
0
 10
4210.9668447867397845
 20
180.4904371603361994
 30
0.0
 40
0.1663188923931135
 50
243.0993923145713893
 51
252.2149274033237987
  0
ARC
  5
DCFD
  8
0
 10
4211.0252542947910115
 20
180.6769957152257859
 30
0.0
 40
0.3619122324649907
 50
254.2766464779838884
 51
259.5635687617991039
  0
ARC
  5
DCFE
  8
0
 10
4211.050924836458762
 20
180.8167215019616947
 30
0.0
 40
0.503986270190795
 50
260.358408954935328
 51
264.6514924735308227
  0
ARC
  5
DCFF
  8
0
 10
4211.0630697228252757
 20
180.9436897701002067
 30
0.0
 40
0.631548223943792
 50
266.0129841247568834
 51
269.6800282974327274
  0
ARC
  5
DD00
  8
0
 10
4211.0628074069973081
 20
180.9010552696892944
 30
0.0
 40
0.5870876870780064
 50
260.8519190921487052
 51
269.6813970241968264
  0
ARC
  5
DD01
  8
0
 10
4211.0044344886082399
 20
180.5747513470666945
 30
0.0
 40
0.2555393074217889
 50
245.0670748891643029
 51
260.5888494619629796
  0
ARC
  5
DD02
  8
0
 10
4210.9143061595250401
 20
180.3881875794278926
 30
0.0
 40
0.048137246490557
 50
198.4295074386211866
 51
243.4277279983606093
  0
ARC
  5
DD03
  8
0
 10
4210.9505034486601289
 20
180.3777883950488956
 30
0.0
 40
0.0252271533768075
 50
191.0121348915905912
 51
250.8451005856830989
  0
ARC
  5
DD04
  8
0
 10
4211.0130973452205581
 20
180.4886236851612864
 30
0.0
 40
0.1522730101233669
 50
243.9236119585081894
 51
261.7323121441041849
  0
ARC
  5
DD05
  8
0
 10
4211.0611157277007806
 20
180.7246773992089004
 30
0.0
 40
0.3930580597038642
 50
260.7625979812401056
 51
269.7707181559711103
  0
ARC
  5
DD06
  8
0
 10
4211.0633204148325603
 20
180.7351333516598118
 30
0.0
 40
0.401703376716723
 50
261.0712914512304792
 51
270.0227377544342175
  0
ARC
  5
DD07
  8
0
 10
4211.030485437155221
 20
180.5375743577934884
 30
0.0
 40
0.2013645724877212
 50
249.0354387353912955
 51
259.6056440396288281
  0
ARC
  5
DD08
  8
0
 10
4210.9826529533866051
 20
180.4127357386109907
 30
0.0
 40
0.0676760264457006
 50
226.559437694885986
 51
249.0354387353912955
  0
ARC
  5
DD09
  8
0
 10
4210.9460525945323752
 20
180.3740867892049096
 30
0.0
 40
0.0144470159483019
 50
184.4351855439014116
 51
226.5594376948870945
  0
ARC
  5
DD0A
  8
0
 10
4211.0091069694781254
 20
180.3777945095891084
 30
0.0
 40
0.0151984013477483
 50
198.5095548943866959
 51
249.4455961566081044
  0
ARC
  5
DD0B
  8
0
 10
4211.04061886515683
 20
180.4390128938815963
 30
0.0
 40
0.0839664439779386
 50
243.969979901367708
 51
259.7501200110801278
  0
ARC
  5
DD0C
  8
0
 10
4211.062381717190874
 20
180.5501220033040113
 30
0.0
 40
0.1972294163316739
 50
261.2847809558321046
 51
270.3190070322078213
  0
ARC
  5
DD0D
  8
0
 10
4211.0634032511252371
 20
180.4506842980495946
 30
0.0
 40
0.0850143639649635
 50
263.141605904686287
 51
270.051610845676521
  0
ARC
  5
DD0E
  8
0
 10
4211.062564005823333
 20
180.5363136082507935
 30
0.0
 40
0.1815953701396675
 50
261.4146184830948982
 51
270.2889561174728783
  0
ARC
  5
DD0F
  8
0
 10
4211.0453479719990355
 20
180.4432124287386898
 30
0.0
 40
0.0868655194956938
 50
246.5765158909497927
 51
258.9076242960884997
  0
ARC
  5
DD10
  8
0
 10
4211.0210133268401478
 20
180.3870415589771881
 30
0.0
 40
0.0256499858073208
 50
224.1816951980133013
 51
246.5765158909497927
  0
ARC
  5
DD11
  8
0
 10
4211.0080963261943907
 20
180.3744883514594903
 30
0.0
 40
0.0076379918953665
 50
191.4693676265424074
 51
224.1816951980156034
  0
ARC
  5
DD12
  8
0
 10
4211.0531740199967317
 20
180.3973561155991092
 30
0.0
 40
0.0306128655582223
 50
244.9434182389379941
 51
257.2773376652357911
  0
ARC
  5
DD13
  8
0
 10
4211.044532257080391
 20
180.3788714757442051
 30
0.0
 40
0.0102079157452014
 50
215.3218126293670878
 51
244.9434182389387047
  0
LINE
  5
DD14
  8
0
 10
4211.0043739598841057
 20
180.296620146875
 30
0.0
 11
4211.0191579169841134
 21
180.3136699986054907
 31
0.0
  0
LINE
  5
DD15
  8
0
 10
4211.0595428223841736
 20
180.294508019275014
 30
0.0
 11
4211.0595428223841736
 21
180.3121513942749914
 31
0.0
  0
LINE
  5
DD16
  8
0
 10
4211.0595428223841736
 20
180.3139766592749993
 30
0.0
 11
4211.0595428223841736
 21
180.3316224866750019
 31
0.0
  0
LINE
  5
DD17
  8
0
 10
4210.9694683201842054
 20
180.3214349049750922
 30
0.0
 11
4210.9980198685852884
 21
180.3367166397750054
 31
0.0
  0
LINE
  5
DD18
  8
0
 10
4210.989162529584064
 20
180.2978796662750085
 30
0.0
 11
4211.0039464866840717
 21
180.3149295179750027
 31
0.0
  0
LINE
  5
DD19
  8
0
 10
4210.9379673988842114
 20
180.3045745681750986
 30
0.0
 11
4210.9665149792836019
 21
180.3198541790750937
 31
0.0
  0
LINE
  5
DD1A
  8
0
 10
4210.9311483011842938
 20
180.305791170475004
 30
0.0
 11
4210.9596958815827747
 21
180.3210707814749867
 31
0.0
  0
LINE
  5
DD1B
  8
0
 10
4210.9626492224842877
 20
180.3226515073750988
 30
0.0
 11
4210.9912007708508099
 21
180.3379332420572894
 31
0.0
  0
LINE
  5
DD1C
  8
0
 10
4210.8867881589831086
 20
180.3161443846749989
 30
0.0
 11
4210.9271786809840705
 21
180.3286257423750101
 31
0.0
  0
LINE
  5
DD1D
  8
0
 10
4210.9160431410809906
 20
180.3320668134741993
 30
0.0
 11
4210.8756526190827572
 21
180.3195854557750124
 31
0.0
  0
LINE
  5
DD1E
  8
0
 10
4210.842148914183781
 20
180.3332934935750984
 30
0.0
 11
4210.8915947738842078
 21
180.3421151810750018
 31
0.0
  0
LINE
  5
DD1F
  8
0
 10
4210.8876577659839313
 20
180.3442223981749919
 30
0.0
 11
4210.8382119063835489
 21
180.3354007106750032
 31
0.0
  0
LINE
  5
DD20
  8
0
 10
4210.8165467486833222
 20
180.35122087607499
 30
0.0
 11
4210.8717212277852013
 21
180.3557893700750014
 31
0.0
  0
LINE
  5
DD21
  8
0
 10
4210.8676453373564073
 20
180.3604899604727905
 30
0.0
 11
4210.8124708581854065
 21
180.3559214665750119
 31
0.0
  0
LINE
  5
DD22
  8
0
 10
4210.8056358697840551
 20
180.3729695825749957
 30
0.0
 11
4210.8627310305837455
 21
180.3729695825749957
 31
0.0
  0
LINE
  5
DD23
  8
0
 10
4210.8686377123049169
 20
180.3729695825749957
 30
0.0
 11
4210.9257408091843899
 21
180.3729695825749957
 31
0.0
  0
LINE
  5
DD24
  8
0
 10
4210.8927731024841705
 20
180.3451350306750101
 30
0.0
 11
4210.9422258349841286
 21
180.3539579443749972
 31
0.0
  0
LINE
  5
DD25
  8
0
 10
4210.896710110384447
 20
180.3430278135749916
 30
0.0
 11
4210.9461628428844051
 21
180.3518507272750071
 31
0.0
  0
LINE
  5
DD26
  8
0
 10
4210.9316488408840087
 20
180.3729695825749957
 30
0.0
 11
4210.994694770382921
 21
180.3729695825632007
 31
0.0
  0
LINE
  5
DD27
  8
0
 10
4211.0006108561838118
 20
180.3729695825749957
 30
0.0
 11
4211.0362034395839146
 21
180.3729695825749957
 31
0.0
  0
LINE
  5
DD28
  8
0
 10
4211.0286357943841722
 20
180.3579697070750001
 30
0.0
 11
4211.0464320860828593
 21
180.367494872075099
 31
0.0
  0
LINE
  5
DD29
  8
0
 10
4211.0354548920831803
 20
180.3567531047750094
 30
0.0
 11
4211.0532511837827769
 21
180.3662782697749947
 31
0.0
  0
LINE
  5
DD2A
  8
0
 10
4211.0324968491840991
 20
180.3551698621751029
 30
0.0
 11
4211.0009738844828462
 21
180.3382977269749858
 31
0.0
  0
LINE
  5
DD2B
  8
0
 10
4210.9941547867838381
 20
180.3395143292750049
 30
0.0
 11
4211.0256777514841815
 21
180.3563864644750083
 31
0.0
  0
ARC
  5
DD2C
  8
0
 10
4211.0636601925307332
 20
179.6341780339508887
 30
0.0
 40
0.8196949249848398
 50
85.8776155930355145
 51
89.7374136688676032
  0
ARC
  5
DD2D
  8
0
 10
4211.0756586188908841
 20
179.7762377458900005
 30
0.0
 40
0.6771122082957448
 50
80.3645985459387333
 51
84.7345643233230845
  0
ARC
  5
DD2E
  8
0
 10
4211.1048587935074465
 20
179.9526681850186094
 30
0.0
 40
0.4982841868240625
 50
74.2430437562079533
 51
79.4827519693337194
  0
ARC
  5
DD2F
  8
0
 10
4211.1809229443988443
 20
180.2089646224501109
 30
0.0
 40
0.2308154262384159
 50
63.2505175266871333
 51
72.2456436798539414
  0
ARC
  5
DD30
  8
0
 10
4211.2404249662567963
 20
180.3240503914925057
 30
0.0
 40
0.101203180087873
 50
46.2463750042878772
 51
61.4788652373025712
  0
ARC
  5
DD31
  8
0
 10
4211.290918793021774
 20
180.373106924034289
 30
0.0
 40
0.0304915539905256
 50
4.318175659088463
 51
39.3758317569794585
  0
ARC
  5
DD32
  8
0
 10
4211.2410782508486591
 20
180.3734938853586129
 30
0.0
 40
0.0232289464101794
 50
4.7137523351917938
 51
38.2739493607396781
  0
ARC
  5
DD33
  8
0
 10
4211.2069257124330761
 20
180.3427814206893061
 30
0.0
 40
0.0693852737098829
 50
45.8693818027061013
 51
62.1852334720577389
  0
ARC
  5
DD34
  8
0
 10
4211.160114873627208
 20
180.2579352095139029
 30
0.0
 40
0.1663188923931135
 50
63.0993923145713893
 51
72.2149274033237702
  0
ARC
  5
DD35
  8
0
 10
4211.1017053655768905
 20
180.071376654624288
 30
0.0
 40
0.3619122324649907
 50
74.276646477983931
 51
79.5635687617990328
  0
ARC
  5
DD36
  8
0
 10
4211.07603482390914
 20
179.9316508678884077
 30
0.0
 40
0.503986270190795
 50
80.358408954935328
 51
84.6514924735307943
  0
ARC
  5
DD37
  8
0
 10
4211.0638899375417168
 20
179.8046825997498956
 30
0.0
 40
0.631548223943792
 50
86.0129841247568976
 51
89.6800282974327274
  0
ARC
  5
DD38
  8
0
 10
4211.0641522533696843
 20
179.847317100160808
 30
0.0
 40
0.5870876870780064
 50
80.8519190921487194
 51
89.6813970241968264
  0
ARC
  5
DD39
  8
0
 10
4211.1225251717587525
 20
180.1736210227834079
 30
0.0
 40
0.2555393074217889
 50
65.0670748891644024
 51
80.5888494619630364
  0
ARC
  5
DD3A
  8
0
 10
4211.2126535008419523
 20
180.3601847904222097
 30
0.0
 40
0.048137246490557
 50
18.4295074386212789
 51
63.4277279983606093
  0
ARC
  5
DD3B
  8
0
 10
4211.176456211707773
 20
180.3705839748010931
 30
0.0
 40
0.0252271533768075
 50
11.0121348915906605
 51
70.8451005856831131
  0
ARC
  5
DD3C
  8
0
 10
4211.1138623151473439
 20
180.2597486846887023
 30
0.0
 40
0.1522730101233669
 50
63.9236119585082534
 51
81.7323121441042559
  0
ARC
  5
DD3D
  8
0
 10
4211.0658439326680309
 20
180.0236949706410883
 30
0.0
 40
0.3930580597038642
 50
80.762597981240134
 51
89.7707181559710392
  0
ARC
  5
DD3E
  8
0
 10
4211.0636392455344321
 20
180.0132390181902053
 30
0.0
 40
0.401703376716723
 50
81.071291451230465
 51
90.0227377544341749
  0
ARC
  5
DD3F
  8
0
 10
4211.096474223212681
 20
180.210798012056614
 30
0.0
 40
0.2013645724877212
 50
69.0354387353913239
 51
79.6056440396288139
  0
ARC
  5
DD40
  8
0
 10
4211.1443067069803874
 20
180.3356366312391117
 30
0.0
 40
0.0676760264457006
 50
46.5594376948859576
 51
69.0354387353913239
  0
ARC
  5
DD41
  8
0
 10
4211.1809070658346172
 20
180.3742855806451928
 30
0.0
 40
0.0144470159483019
 50
4.4351855439014054
 51
46.5594376948870732
  0
ARC
  5
DD42
  8
0
 10
4211.1178526908897766
 20
180.3705778602609939
 30
0.0
 40
0.0151984013477483
 50
18.5095548943867314
 51
69.4455961566080759
  0
ARC
  5
DD43
  8
0
 10
4211.0863407952101625
 20
180.3093594759685061
 30
0.0
 40
0.0839664439779386
 50
63.9699799013677932
 51
79.7501200110800852
  0
ARC
  5
DD44
  8
0
 10
4211.0645779431779374
 20
180.1982503665460058
 30
0.0
 40
0.1972294163316739
 50
81.2847809558321046
 51
90.3190070322078356
  0
ARC
  5
DD45
  8
0
 10
4211.0635564092426648
 20
180.297688071800593
 30
0.0
 40
0.0850143639649635
 50
83.1416059046863296
 51
90.0516108456764925
  0
ARC
  5
DD46
  8
0
 10
4211.064395654544569
 20
180.2120587615993088
 30
0.0
 40
0.1815953701396675
 50
81.4146184830949267
 51
90.2889561174728641
  0
ARC
  5
DD47
  8
0
 10
4211.0816116883688665
 20
180.3051599411114125
 30
0.0
 40
0.0868655194956938
 50
66.5765158909498354
 51
78.9076242960884855
  0
ARC
  5
DD48
  8
0
 10
4211.1059463335268447
 20
180.3613308108728859
 30
0.0
 40
0.0256499858073208
 50
44.1816951980132799
 51
66.5765158909498354
  0
ARC
  5
DD49
  8
0
 10
4211.1188633341744207
 20
180.3738840183904983
 30
0.0
 40
0.0076379918953665
 50
11.4693676265439706
 51
44.1816951980156105
  0
ARC
  5
DD4A
  8
0
 10
4211.0737856403720798
 20
180.3510162542509079
 30
0.0
 40
0.0306128655582223
 50
64.9434182389379941
 51
77.2773376652357484
  0
ARC
  5
DD4B
  8
0
 10
4211.0824274032884205
 20
180.3695008941058973
 30
0.0
 40
0.0102079157452014
 50
35.3218126293671517
 51
64.9434182389386905
  0
LINE
  5
DD4C
  8
0
 10
4211.1225857004837962
 20
180.4517522229749886
 30
0.0
 11
4211.1078017433828791
 21
180.4347023712446969
 31
0.0
  0
LINE
  5
DD4D
  8
0
 10
4211.0674168379828188
 20
180.4538643505750031
 30
0.0
 11
4211.0674168379828188
 21
180.4362209755749973
 31
0.0
  0
LINE
  5
DD4E
  8
0
 10
4211.0674168379828188
 20
180.4343957105749894
 30
0.0
 11
4211.0674168379828188
 21
180.4167498831749867
 31
0.0
  0
LINE
  5
DD4F
  8
0
 10
4211.1574913401827871
 20
180.4269374648750102
 30
0.0
 11
4211.1289397917844326
 21
180.4116557300750117
 31
0.0
  0
LINE
  5
DD50
  8
0
 10
4211.1377971307838379
 20
180.4504927035750086
 30
0.0
 11
4211.1230131736838302
 21
180.4334428518750997
 31
0.0
  0
LINE
  5
DD51
  8
0
 10
4211.188992261482781
 20
180.4437978016750037
 30
0.0
 11
4211.1604446810843001
 21
180.4285181907750939
 31
0.0
  0
LINE
  5
DD52
  8
0
 10
4211.1958113591854271
 20
180.4425811993750131
 30
0.0
 11
4211.1672637787842177
 21
180.427301588375002
 31
0.0
  0
LINE
  5
DD53
  8
0
 10
4211.1643104378854332
 20
180.4257208624750035
 30
0.0
 11
4211.135758889517092
 21
180.410439127792813
 31
0.0
  0
LINE
  5
DD54
  8
0
 10
4211.2401715013829744
 20
180.4322279851751034
 30
0.0
 11
4211.1997809793829219
 21
180.419746627475007
 31
0.0
  0
LINE
  5
DD55
  8
0
 10
4211.2109165192869114
 20
180.4163055563759031
 30
0.0
 11
4211.2513070412842353
 21
180.4287869140750047
 31
0.0
  0
LINE
  5
DD56
  8
0
 10
4211.2848107461841209
 20
180.4150788762750039
 30
0.0
 11
4211.2353648864827846
 21
180.4062571887751005
 31
0.0
  0
LINE
  5
DD57
  8
0
 10
4211.2393018943839706
 20
180.4041499716749968
 30
0.0
 11
4211.288747753984353
 21
180.4129716591750139
 31
0.0
  0
LINE
  5
DD58
  8
0
 10
4211.3104129116827608
 20
180.3971514937749987
 30
0.0
 11
4211.2552384325836101
 21
180.3925829997749872
 31
0.0
  0
LINE
  5
DD59
  8
0
 10
4211.2593143230105852
 20
180.3878824093773119
 30
0.0
 11
4211.3144888021843144
 21
180.3924509032750052
 31
0.0
  0
LINE
  5
DD5A
  8
0
 10
4211.3213237905838469
 20
180.375402787274993
 30
0.0
 11
4211.2642286297841565
 21
180.375402787274993
 31
0.0
  0
LINE
  5
DD5B
  8
0
 10
4211.258321948061166
 20
180.375402787274993
 30
0.0
 11
4211.201218851185331
 21
180.375402787274993
 31
0.0
  0
LINE
  5
DD5C
  8
0
 10
4211.2341865578828219
 20
180.403237339175007
 30
0.0
 11
4211.1847338253828639
 21
180.3944144254749915
 31
0.0
  0
LINE
  5
DD5D
  8
0
 10
4211.2302495499843644
 20
180.4053445562749971
 30
0.0
 11
4211.1807968174844063
 21
180.39652164257501
 31
0.0
  0
LINE
  5
DD5E
  8
0
 10
4211.1953108194829838
 20
180.375402787274993
 30
0.0
 11
4211.1322648899840715
 21
180.3754027872869017
 31
0.0
  0
LINE
  5
DD5F
  8
0
 10
4211.1263488041840901
 20
180.375402787274993
 30
0.0
 11
4211.0907562207839874
 21
180.3754027872751067
 31
0.0
  0
LINE
  5
DD60
  8
0
 10
4211.0983238659837298
 20
180.3904026627751023
 30
0.0
 11
4211.0805275742841332
 21
180.3808774977750886
 31
0.0
  0
LINE
  5
DD61
  8
0
 10
4211.0915047682829027
 20
180.3916192650750929
 30
0.0
 11
4211.0737084765842155
 21
180.382094100074994
 31
0.0
  0
LINE
  5
DD62
  8
0
 10
4211.0944628111838028
 20
180.3932025076749994
 30
0.0
 11
4211.1259857758841463
 21
180.4100746428750028
 31
0.0
  0
LINE
  5
DD63
  8
0
 10
4211.1328048735840639
 20
180.4088580405750122
 30
0.0
 11
4211.101281908882811
 21
180.3919859053750088
 31
0.0
  0
ARC
  5
DD64
  8
0
 10
4211.0636601925307332
 20
181.1141943358992137
 30
0.0
 40
0.8196949249848398
 50
270.262586331132411
 51
274.1223844069644997
  0
ARC
  5
DD65
  8
0
 10
4211.0756586188908841
 20
180.9721346239601019
 30
0.0
 40
0.6771122082957448
 50
275.2654356766768728
 51
279.6354014540613093
  0
ARC
  5
DD66
  8
0
 10
4211.1048587935074465
 20
180.7957041848314077
 30
0.0
 40
0.4982841868240625
 50
280.5172480306662806
 51
285.7569562437919899
  0
ARC
  5
DD67
  8
0
 10
4211.1809229443988443
 20
180.5394077473999914
 30
0.0
 40
0.2308154262384159
 50
287.754356320146087
 51
296.7494824733129235
  0
ARC
  5
DD68
  8
0
 10
4211.2404249662567963
 20
180.4243219783575967
 30
0.0
 40
0.101203180087873
 50
298.5211347626973861
 51
313.7536249957120731
  0
ARC
  5
DD69
  8
0
 10
4211.290918793021774
 20
180.3752654458158133
 30
0.0
 40
0.0304915539905256
 50
320.624168243020506
 51
355.6818243409114757
  0
ARC
  5
DD6A
  8
0
 10
4211.2410782508486591
 20
180.3748784844914894
 30
0.0
 40
0.0232289464101794
 50
321.7260506392602792
 51
355.2862476648081724
  0
ARC
  5
DD6B
  8
0
 10
4211.2069257124330761
 20
180.4055909491607963
 30
0.0
 40
0.0693852737098829
 50
297.8147665279421972
 51
314.1306181972939271
  0
ARC
  5
DD6C
  8
0
 10
4211.160114873627208
 20
180.4904371603361994
 30
0.0
 40
0.1663188923931135
 50
287.7850725966761729
 51
296.9006076854286107
  0
ARC
  5
DD6D
  8
0
 10
4211.1017053655768905
 20
180.6769957152257859
 30
0.0
 40
0.3619122324649907
 50
280.4364312382010098
 51
285.7233535220161116
  0
ARC
  5
DD6E
  8
0
 10
4211.07603482390914
 20
180.8167215019616947
 30
0.0
 40
0.503986270190795
 50
275.3485075264691773
 51
279.641591045064672
  0
ARC
  5
DD6F
  8
0
 10
4211.0638899375417168
 20
180.9436897701002067
 30
0.0
 40
0.631548223943792
 50
270.3199717025672726
 51
273.9870158752431166
  0
ARC
  5
DD70
  8
0
 10
4211.0641522533696843
 20
180.9010552696892944
 30
0.0
 40
0.5870876870780064
 50
270.3186029758031736
 51
279.1480809078512948
  0
ARC
  5
DD71
  8
0
 10
4211.1225251717587525
 20
180.5747513470666945
 30
0.0
 40
0.2555393074217889
 50
279.4111505380370204
 51
294.9329251108355834
  0
ARC
  5
DD72
  8
0
 10
4211.2126535008419523
 20
180.3881875794278926
 30
0.0
 40
0.048137246490557
 50
296.5722720016394192
 51
341.5704925613787282
  0
ARC
  5
DD73
  8
0
 10
4211.176456211707773
 20
180.3777883950488956
 30
0.0
 40
0.0252271533768075
 50
289.1548994143169011
 51
348.9878651084093235
  0
ARC
  5
DD74
  8
0
 10
4211.1138623151473439
 20
180.4886236851612864
 30
0.0
 40
0.1522730101233669
 50
278.2676878558957014
 51
296.0763880414917821
  0
ARC
  5
DD75
  8
0
 10
4211.0658439326680309
 20
180.7246773992089004
 30
0.0
 40
0.3930580597038642
 50
270.2292818440290034
 51
279.2374020187598944
  0
ARC
  5
DD76
  8
0
 10
4211.0636392455344321
 20
180.7351333516598118
 30
0.0
 40
0.401703376716723
 50
269.9772622455657825
 51
278.9287085487695208
  0
ARC
  5
DD77
  8
0
 10
4211.096474223212681
 20
180.5375743577934884
 30
0.0
 40
0.2013645724877212
 50
280.3943559603711719
 51
290.9645612646086761
  0
ARC
  5
DD78
  8
0
 10
4211.1443067069803874
 20
180.4127357386109907
 30
0.0
 40
0.0676760264457006
 50
290.9645612646086761
 51
313.4405623051140992
  0
ARC
  5
DD79
  8
0
 10
4211.1809070658346172
 20
180.3740867892049096
 30
0.0
 40
0.0144470159483019
 50
313.4405623051129055
 51
355.5648144560985884
  0
ARC
  5
DD7A
  8
0
 10
4211.1178526908897766
 20
180.3777945095891084
 30
0.0
 40
0.0151984013477483
 50
290.5544038433919241
 51
341.4904451056132757
  0
ARC
  5
DD7B
  8
0
 10
4211.0863407952101625
 20
180.4390128938815963
 30
0.0
 40
0.0839664439779386
 50
280.2498799889198722
 51
296.0300200986321784
  0
ARC
  5
DD7C
  8
0
 10
4211.0645779431779374
 20
180.5501220033040113
 30
0.0
 40
0.1972294163316739
 50
269.6809929677921787
 51
278.7152190441678954
  0
ARC
  5
DD7D
  8
0
 10
4211.0635564092426648
 20
180.4506842980495946
 30
0.0
 40
0.0850143639649635
 50
269.948389154323479
 51
276.858394095313713
  0
ARC
  5
DD7E
  8
0
 10
4211.064395654544569
 20
180.5363136082507935
 30
0.0
 40
0.1815953701396675
 50
269.7110438825271217
 51
278.5853815169051018
  0
ARC
  5
DD7F
  8
0
 10
4211.0816116883688665
 20
180.4432124287386898
 30
0.0
 40
0.0868655194956938
 50
281.092375703911614
 51
293.4234841090502073
  0
ARC
  5
DD80
  8
0
 10
4211.1059463335268447
 20
180.3870415589771881
 30
0.0
 40
0.0256499858073208
 50
293.4234841090502073
 51
315.8183048019866987
  0
ARC
  5
DD81
  8
0
 10
4211.1188633341744207
 20
180.3744883514594903
 30
0.0
 40
0.0076379918953665
 50
315.8183048019831745
 51
348.530632373456001
  0
ARC
  5
DD82
  8
0
 10
4211.0737856403720798
 20
180.3973561155991092
 30
0.0
 40
0.0306128655582223
 50
282.7226623347642089
 51
295.0565817610619774
  0
ARC
  5
DD83
  8
0
 10
4211.0824274032884205
 20
180.3788714757442051
 30
0.0
 40
0.0102079157452014
 50
295.0565817610612953
 51
324.6781873706328838
  0
LINE
  5
DD84
  8
0
 10
4211.1225857004837962
 20
180.296620146875
 30
0.0
 11
4211.1078017433828791
 21
180.3136699986054907
 31
0.0
  0
LINE
  5
DD85
  8
0
 10
4211.0674168379828188
 20
180.294508019275014
 30
0.0
 11
4211.0674168379828188
 21
180.3121513942749914
 31
0.0
  0
LINE
  5
DD86
  8
0
 10
4211.0674168379828188
 20
180.3139766592749993
 30
0.0
 11
4211.0674168379828188
 21
180.3316224866750019
 31
0.0
  0
LINE
  5
DD87
  8
0
 10
4211.1574913401827871
 20
180.3214349049750922
 30
0.0
 11
4211.1289397917844326
 21
180.3367166397750054
 31
0.0
  0
LINE
  5
DD88
  8
0
 10
4211.1377971307838379
 20
180.2978796662750085
 30
0.0
 11
4211.1230131736838302
 21
180.3149295179750027
 31
0.0
  0
LINE
  5
DD89
  8
0
 10
4211.188992261482781
 20
180.3045745681750986
 30
0.0
 11
4211.1604446810843001
 21
180.3198541790750937
 31
0.0
  0
LINE
  5
DD8A
  8
0
 10
4211.1958113591854271
 20
180.305791170475004
 30
0.0
 11
4211.1672637787842177
 21
180.3210707814749867
 31
0.0
  0
LINE
  5
DD8B
  8
0
 10
4211.1643104378854332
 20
180.3226515073750988
 30
0.0
 11
4211.135758889517092
 21
180.3379332420572894
 31
0.0
  0
LINE
  5
DD8C
  8
0
 10
4211.2401715013829744
 20
180.3161443846749989
 30
0.0
 11
4211.1997809793829219
 21
180.3286257423750101
 31
0.0
  0
LINE
  5
DD8D
  8
0
 10
4211.2109165192869114
 20
180.3320668134741993
 30
0.0
 11
4211.2513070412842353
 21
180.3195854557750124
 31
0.0
  0
LINE
  5
DD8E
  8
0
 10
4211.2848107461841209
 20
180.3332934935750984
 30
0.0
 11
4211.2353648864827846
 21
180.3421151810750018
 31
0.0
  0
LINE
  5
DD8F
  8
0
 10
4211.2393018943839706
 20
180.3442223981749919
 30
0.0
 11
4211.288747753984353
 21
180.3354007106750032
 31
0.0
  0
LINE
  5
DD90
  8
0
 10
4211.3104129116827608
 20
180.35122087607499
 30
0.0
 11
4211.2552384325836101
 21
180.3557893700750014
 31
0.0
  0
LINE
  5
DD91
  8
0
 10
4211.2593143230105852
 20
180.3604899604727905
 30
0.0
 11
4211.3144888021843144
 21
180.3559214665750119
 31
0.0
  0
LINE
  5
DD92
  8
0
 10
4211.3213237905838469
 20
180.3729695825749957
 30
0.0
 11
4211.2642286297841565
 21
180.3729695825749957
 31
0.0
  0
LINE
  5
DD93
  8
0
 10
4211.258321948061166
 20
180.3729695825749957
 30
0.0
 11
4211.201218851185331
 21
180.3729695825749957
 31
0.0
  0
LINE
  5
DD94
  8
0
 10
4211.2341865578828219
 20
180.3451350306750101
 30
0.0
 11
4211.1847338253828639
 21
180.3539579443749972
 31
0.0
  0
LINE
  5
DD95
  8
0
 10
4211.2302495499843644
 20
180.3430278135749916
 30
0.0
 11
4211.1807968174844063
 21
180.3518507272750071
 31
0.0
  0
LINE
  5
DD96
  8
0
 10
4211.1953108194829838
 20
180.3729695825749957
 30
0.0
 11
4211.1322648899840715
 21
180.3729695825632007
 31
0.0
  0
LINE
  5
DD97
  8
0
 10
4211.1263488041840901
 20
180.3729695825749957
 30
0.0
 11
4211.0907562207839874
 21
180.3729695825749957
 31
0.0
  0
LINE
  5
DD98
  8
0
 10
4211.0983238659837298
 20
180.3579697070750001
 30
0.0
 11
4211.0805275742841332
 21
180.367494872075099
 31
0.0
  0
LINE
  5
DD99
  8
0
 10
4211.0915047682829027
 20
180.3567531047750094
 30
0.0
 11
4211.0737084765842155
 21
180.3662782697749947
 31
0.0
  0
LINE
  5
DD9A
  8
0
 10
4211.0944628111838028
 20
180.3551698621751029
 30
0.0
 11
4211.1259857758841463
 21
180.3382977269749858
 31
0.0
  0
LINE
  5
DD9B
  8
0
 10
4211.1328048735840639
 20
180.3395143292750049
 30
0.0
 11
4211.101281908882811
 21
180.3563864644750083
 31
0.0
  0
ARC
  5
DD9C
  8
0
 10
4211.0511784644950239
 20
179.0595252673097093
 30
0.0
 40
1.5327822960938009
 50
79.3320231936119455
 51
89.5401670670636065
  0
ARC
  5
DD9D
  8
0
 10
4211.2365546809423904
 20
180.0114092351981867
 30
0.0
 40
0.5630654992773046
 50
62.4998506600565307
 51
79.938706005260272
  0
ARC
  5
DD9E
  8
0
 10
4211.0638511195847968
 20
181.8508800080095114
 30
0.0
 40
1.563992475706266
 50
269.986398070165194
 51
273.9539145189958731
  0
ARC
  5
DD9F
  8
0
 10
4211.0816367442994306
 20
181.5935595522672088
 30
0.0
 40
1.306058093760299
 50
273.9539145189958731
 51
282.0446665816692757
  0
ARC
  5
DDA0
  8
0
 10
4211.2258103720932922
 20
180.9178665494206086
 30
0.0
 40
0.6151550115212518
 50
282.0446665816692757
 51
293.3857961560358945
  0
ARC
  5
DDA1
  8
0
 10
4211.3778455182518883
 20
180.566294960433197
 30
0.0
 40
0.2321181100994516
 50
293.3857961560358945
 51
312.7610080383270201
  0
ARC
  5
DDA2
  8
0
 10
4211.4926226144962129
 20
180.4421776456750024
 30
0.0
 40
0.0630651904414504
 50
312.7610080383281002
 51
357.0780551722021983
  0
ARC
  5
DDA3
  8
0
 10
4211.5053157698166615
 20
180.4386989872631091
 30
0.0
 40
0.0502907372139686
 50
0.3006480522893379
 51
25.4984779949991314
  0
ARC
  5
DDA4
  8
0
 10
4211.468404137838661
 20
180.4190509992419891
 30
0.0
 40
0.0920837305374435
 50
26.6460553537436908
 51
52.4275632806242697
  0
ARC
  5
DDA5
  8
0
 10
4211.3638583174833911
 20
180.2831603022546005
 30
0.0
 40
0.263536668924801
 50
52.4275632806242697
 51
59.7677512488530169
  0
ARC
  5
DDA6
  8
0
 10
4211.0649377173449466
 20
179.5860229902594085
 30
0.0
 40
0.9571955611570547
 50
79.8477736087268681
 51
90.0872661941318569
  0
ARC
  5
DDA7
  8
0
 10
4211.1563304780956969
 20
180.0964039616578987
 30
0.0
 40
0.4386964071718979
 50
64.8939712118353924
 51
79.8477736087268681
  0
ARC
  5
DDA8
  8
0
 10
4211.2989127563441798
 20
180.4007011768742927
 30
0.0
 40
0.1026510214590273
 50
41.4697912599717
 51
64.8939712118353924
  0
ARC
  5
DDA9
  8
0
 10
4211.3437957641099274
 20
180.440368140362807
 30
0.0
 40
0.0427515024411398
 50
6.7045407734429174
 51
41.4697912599717
  0
ARC
  5
DDAA
  8
0
 10
4211.3544801539774198
 20
180.4434855319807127
 30
0.0
 40
0.0318299557911389
 50
341.4560043523874242
 51
3.3749415236440701
  0
ARC
  5
DDAB
  8
0
 10
4211.1796953367820606
 20
180.5011493856160882
 30
0.0
 40
0.2158808407566413
 50
319.5809309527335813
 51
341.6994781898798124
  0
ARC
  5
DDAC
  8
0
 10
4211.2480365240407991
 20
180.438366174296192
 30
0.0
 40
0.1231935728640562
 50
289.8832015066050189
 51
321.2032203959360004
  0
ARC
  5
DDAD
  8
0
 10
4211.1300199273009639
 20
180.732578165187789
 30
0.0
 40
0.4401403169964714
 50
278.3411467516726248
 51
291.3047077912128202
  0
ARC
  5
DDAE
  8
0
 10
4211.0389995258210547
 20
181.323944859469691
 30
0.0
 40
1.038464270302109
 50
273.4162360249313224
 51
278.5767335057224727
  0
ARC
  5
DDAF
  8
0
 10
4211.0661931824351996
 20
179.6358738809312001
 30
0.0
 40
0.8253038316014064
 50
80.6426043024680723
 51
90.1883717321957619
  0
ARC
  5
DDB0
  8
0
 10
4211.126366735744341
 20
180.0010377785503977
 30
0.0
 40
0.4552152899759863
 50
68.921568596329692
 51
80.6426043024680723
  0
ARC
  5
DDB1
  8
0
 10
4211.2424984958088316
 20
180.302337927234305
 30
0.0
 40
0.1323091653936671
 50
44.9458072969311502
 51
68.921568596329692
  0
ARC
  5
DDB2
  8
0
 10
4211.3148679553432885
 20
180.3745706160717077
 30
0.0
 40
0.0300599599698661
 50
4.5398500651222014
 51
44.9458072969311502
  0
ARC
  5
DDB3
  8
0
 10
4211.3100350343529499
 20
180.3741868745667034
 30
0.0
 40
0.0349080918610866
 50
329.787752496769599
 51
4.5398500651238241
  0
ARC
  5
DDB4
  8
0
 10
4211.4791363663052834
 20
180.4434757304329082
 30
0.0
 40
0.0670268337171198
 50
7.5422324655278343
 51
42.0629135209855605
  0
ARC
  5
DDB5
  8
0
 10
4211.4939500462860451
 20
180.4488066054126989
 30
0.0
 40
0.0517495217405532
 50
328.0460091284382997
 51
3.8413007197434612
  0
ARC
  5
DDB6
  8
0
 10
4211.1144312454216561
 20
181.3715239936452974
 30
0.0
 40
1.0693053349858781
 50
277.8572651688559176
 51
283.4040710929178886
  0
ARC
  5
DDB7
  8
0
 10
4211.2212150791592649
 20
180.9234336079998968
 30
0.0
 40
0.6086668858139869
 50
283.4040710929178886
 51
293.4267472517681767
  0
ARC
  5
DDB8
  8
0
 10
4211.3708563736636279
 20
180.5780753999152921
 30
0.0
 40
0.2322830273500084
 50
293.4267472517681767
 51
308.2523519418696765
  0
ARC
  5
DDB9
  8
0
 10
4211.4512987510806852
 20
180.4760433455751922
 30
0.0
 40
0.10235413834803
 50
308.2523519418696765
 51
327.7454296418162016
  0
ARC
  5
DDBA
  8
0
 10
4211.3750573747047383
 20
180.4066817561586902
 30
0.0
 40
0.1474698421685441
 50
47.8841407011986391
 51
56.7091560085471471
  0
ARC
  5
DDBB
  8
0
 10
4211.4244227333456365
 20
180.4592827785754139
 30
0.0
 40
0.0753568944012364
 50
24.5750001755154592
 51
48.9051706443772005
  0
ARC
  5
DDBC
  8
0
 10
4211.274765566538008
 20
180.705968071081287
 30
0.0
 40
0.3411681343602227
 50
283.4820355277532826
 51
302.3365191830174012
  0
ARC
  5
DDBD
  8
0
 10
4211.3996781587402438
 20
180.5086544444878882
 30
0.0
 40
0.1076390720789576
 50
302.3365191830174012
 51
326.4426369010980125
  0
ARC
  5
DDBE
  8
0
 10
4211.4531812781287954
 20
180.4731644183410992
 30
0.0
 40
0.0434352891665388
 50
326.4426369010980125
 51
23.6990938354379708
  0
LINE
  5
DDBF
  8
0
 10
4211.4965506961852952
 20
180.5108537551749919
 30
0.0
 11
4211.4965506961852952
 21
180.4755556361450886
 31
0.0
  0
ARC
  5
DDC0
  8
0
 10
4211.0336908930239588
 20
179.0526862405729958
 30
0.0
 40
1.5351934373928
 50
84.3667873743681866
 51
88.8881613656833167
  0
ARC
  5
DDC1
  8
0
 10
4211.1019123052292343
 20
179.7968668677690971
 30
0.0
 40
0.7879269813714679
 50
72.4497727078632039
 51
83.991807011116407
  0
ARC
  5
DDC2
  8
0
 10
4211.2742062843535678
 20
180.3416478520360897
 30
0.0
 40
0.2165501039414734
 50
50.0050238429933387
 51
72.4497727078632039
  0
ARC
  5
DDC3
  8
0
 10
4211.3820606577737635
 20
180.4702065798674084
 30
0.0
 40
0.0487409493423899
 50
15.7028874549034292
 51
50.0050238429933387
  0
ARC
  5
DDC4
  8
0
 10
4211.3934746482600531
 20
180.4734155285705981
 30
0.0
 40
0.0368844519418537
 50
343.4213893646734732
 51
15.7028874549034292
  0
ARC
  5
DDC5
  8
0
 10
4210.9827765184727468
 20
180.6290474533809913
 30
0.0
 40
0.4759914122567707
 50
335.2117488694321992
 51
339.5693177212029923
  0
ARC
  5
DDC6
  8
0
 10
4211.3372153988875652
 20
180.4719128508351105
 30
0.0
 40
0.0885281156374307
 50
301.4449735220300113
 51
331.3596772259712111
  0
ARC
  5
DDC7
  8
0
 10
4211.2292698339288108
 20
180.6484443369866995
 30
0.0
 40
0.2954474491883392
 50
296.4847200806855767
 51
301.4449735220300113
  0
ARC
  5
DDC8
  8
0
 10
4211.0663189656752365
 20
179.506095158097196
 30
0.0
 40
1.046858951725862
 50
80.7891936474786405
 51
90.1553893007637157
  0
ARC
  5
DDC9
  8
0
 10
4211.1422731786824443
 20
179.9744908638483025
 30
0.0
 40
0.5723449059486942
 50
68.5308106436449691
 51
80.7891936474786405
  0
ARC
  5
DDCA
  8
0
 10
4211.2926301208726727
 20
180.3567969582639989
 30
0.0
 40
0.1615345362011096
 50
46.7341917557705102
 51
68.5308106436449691
  0
ARC
  5
DDCB
  8
0
 10
4211.3705968866470357
 20
180.4396322643945894
 30
0.0
 40
0.0477781978858429
 50
17.6509195389255602
 51
46.7341917557705102
  0
ARC
  5
DDCC
  8
0
 10
4211.382520193248638
 20
180.4434262260315052
 30
0.0
 40
0.0352658285960827
 50
350.0892603147456725
 51
17.6509195389255602
  0
ARC
  5
DDCD
  8
0
 10
4211.3749350862262872
 20
180.4447515042558905
 30
0.0
 40
0.0429658422922803
 50
341.6842453575421814
 51
350.0892603147456725
  0
ARC
  5
DDCE
  8
0
 10
4211.0646217423927737
 20
182.8571124446906992
 30
0.0
 40
0.0334765521737772
 50
91.800127236047544
 51
110.2949723400805055
  0
ARC
  5
DDCF
  8
0
 10
4211.9156194275419693
 20
180.358648831654989
 30
0.0
 40
2.672881565139634
 50
108.827879463154801
 51
143.172127506803804
  0
ARC
  5
DDD0
  8
0
 10
4209.8000323908599967
 20
181.9419420541640875
 30
0.0
 40
0.0304446997019968
 50
141.7050346298672139
 51
182.2949031644876072
  0
ARC
  5
DDD1
  8
0
 10
4212.4422119816190389
 20
181.9793415676080883
 30
0.0
 40
2.6728788741805629
 50
180.827856528410905
 51
215.1721412975354042
  0
ARC
  5
DDD2
  8
0
 10
4210.2811142685777668
 20
180.4544356261768883
 30
0.0
 40
0.0279917351574114
 50
211.8367331219633911
 51
256.1632158060044162
  0
ARC
  5
DDD3
  8
0
 10
4211.1013400575893684
 20
183.1283124743800954
 30
0.0
 40
2.824801250489251
 50
252.9781897032140137
 51
259.6003078229779817
  0
ARC
  5
DDD4
  8
0
 10
4211.0597329787942726
 20
183.6148010024589041
 30
0.0
 40
3.3431571689301292
 50
264.1037282577709107
 51
270.0657622177628809
  0
ARC
  5
DDD5
  8
0
 10
4210.7217263712345812
 20
180.3418958175155069
 30
0.0
 40
0.0528445977016881
 50
248.7944673224999121
 51
264.1037282456692878
  0
ARC
  5
DDD6
  8
0
 10
4210.9171327722006026
 20
180.845539341345301
 30
0.0
 40
0.5930672005561304
 50
231.1386865199301042
 51
248.7944673224999121
  0
ARC
  5
DDD7
  8
0
 10
4210.6712212780248592
 20
180.540356469513398
 30
0.0
 40
0.2011372983704012
 50
209.7204593846184082
 51
231.1386865199291094
  0
ARC
  5
DDD8
  8
0
 10
4210.6004191012743831
 20
180.4999381063090027
 30
0.0
 40
0.1196106627419347
 50
178.9815817311877026
 51
209.7204593846184082
  0
ARC
  5
DDD9
  8
0
 10
4210.4972955030898447
 20
180.4906268834477032
 30
0.0
 40
0.0200501688607414
 50
121.9059921822430965
 51
145.2199820829227974
  0
ARC
  5
DDDA
  8
0
 10
4211.0568783819790042
 20
179.3841573314147126
 30
0.0
 40
1.250787623687273
 50
89.693464925917425
 51
90.1287515579420671
  0
ARC
  5
DDDB
  8
0
 10
4211.2012516759150458
 20
178.6508462779466981
 30
0.0
 40
1.9895472234815099
 50
94.2425392753881539
 51
111.0482301689883968
  0
ARC
  5
DDDC
  8
0
 10
4210.4691537106982651
 20
181.7245313573521912
 30
0.0
 40
0.0389999997947519
 50
145.4183605598529141
 51
178.5807413716659937
  0
ARC
  5
DDDD
  8
0
 10
4220.8458614451228641
 20
181.6393560511353087
 30
0.0
 40
10.4160519722002096
 50
179.5261556618879979
 51
180.0576053787073079
  0
LINE
  5
DDDE
  8
0
 10
4210.4298147373829124
 20
181.6498263422593027
 30
0.0
 11
4210.4298147373829124
 21
180.5519315428259972
 31
0.0
  0
ARC
  5
DDDF
  8
0
 10
4210.5780348228881849
 20
180.5595913123995047
 30
0.0
 40
0.1484178756641246
 50
182.9583197182660115
 51
207.1924162640978864
  0
ARC
  5
DDE0
  8
0
 10
4210.6352797336048752
 20
180.5890016227064052
 30
0.0
 40
0.2127758289835718
 50
207.1924162640978864
 51
226.8112314787221067
  0
ARC
  5
DDE1
  8
0
 10
4211.6130581665620412
 20
181.6306390063456888
 30
0.0
 40
1.6414322267749479
 50
226.8112314787221067
 51
228.6718690121639099
  0
ARC
  5
DDE2
  8
0
 10
4211.0633406129281866
 20
180.6084232324134859
 30
0.0
 40
0.1027886594853248
 50
89.8720560942560667
 51
96.4679926809964456
  0
ARC
  5
DDE3
  8
0
 10
4211.195572489918959
 20
178.6329963841315021
 30
0.0
 40
2.0825326670979512
 50
93.9597537303390027
 51
111.3604259754129941
  0
ARC
  5
DDE4
  8
0
 10
4210.44071980885019
 20
180.5617096743241916
 30
0.0
 40
0.0113754704193601
 50
108.8521870247619034
 51
163.4653815242971859
  0
ARC
  5
DDE5
  8
0
 10
4210.4655555120962163
 20
180.5718298611575108
 30
0.0
 40
0.0331163009208075
 50
183.8799097872700088
 51
221.0029553724033917
  0
LINE
  5
DDE6
  8
0
 10
4210.4405634432232546
 20
180.5501023237873994
 30
0.0
 11
4210.4834778973900029
 21
180.5051555807081911
 31
0.0
  0
LINE
  5
DDE7
  8
0
 10
4210.4301656752841154
 20
180.6572935589435076
 30
0.0
 11
4210.2647305857835818
 21
180.4317395433604077
 31
0.0
  0
LINE
  5
DDE8
  8
0
 10
4209.7710777659285668
 20
181.9513499994785946
 30
0.0
 11
4210.4320520873534406
 21
181.7365509051456911
 31
0.0
  0
ARC
  5
DDE9
  8
0
 10
4210.7539263648295673
 20
181.1029329252106947
 30
0.0
 40
1.1361369174883971
 50
34.5134030661564992
 51
73.5970602299009613
  0
ARC
  5
DDEA
  8
0
 10
4211.0625185459530258
 20
182.8571124446906992
 30
0.0
 40
0.0334765521737772
 50
69.7050276599195087
 51
88.199872763952456
  0
ARC
  5
DDEB
  8
0
 10
4210.2115208608047396
 20
180.358648831654989
 30
0.0
 40
2.672881565139634
 50
36.8278724931962174
 51
71.1721205368451422
  0
ARC
  5
DDEC
  8
0
 10
4212.3271078974858028
 20
181.9419420541640875
 30
0.0
 40
0.0304446997019968
 50
357.7050968355122791
 51
38.2949653701328288
  0
ARC
  5
DDED
  8
0
 10
4209.6849283067267606
 20
181.9793415676080883
 30
0.0
 40
2.6728788741805629
 50
324.8278587024644821
 51
359.172143471589095
  0
ARC
  5
DDEE
  8
0
 10
4211.8460260197680327
 20
180.4544356261768883
 30
0.0
 40
0.0279917351574114
 50
283.8367841939955838
 51
328.1632668780364952
  0
ARC
  5
DDEF
  8
0
 10
4211.0258002307573406
 20
183.1283124743800954
 30
0.0
 40
2.824801250489251
 50
280.3996921770219046
 51
287.0218102967859863
  0
ARC
  5
DDF0
  8
0
 10
4211.0674073095524363
 20
183.6148010024589041
 30
0.0
 40
3.3431571689301629
 50
269.9342377822371191
 51
275.896271742229203
  0
ARC
  5
DDF1
  8
0
 10
4211.4054139171121278
 20
180.3418958175155069
 30
0.0
 40
0.0528445977016881
 50
275.8962717543307122
 51
291.2055326775000026
  0
ARC
  5
DDF2
  8
0
 10
4211.2100075161451969
 20
180.845539341345301
 30
0.0
 40
0.5930672005561304
 50
291.2055326775000026
 51
308.8613134800698958
  0
ARC
  5
DDF3
  8
0
 10
4211.4559190103209403
 20
180.540356469513398
 30
0.0
 40
0.2011372983704012
 50
308.861313480070919
 51
330.2795406153815065
  0
ARC
  5
DDF4
  8
0
 10
4211.5267211870723258
 20
180.4999381063090027
 30
0.0
 40
0.1196106627419347
 50
330.2795406153815065
 51
1.0184182688123049
  0
ARC
  5
DDF5
  8
0
 10
4211.6298447852568643
 20
180.4906268834477032
 30
0.0
 40
0.0200501688607414
 50
34.7800179170771315
 51
58.0940078177569106
  0
ARC
  5
DDF6
  8
0
 10
4211.0702619063677048
 20
179.3841573314147126
 30
0.0
 40
1.250787623687273
 50
89.8712484420579329
 51
90.306535074082575
  0
ARC
  5
DDF7
  8
0
 10
4210.9258886124307537
 20
178.6508462779466981
 30
0.0
 40
1.9895472234815099
 50
68.9517698310115605
 51
85.7574607246118461
  0
ARC
  5
DDF8
  8
0
 10
4211.6579865776484439
 20
181.7245313573521912
 30
0.0
 40
0.0389999997947519
 50
1.4192586283340469
 51
34.5816394401471285
  0
ARC
  5
DDF9
  8
0
 10
4201.2812788432220259
 20
181.6393560511353087
 30
0.0
 40
10.4160519722002096
 50
359.9423946212925784
 51
0.4738443381119487
  0
LINE
  5
DDFA
  8
0
 10
4211.6973255509628871
 20
181.6498263422593027
 30
0.0
 11
4211.6973255509628871
 21
180.5519315428259972
 31
0.0
  0
ARC
  5
DDFB
  8
0
 10
4211.5491054654576146
 20
180.5595913123995047
 30
0.0
 40
0.1484178756641246
 50
332.8075837359020284
 51
357.0416802817338748
  0
ARC
  5
DDFC
  8
0
 10
4211.4918605547400148
 20
180.5890016227064052
 30
0.0
 40
0.2127758289835718
 50
313.1887685212768133
 51
332.8075837359020284
  0
ARC
  5
DDFD
  8
0
 10
4210.5140821217828488
 20
181.6306390063456888
 30
0.0
 40
1.6414322267749479
 50
311.3281309878360048
 51
313.1887685212768133
  0
ARC
  5
DDFE
  8
0
 10
4211.0637996754176129
 20
180.6084232324134859
 30
0.0
 40
0.1027886594853248
 50
83.5320073190035544
 51
90.127943905743976
  0
ARC
  5
DDFF
  8
0
 10
4210.9315677984277499
 20
178.6329963841315021
 30
0.0
 40
2.0825326670979512
 50
68.6395740245869348
 51
86.0402462696609831
  0
ARC
  5
DE00
  8
0
 10
4211.6864204794956095
 20
180.5617096743241916
 30
0.0
 40
0.0113754704193601
 50
16.5346184757027501
 51
71.1478129752380539
  0
ARC
  5
DE01
  8
0
 10
4211.6615847762514022
 20
180.5718298611575108
 30
0.0
 40
0.0331163009208075
 50
318.997044627596722
 51
356.1200902127300196
  0
LINE
  5
DE02
  8
0
 10
4211.6865768451234544
 20
180.5501023237873994
 30
0.0
 11
4211.6436623909567061
 21
180.5051555807081911
 31
0.0
  0
LINE
  5
DE03
  8
0
 10
4211.6969746130625936
 20
180.6572935589435076
 30
0.0
 11
4211.8624097025622177
 21
180.4317395433604077
 31
0.0
  0
LINE
  5
DE04
  8
0
 10
4212.3560625224172327
 20
181.9513499994785946
 30
0.0
 11
4211.6950882009923589
 21
181.7365509051456911
 31
0.0
  0
ARC
  5
DE05
  8
0
 10
4211.0617539782133463
 20
182.142221341495997
 30
0.0
 40
0.0522519052064829
 50
75.5860292881400255
 51
88.0081184058874584
  0
LINE
  5
DE06
  8
0
 10
4216.717178012041586
 20
181.8108709345603984
 30
0.0
 11
4216.717178012041586
 21
181.2518925801603871
 31
0.0
  0
LINE
  5
DE07
  8
0
 10
4216.6656757411737999
 20
181.7593578593007067
 30
0.0
 11
4216.6656757411737999
 21
181.3033935960567931
 31
0.0
  0
LINE
  5
DE08
  8
0
 10
4216.6745780120418203
 20
181.8534709345603915
 30
0.0
 11
4215.4494799518115542
 21
181.8534709345603915
 31
0.0
  0
LINE
  5
DE09
  8
0
 10
4216.6745780120418203
 20
181.209292580160394
 30
0.0
 11
4215.4494799518115542
 21
181.209292580160394
 31
0.0
  0
ARC
  5
DE0A
  8
0
 10
4216.6745780120418203
 20
181.8108709345603984
 30
0.0
 40
0.0426
 50
0.0
 51
90.0
  0
ARC
  5
DE0B
  8
0
 10
4216.6745780120418203
 20
181.2518925801603871
 30
0.0
 40
0.0426
 50
270.0
 51
0.0000000000048853
  0
LINE
  5
DE0C
  8
0
 10
4216.6230757411740342
 20
181.2607935960569137
 30
0.0
 11
4215.3947518450522693
 21
181.2607935960568
 31
0.0
  0
LINE
  5
DE0D
  8
0
 10
4216.6230757411740342
 20
181.8019578593005861
 30
0.0
 11
4215.3947518450522693
 21
181.8019578593005861
 31
0.0
  0
ARC
  5
DE0E
  8
0
 10
4216.6230757411740342
 20
181.7593578593007067
 30
0.0
 40
0.0426
 50
0.0
 51
90.0
  0
ARC
  5
DE0F
  8
0
 10
4216.6230757411740342
 20
181.3033935960567931
 30
0.0
 40
0.0426
 50
270.0
 51
0.0000000000048853
  0
LINE
  5
DE10
  8
0
 10
4216.6531984900520911
 20
181.2732708471783099
 30
0.0
 11
4216.7005511001907507
 21
181.2181263441840997
 31
0.0
  0
LINE
  5
DE11
  8
0
 10
4216.7047007609198772
 20
181.8409936834389953
 30
0.0
 11
4216.6531984900520911
 21
181.7894806081791899
 31
0.0
  0
LINE
  5
DE12
  8
0
 10
4215.3226799518115513
 20
181.9802709345603944
 30
0.0
 11
4215.3226799518115513
 21
183.205370934560392
 31
0.0
  0
LINE
  5
DE13
  8
0
 10
4215.3226799518115513
 20
181.0824925801603911
 30
0.0
 11
4215.3226799518115513
 21
179.8573925801603934
 31
0.0
  0
LINE
  5
DE14
  8
0
 10
4215.2800799518126951
 20
183.2479709345602998
 30
0.0
 11
4214.7210776143119801
 21
183.2479709345602998
 31
0.0
  0
ARC
  5
DE15
  8
0
 10
4215.4494799518115542
 20
181.9802709345603091
 30
0.0
 40
0.1268
 50
179.9999999999967031
 51
270.0
  0
ARC
  5
DE16
  8
0
 10
4215.4494799518115542
 20
181.0824925801603911
 30
0.0
 40
0.1268
 50
90.0
 51
180.0000000000015916
  0
LINE
  5
DE17
  8
0
 10
4215.2679518450522664
 20
181.1339935960567971
 30
0.0
 11
4215.2679518450522664
 21
179.9088913934834011
 31
0.0
  0
LINE
  5
DE18
  8
0
 10
4215.2679518450522664
 20
181.9287578593007026
 30
0.0
 11
4215.2679518450522664
 21
183.1538589383403917
 31
0.0
  0
ARC
  5
DE19
  8
0
 10
4215.3947518450522693
 20
181.9287578593007026
 30
0.0
 40
0.1268
 50
179.9999999999984084
 51
270.0
  0
ARC
  5
DE1A
  8
0
 10
4215.3947518450522693
 20
181.1339935960567971
 30
0.0
 40
0.1268
 50
90.0
 51
179.9999999999951115
  0
LINE
  5
DE1B
  8
0
 10
4215.2253518450515912
 20
183.1964589383404132
 30
0.0
 11
4214.7758057210721745
 21
183.1964589383404132
 31
0.0
  0
LINE
  5
DE1C
  8
0
 10
4215.2253518450515912
 20
179.866291393483408
 30
0.0
 11
4214.7758057210721745
 21
179.866291393483408
 31
0.0
  0
ARC
  5
DE1D
  8
0
 10
4215.2800799518126951
 20
183.205370934560392
 30
0.0
 40
0.0426
 50
0.0
 51
90.0
  0
ARC
  5
DE1E
  8
0
 10
4215.2253518450515912
 20
183.1538589383403917
 30
0.0
 40
0.0426
 50
0.0
 51
90.0
  0
LINE
  5
DE1F
  8
0
 10
4215.2800799518126951
 20
179.8147925801604003
 30
0.0
 11
4214.7210776143119801
 21
179.8147925801604003
 31
0.0
  0
ARC
  5
DE20
  8
0
 10
4215.2253518450515912
 20
179.9088913934834011
 30
0.0
 40
0.0426
 50
270.0
 51
0.0
  0
ARC
  5
DE21
  8
0
 10
4215.2800799518126951
 20
179.8573925801603934
 30
0.0
 40
0.0426
 50
270.0
 51
0.0000000000048853
  0
LINE
  5
DE22
  8
0
 10
4213.2839776143118797
 20
181.8108709345603984
 30
0.0
 11
4213.2839776143118797
 21
181.2518925801597902
 31
0.0
  0
LINE
  5
DE23
  8
0
 10
4213.3354798851796659
 20
181.7593578593007067
 30
0.0
 11
4213.3354798851796659
 21
181.3033935960567931
 31
0.0
  0
LINE
  5
DE24
  8
0
 10
4213.3265776143125549
 20
181.8534709345603915
 30
0.0
 11
4214.5516776143122115
 21
181.8534709345603915
 31
0.0
  0
LINE
  5
DE25
  8
0
 10
4213.3265776143125549
 20
181.209292580160394
 30
0.0
 11
4214.5516776143122115
 21
181.209292580160394
 31
0.0
  0
ARC
  5
DE26
  8
0
 10
4213.3265776143125549
 20
181.8108709345603984
 30
0.0
 40
0.0426
 50
90.0
 51
180.0
  0
ARC
  5
DE27
  8
0
 10
4213.3265776143125549
 20
181.2518925801614955
 30
0.0
 40
0.0426000000011442
 50
180.0000000022700135
 51
269.9999999993746087
  0
LINE
  5
DE28
  8
0
 10
4213.3780798851812506
 20
181.2607935960569137
 30
0.0
 11
4214.6064057210724059
 21
181.2607935960568
 31
0.0
  0
LINE
  5
DE29
  8
0
 10
4213.3780798851812506
 20
181.8019578593005861
 30
0.0
 11
4214.6064057210724059
 21
181.8019578593005861
 31
0.0
  0
ARC
  5
DE2A
  8
0
 10
4213.3780798851812506
 20
181.7593578593007067
 30
0.0
 40
0.0426
 50
90.0
 51
180.0
  0
ARC
  5
DE2B
  8
0
 10
4213.3780798851812506
 20
181.3033935960567931
 30
0.0
 40
0.0426
 50
179.9999999999951115
 51
270.0
  0
LINE
  5
DE2C
  8
0
 10
4213.3479571363022842
 20
181.2732708471783099
 30
0.0
 11
4213.3006045261636245
 21
181.2181263441840997
 31
0.0
  0
LINE
  5
DE2D
  8
0
 10
4213.2964548654335886
 20
181.8409936834389953
 30
0.0
 11
4213.3479571363022842
 21
181.7894806081791899
 31
0.0
  0
LINE
  5
DE2E
  8
0
 10
4214.6784776143122144
 20
181.9802709345603944
 30
0.0
 11
4214.6784776143122144
 21
183.205370934560392
 31
0.0
  0
LINE
  5
DE2F
  8
0
 10
4214.6784776143122144
 20
181.0824925801603911
 30
0.0
 11
4214.6784776143122144
 21
179.8573925801603934
 31
0.0
  0
ARC
  5
DE30
  8
0
 10
4214.5516776143122115
 20
181.9802709345603091
 30
0.0
 40
0.1268
 50
270.0
 51
0.0000000000032569
  0
ARC
  5
DE31
  8
0
 10
4214.5516776143122115
 20
181.0824925801603911
 30
0.0
 40
0.1268
 50
359.9999999999984084
 51
90.0
  0
LINE
  5
DE32
  8
0
 10
4214.7332057210724088
 20
181.1339935960567971
 30
0.0
 11
4214.7332057210724088
 21
179.9088913934834011
 31
0.0
  0
LINE
  5
DE33
  8
0
 10
4214.7332057210724088
 20
181.9287578593007026
 30
0.0
 11
4214.7332057210724088
 21
183.1538589383403917
 31
0.0
  0
ARC
  5
DE34
  8
0
 10
4214.6064057210724059
 20
181.9287578593007026
 30
0.0
 40
0.1268
 50
270.0
 51
0.0000000000016284
  0
ARC
  5
DE35
  8
0
 10
4214.6064057210724059
 20
181.1339935960567971
 30
0.0
 40
0.1268
 50
0.0000000000048853
 51
90.0
  0
ARC
  5
DE36
  8
0
 10
4214.7210776143119801
 20
183.205370934560392
 30
0.0
 40
0.0426
 50
90.0
 51
180.0
  0
ARC
  5
DE37
  8
0
 10
4214.7758057210721745
 20
183.1538589383403917
 30
0.0
 40
0.0426
 50
90.0
 51
180.0
  0
ARC
  5
DE38
  8
0
 10
4214.7758057210721745
 20
179.9088913934834011
 30
0.0
 40
0.0426
 50
180.0
 51
270.0
  0
ARC
  5
DE39
  8
0
 10
4214.7210776143119801
 20
179.8573925801603934
 30
0.0
 40
0.0426
 50
179.9999999999951115
 51
270.0
  0
LINE
  5
DE3A
  8
0
 10
4214.6909548654321043
 20
183.2354936834389036
 30
0.0
 11
4214.7456829721932081
 21
183.1839816872189033
 31
0.0
  0
LINE
  5
DE3B
  8
0
 10
4215.310202700690752
 20
183.2354936834389036
 30
0.0
 11
4215.2554745939296481
 21
183.1839816872189033
 31
0.0
  0
LINE
  5
DE3C
  8
0
 10
4214.7456829721932081
 20
179.8787686446048042
 30
0.0
 11
4214.6909548654321043
 21
179.8272698312817965
 31
0.0
  0
LINE
  5
DE3D
  8
0
 10
4215.2554745939296481
 20
179.8787686446048042
 30
0.0
 11
4215.312239021563073
 21
179.8294541794766133
 31
0.0
  0
ARC
  5
DE3E
  8
0
 10
4215.8074338556662042
 20
180.4012137467142907
 30
0.0
 40
2.613500913914915
 50
115.5927011328350034
 51
143.3086220015615027
  0
ARC
  5
DE3F
  8
0
 10
4213.7398068283800967
 20
181.939016821805609
 30
0.0
 40
0.0367700806786103
 50
139.7144314578085016
 51
184.2855866199901129
  0
ARC
  5
DE40
  8
0
 10
4275.5509130626651313
 20
183.8046288277232065
 30
0.0
 40
61.8759877144506518
 50
181.7303223155504952
 51
181.8070280868932116
  0
LINE
  5
DE41
  8
0
 10
4213.7048317438311642
 20
181.9503650504748009
 30
0.0
 11
4213.9995757370561478
 21
181.8534709345597946
 31
0.0
  0
ARC
  5
DE42
  8
0
 10
4214.1937237104593805
 20
180.4012137467142907
 30
0.0
 40
2.613500913914915
 50
36.6913779984371899
 51
64.4072988671649398
  0
ARC
  5
DE43
  8
0
 10
4216.261350737743669
 20
181.939016821805609
 30
0.0
 40
0.0367700806786103
 50
355.7144133800097734
 51
40.2855685421914629
  0
ARC
  5
DE44
  8
0
 10
4154.4502445034604534
 20
183.8046288277232918
 30
0.0
 40
61.8759877144506518
 50
358.1929719131068168
 51
358.2696776844493911
  0
LINE
  5
DE45
  8
0
 10
4216.2963258222944205
 20
181.9503650504748009
 30
0.0
 11
4216.0015818290694369
 21
181.8534709345597946
 31
0.0
  0
ARC
  5
DE46
  8
0
 10
4216.330444424689631
 20
181.9588311877539866
 30
0.0
 40
2.6235921980404511
 50
196.600201354192393
 51
215.228801171675201
  0
ARC
  5
DE47
  8
0
 10
4214.2243673804341597
 20
180.4715712094530033
 30
0.0
 40
0.0453170460444161
 50
215.2288011716740073
 51
251.8869554096478964
  0
ARC
  5
DE48
  8
0
 10
4214.9955354496560176
 20
182.9898559584948998
 30
0.0
 40
2.6790247057801988
 50
252.9555844339948862
 51
263.2032161124387244
  0
LINE
  5
DE49
  8
0
 10
4214.1974485813434512
 20
180.4351155800160882
 30
0.0
 11
4214.6777213064142416
 21
181.0963210898931948
 31
0.0
  0
ARC
  5
DE4A
  8
0
 10
4213.6707131414341347
 20
181.9588311877539866
 30
0.0
 40
2.6235921980404511
 50
324.7711988283247138
 51
343.3997986458077207
  0
ARC
  5
DE4B
  8
0
 10
4215.776790185691425
 20
180.4715712094530033
 30
0.0
 40
0.0453170460444161
 50
288.1130445903519899
 51
324.771198828326078
  0
ARC
  5
DE4C
  8
0
 10
4215.0056221164686576
 20
182.9898559584948998
 30
0.0
 40
2.6790247057801988
 50
276.7967838875612756
 51
287.0444155660051138
  0
LINE
  5
DE4D
  8
0
 10
4215.803708984783043
 20
180.4351155800160882
 30
0.0
 11
4215.3234362597113432
 21
181.0963210898931948
 31
0.0
  0
ENDSEC
  0
EOF
