  0
SECTION
  2
HEADER
  9
$ACADVER
  1
AC1009
  9
$INSBASE
 10
6890.2860288121937629
 20
187.7263857395554965
 30
0.0
  9
$EXTMIN
 10
6884.7458565135057142
 20
179.128273387001002
 30
-0.0000000000000058
  9
$EXTMAX
 10
6895.7937648775368871
 20
187.7369038653141047
 30
0.0000000000000104
  9
$LIMMIN
 10
0.0
 20
0.0
  9
$LIMMAX
 10
11.6929133858000007
 20
8.2677165353999982
  9
$ORTHOMODE
 70
     0
  9
$REGENMODE
 70
     1
  9
$FILLMODE
 70
     1
  9
$QTEXTMODE
 70
     0
  9
$MIRRTEXT
 70
     0
  9
$DRAGMODE
 70
     2
  9
$LTSCALE
 40
0.6431102362
  9
$OSMODE
 70
  4095
  9
$ATTMODE
 70
     1
  9
$TEXTSIZE
 40
0.2
  9
$TRACEWID
 40
0.05
  9
$TEXTSTYLE
  7
STANDARD
  9
$CLAYER
  8
0
  9
$CELTYPE
  6
BYLAYER
  9
$CECOLOR
 62
   256
  9
$DIMSCALE
 40
1.0
  9
$DIMASZ
 40
0.1875
  9
$DIMEXO
 40
0.0625
  9
$DIMDLI
 40
0.4443307087
  9
$DIMRND
 40
0.0
  9
$DIMDLE
 40
0.0
  9
$DIMEXE
 40
0.125
  9
$DIMTP
 40
0.01
  9
$DIMTM
 40
0.01
  9
$DIMTXT
 40
2.0
  9
$DIMCEN
 40
0.1052362205
  9
$DIMTSZ
 40
0.0
  9
$DIMTOL
 70
     1
  9
$DIMLIM
 70
     0
  9
$DIMTIH
 70
     1
  9
$DIMTOH
 70
     1
  9
$DIMSE1
 70
     0
  9
$DIMSE2
 70
     0
  9
$DIMTAD
 70
     0
  9
$DIMZIN
 70
     0
  9
$DIMBLK
  1

  9
$DIMASO
 70
     1
  9
$DIMSHO
 70
     1
  9
$DIMPOST
  1
\X
  9
$DIMAPOST
  1

  9
$DIMALT
 70
     1
  9
$DIMALTD
 70
     2
  9
$DIMALTF
 40
25.3999999999999986
  9
$DIMLFAC
 40
1.0
  9
$DIMTOFL
 70
     0
  9
$DIMTVP
 40
0.0
  9
$DIMTIX
 70
     0
  9
$DIMSOXD
 70
     0
  9
$DIMSAH
 70
     0
  9
$DIMBLK1
  1

  9
$DIMBLK2
  1

  9
$DIMSTYLE
  2
STANDARD
  9
$DIMCLRD
 70
     0
  9
$DIMCLRE
 70
     0
  9
$DIMCLRT
 70
     0
  9
$DIMTFAC
 40
1.0
  9
$DIMGAP
 40
0.09
  9
$LUNITS
 70
     2
  9
$LUPREC
 70
     4
  9
$SKETCHINC
 40
0.1
  9
$FILLETRAD
 40
0.0
  9
$AUNITS
 70
     0
  9
$AUPREC
 70
     0
  9
$MENU
  1
.
  9
$ELEVATION
 40
0.0
  9
$PELEVATION
 40
0.0
  9
$THICKNESS
 40
0.0
  9
$LIMCHECK
 70
     0
  9
$BLIPMODE
 70
     0
  9
$CHAMFERA
 40
0.0
  9
$CHAMFERB
 40
0.0
  9
$SKPOLY
 70
     0
  9
$TDCREATE
 40
2458060.468368056230247
  9
$TDUPDATE
 40
2460307.6358912037685513
  9
$TDINDWG
 40
1.1429815971999999
  9
$TDUSRTIMER
 40
1.1429815971999999
  9
$USRTIMER
 70
     1
  9
$ANGBASE
 50
0.0
  9
$ANGDIR
 70
     0
  9
$PDMODE
 70
     0
  9
$PDSIZE
 40
0.3125
  9
$PLINEWID
 40
0.0
  9
$COORDS
 70
     1
  9
$SPLFRAME
 70
     0
  9
$SPLINETYPE
 70
     6
  9
$SPLINESEGS
 70
     8
  9
$ATTDIA
 70
     1
  9
$ATTREQ
 70
     1
  9
$HANDLING
 70
     1
  9
$HANDSEED
  5
3129D
  9
$SURFTAB1
 70
     6
  9
$SURFTAB2
 70
     6
  9
$SURFTYPE
 70
     6
  9
$SURFU
 70
     6
  9
$SURFV
 70
     6
  9
$UCSNAME
  2

  9
$UCSORG
 10
0.0
 20
0.0
 30
0.0
  9
$UCSXDIR
 10
1.0
 20
0.0
 30
0.0
  9
$UCSYDIR
 10
0.0
 20
1.0
 30
0.0
  9
$PUCSNAME
  2

  9
$PUCSORG
 10
0.0
 20
0.0
 30
0.0
  9
$PUCSXDIR
 10
1.0
 20
0.0
 30
0.0
  9
$PUCSYDIR
 10
0.0
 20
1.0
 30
0.0
  9
$USERI1
 70
     0
  9
$USERI2
 70
     0
  9
$USERI3
 70
     0
  9
$USERI4
 70
     0
  9
$USERI5
 70
     0
  9
$USERR1
 40
0.0
  9
$USERR2
 40
0.0
  9
$USERR3
 40
0.0
  9
$USERR4
 40
0.0
  9
$USERR5
 40
0.0
  9
$WORLDVIEW
 70
     1
  9
$SHADEDGE
 70
     3
  9
$SHADEDIF
 70
    70
  9
$TILEMODE
 70
     1
  9
$MAXACTVP
 70
    64
  9
$PLIMCHECK
 70
     0
  9
$PEXTMIN
 10
1.0000000000000000E+20
 20
1.0000000000000000E+20
 30
1.0000000000000000E+20
  9
$PEXTMAX
 10
-1.0000000000000000E+20
 20
-1.0000000000000000E+20
 30
-1.0000000000000000E+20
  9
$PLIMMIN
 10
0.0
 20
0.0
  9
$PLIMMAX
 10
12.0
 20
9.0
  9
$UNITMODE
 70
     0
  9
$VISRETAIN
 70
     1
  9
$PLINEGEN
 70
     0
  9
$PSLTSCALE
 70
     1
  0
ENDSEC
  0
SECTION
  2
TABLES
  0
TABLE
  2
VPORT
 70
     1
  0
VPORT
  2
*ACTIVE
 70
     0
 10
0.0
 20
0.0
 11
1.0
 21
1.0
 12
2978.9044542502088007
 22
50.8529835236185477
 13
0.0
 23
0.0
 14
1.0
 24
1.0
 15
0.0
 25
0.0
 16
0.0
 26
0.0
 36
60.4960186965801583
 17
3911.3653564453120453
 27
132.5796051025390057
 37
0.0
 40
8.6861857078474571
 41
2.8481203007518792
 42
50.0
 43
0.0
 44
0.0
 50
0.0
 51
0.0
 71
     0
 72
   100
 73
     1
 74
     1
 75
     0
 76
     0
 77
     0
 78
     0
  0
ENDTAB
  0
TABLE
  2
LTYPE
 70
     3
  0
LTYPE
  2
CONTINUOUS
 70
     0
  3
Solid line
 72
    65
 73
     0
 40
0.0
  0
LTYPE
  2
PHANTOM2
 70
     0
  3
___ _ _ ___ _ _ ___ _ _ ___ _ _
 72
    65
 73
     6
 40
1.25
 49
0.625
 49
-0.125
 49
0.125
 49
-0.125
 49
0.125
 49
-0.125
  0
ENDTAB
  0
TABLE
  2
LAYER
 70
     2
  0
LAYER
  2
0
 70
     0
 62
   255
  6
CONTINUOUS
  0
LAYER
  2
DEFPOINTS
 70
     0
 62
     7
  6
CONTINUOUS
  0
ENDTAB
  0
TABLE
  2
STYLE
 70
     1
  0
STYLE
  2
STANDARD
 70
     0
 40
0.0
 41
0.8
 50
0.0
 71
     0
 42
0.2
  3
txt
  4

  0
ENDTAB
  0
TABLE
  2
VIEW
 70
     0
  0
ENDTAB
  0
TABLE
  2
UCS
 70
     0
  0
ENDTAB
  0
TABLE
  2
APPID
 70
    11
  0
APPID
  2
ACAD
 70
     0
  0
APPID
  2
ACAD_MLEADERVER
 70
     0
  0
APPID
  2
ACAD_EXEMPT_FROM_CAD_STANDARDS
 70
     0
  0
APPID
  2
ACAD_NAV_VCDISPLAY
 70
     0
  0
APPID
  2
ACAECLAYERSTANDARD
 70
     0
  0
APPID
  2
ACCMTRANSPARENCY
 70
     0
  0
APPID
  2
ACAD_DSTYLE_DIMJAG
 70
     0
  0
APPID
  2
ACAD_DSTYLE_DIMTALN
 70
     0
  0
APPID
  2
ACDBATTR
 70
     0
  0
APPID
  2
ACADANNOTATIVE
 70
     0
  0
APPID
  2
DCO15
 70
     0
  0
ENDTAB
  0
TABLE
  2
DIMSTYLE
 70
     2
  0
DIMSTYLE
  2
STANDARD
 70
     0
  3

  4

  5

  6

  7

 40
1.0
 41
0.1875
 42
0.0625
 43
0.38
 44
0.125
 45
0.0
 46
0.0
 47
0.01
 48
0.01
140
0.15625
141
0.09
142
0.0
143
25.3999999999999986
144
1.0
145
0.0
146
1.0
147
0.09
 71
     1
 72
     0
 73
     1
 74
     1
 75
     0
 76
     0
 77
     0
 78
     4
170
     0
171
     2
172
     0
173
     0
174
     0
175
     0
176
     0
177
     0
178
     0
  0
ENDTAB
  0
ENDSEC
  0
SECTION
  2
BLOCKS
  0
BLOCK
  8
0
  2
$MODEL_SPACE
 70
     0
 10
0.0
 20
0.0
 30
0.0
  3
$MODEL_SPACE
  1

  0
ENDBLK
  5
21
  8
0
  0
BLOCK
 67
     1
  8
0
  2
$PAPER_SPACE
 70
     0
 10
0.0
 20
0.0
 30
0.0
  3
$PAPER_SPACE
  1

  0
ENDBLK
  5
1D
 67
     1
  8
0
  0
BLOCK
  8
0
  2
_FILLED
 70
     0
 10
0.0
 20
0.0
 30
0.0
  3
_FILLED
  1

  0
SOLID
  5
257AF
  8
0
  6
BYBLOCK
 62
     0
 10
0.0
 20
0.0
 30
0.0
 11
-1.0
 21
0.1666666667
 31
0.0
 12
-1.0
 22
-0.1666666667
 32
0.0
 13
-1.0
 23
-0.1666666667
 33
0.0
  0
ENDBLK
  5
257B0
  8
0
  6
BYBLOCK
 62
     0
  0
ENDSEC
  0
SECTION
  2
ENTITIES
  0
ATTDEF
  5
256E4
  8
DEFPOINTS
 10
6890.2758768213388976
 20
187.7308805659866096
 30
0.0
 40
0.001
  1
K-EX27125T-9
  3

  2
MODELNUMBER
 70
     0
1001
ACDBATTR
1070
     0
1070
     1
  0
ATTDEF
  5
256E5
  8
DEFPOINTS
 10
6890.2757510116816775
 20
187.729213725607508
 30
0.0
 40
0.001
  1
OCCASION
  3

  2
TRADENAME
 70
     0
1001
ACDBATTR
1070
     0
1070
     1
  0
ATTDEF
  5
256E6
  8
DEFPOINTS
 10
6890.2758768213388976
 20
187.727547232653194
 30
0.0
 40
0.001
  1
BATH FAUCET
  3

  2
PRODUCT
 70
     0
1001
ACDBATTR
1070
     0
1070
     1
  0
LINE
  5
30E44
  8
0
 10
6891.4837226774843657
 20
187.7263857395554965
 30
0.0
 11
6889.0883349469058885
 21
187.7263857395554965
 31
0.0
  0
LINE
  5
30E45
  8
0
 10
6891.5708146966835557
 20
187.5163232015555081
 30
0.0
 11
6889.001243670652002
 21
187.5163232015555081
 31
0.0
  0
ARC
  5
30E46
  8
0
 10
6890.2860292201166885
 20
179.1770916274815022
 30
0.0
 40
0.038944734898541
 50
253.4394118852947884
 51
270.0
  0
LINE
  5
30E47
  8
0
 10
6890.2860292201166885
 20
187.7263857395554965
 30
0.0
 11
6890.2860292201166885
 21
179.138405380476911
 31
0.0
  0
ARC
  5
30E48
  8
0
 10
6889.0884689277172583
 20
187.6986370672971987
 30
0.0
 40
0.0277489917836417
 50
90.2749584564264893
 51
156.7418478715690924
  0
LINE
  5
30E49
  8
0
 10
6889.0629749567497129
 20
187.709594438755488
 30
0.0
 11
6888.9939780840386447
 21
187.5477544012794908
 31
0.0
  0
ARC
  5
30E4A
  8
0
 10
6889.020788220976101
 20
187.5373964396590054
 30
0.0
 40
0.0287414476233757
 50
158.8762113181024063
 51
227.1553620168930934
  0
ARC
  5
30E4B
  8
0
 10
6917.1085058467642739
 20
186.4031209849883055
 30
0.0
 40
27.4746829024489116
 50
180.9505321814561114
 51
182.0999260748172901
  0
LINE
  5
30E4C
  8
0
 10
6889.6522738133271559
 20
179.6011057073365862
 30
0.0
 11
6889.6522738133271559
 21
185.3963821329747077
 31
0.0
  0
ARC
  5
30E4D
  8
0
 10
6890.5955329423122748
 20
180.2429287036202084
 30
0.0
 40
1.14880936799994
 50
215.5163685292750984
 51
253.7949876324030072
  0
ARC
  5
30E4E
  8
0
 10
6889.696273813327025
 20
179.6011057073365862
 30
0.0
 40
0.044
 50
180.0
 51
215.5163685292750984
  0
ARC
  5
30E4F
  8
0
 10
6888.4647730600354407
 20
186.7300020358482016
 30
0.0
 40
0.9518937397085128
 50
46.997785815594618
 51
55.6960877558463565
  0
ARC
  5
30E50
  8
0
 10
6887.7610842962330935
 20
185.9677001442686901
 30
0.0
 40
1.9893274452696339
 50
35.5534012481007835
 51
47.149954806140812
  0
ARC
  5
30E51
  8
0
 10
6888.3733539160166401
 20
186.4420025029886858
 30
0.0
 40
1.2157792489439669
 50
12.0211060779644399
 51
34.1456371197638617
  0
ARC
  5
30E52
  8
0
 10
6887.2391015643561332
 20
186.1293438806002882
 30
0.0
 40
2.3912887527903979
 50
7.2324953336666358
 51
13.6882365898898009
  0
ARC
  5
30E53
  8
0
 10
6884.6420278327914275
 20
185.9182204695864016
 30
0.0
 40
4.9956607534537447
 50
0.3339678572543388
 51
5.8845520625346008
  0
ARC
  5
30E54
  8
0
 10
6890.2860292201166885
 20
179.1770916274815022
 30
0.0
 40
0.038944734898541
 50
270.0
 51
286.5605881147051832
  0
ARC
  5
30E55
  8
0
 10
6891.4835895125152092
 20
187.6986370672971987
 30
0.0
 40
0.0277489917836417
 50
23.2581521284308188
 51
89.7250415435735249
  0
LINE
  5
30E56
  8
0
 10
6891.5090834834836642
 20
187.709594438755488
 30
0.0
 11
6891.5780803561929133
 21
187.5477544012794908
 31
0.0
  0
ARC
  5
30E58
  8
0
 10
6863.4635525934691032
 20
186.4031209849883055
 30
0.0
 40
27.4746829024489116
 50
357.9000739251810046
 51
359.049467818543917
  0
LINE
  5
30E59
  8
0
 10
6890.9197846269053116
 20
179.6011057073365862
 30
0.0
 11
6890.9197846269053116
 21
185.3963821329747077
 31
0.0
  0
ARC
  5
30E5A
  8
0
 10
6889.9765254979211022
 20
180.2429287036202084
 30
0.0
 40
1.14880936799994
 50
286.2050123675970212
 51
324.483631470724788
  0
ARC
  5
30E5B
  8
0
 10
6890.8757846269054426
 20
179.6011057073365862
 30
0.0
 40
0.044
 50
324.4836314707235942
 51
0.0
  0
ARC
  5
30E5C
  8
0
 10
6892.1072900474164271
 20
186.7299966341049924
 30
0.0
 40
0.9519008733168375
 50
124.3039646878707032
 51
133.0021978805640117
  0
ARC
  5
30E5D
  8
0
 10
6892.8109741440011931
 20
185.9677001442686901
 30
0.0
 40
1.9893274452696339
 50
132.850045193859188
 51
144.4465987518991881
  0
ARC
  5
30E5E
  8
0
 10
6892.1987045242149179
 20
186.4420025029886858
 30
0.0
 40
1.2157792489439669
 50
145.8543628802360956
 51
167.9788939220354962
  0
ARC
  5
30E5F
  8
0
 10
6893.3329568758781534
 20
186.1293438806002882
 30
0.0
 40
2.3912887527903979
 50
166.3117634101101885
 51
172.7675046663333092
  0
ARC
  5
30E60
  8
0
 10
6895.9300306074419495
 20
185.9182204695864016
 30
0.0
 40
4.9956607534537447
 50
174.1154479374654045
 51
179.6660321427457063
  0
LINE
  5
30E61
  8
0
 10
6885.1432518119918313
 20
187.7263856960074122
 30
0.0
 11
6887.5547913867403622
 21
187.7263857831036091
 31
0.0
  0
LINE
  5
30E62
  8
0
 10
6885.4598532258032719
 20
187.3627367080555075
 30
0.0
 11
6887.2369672396944225
 21
187.3627367080555075
 31
0.0
  0
LINE
  5
30E63
  8
0
 10
6885.118320998451054
 20
187.4020851721280962
 30
0.0
 11
6887.5808951368408088
 21
187.4020851721280962
 31
0.0
  0
ARC
  5
30E64
  8
0
 10
6885.1231229824170441
 20
187.4498348285812881
 30
0.0
 40
0.047990506784121
 50
216.1136649938987944
 51
264.2573098235076259
  0
LINE
  5
30E65
  8
0
 10
6885.0843538832759805
 20
187.4215497495956129
 30
0.0
 11
6885.054162406395335
 21
187.4730662534292094
 31
0.0
  0
ARC
  5
30E66
  8
0
 10
6885.0884483991476372
 20
187.4931052415751935
 30
0.0
 40
0.0397125968040792
 50
180.1928684479269123
 51
210.3048227895768036
  0
LINE
  5
30E67
  8
0
 10
6885.0487360273391459
 20
187.4929715617037118
 30
0.0
 11
6885.0487360273391459
 21
187.5873633310816047
 31
0.0
  0
ARC
  5
30E68
  8
0
 10
6885.088787194188626
 20
187.5871395949531006
 30
0.0
 40
0.0400517917682317
 50
149.9716687951737129
 51
179.6799343552264077
  0
ARC
  5
30E69
  8
0
 10
6903.4301385442604442
 20
176.9401157124673034
 30
0.0
 40
21.2476986195096416
 50
149.5455036630650909
 51
149.8653407864368035
  0
ARC
  5
30E6A
  8
0
 10
6885.1432940637232605
 20
187.6923370815729015
 30
0.0
 40
0.0340486406499854
 50
89.9289003442664949
 51
149.5455036630621919
  0
LINE
  5
30E6B
  8
0
 10
6885.0541632654221758
 20
187.4730647866618085
 30
0.0
 11
6887.6435036349657821
 21
187.47306485851189
 31
0.0
  0
LINE
  5
30E6C
  8
0
 10
6885.0541111069151157
 20
187.6071824248946882
 30
0.0
 11
6887.643947012670651
 21
187.6071824966649046
 31
0.0
  0
LINE
  5
30E6D
  8
0
 10
6885.3012264247336134
 20
186.3004910609425906
 30
0.0
 11
6887.3968317473536445
 21
186.3004910609425906
 31
0.0
  0
LINE
  5
30E6E
  8
0
 10
6885.5587889071466634
 20
186.2078482704426108
 30
0.0
 11
6887.1389679680951303
 21
186.2078482704426108
 31
0.0
  0
ARC
  5
30E6F
  8
0
 10
6885.5628250605141147
 20
186.2578443635339056
 30
0.0
 40
0.0501587465791797
 50
236.1565308305490021
 51
265.3845567795671059
  0
LINE
  5
30E70
  8
0
 10
6885.5348903550948307
 20
186.2161844056425934
 30
0.0
 11
6885.4366531301920986
 21
186.2916658674699022
 31
0.0
  0
ARC
  5
30E71
  8
0
 10
6885.4114929609486353
 20
186.2602354359129038
 30
0.0
 40
0.0402604786877613
 50
51.322606924039988
 51
89.1103132696918152
  0
ARC
  5
30E72
  8
0
 10
6885.3024789868431981
 20
186.3400095203903106
 30
0.0
 40
0.0395383048315047
 50
180.0928404231758009
 51
268.1845824619422274
  0
ARC
  5
30E73
  8
0
 10
6895.3175698396753432
 20
185.9244181593030874
 30
0.0
 40
10.0632116834906107
 50
172.2862686915765096
 51
177.6334860441760952
  0
ARC
  5
30E74
  8
0
 10
6885.3847271622344124
 20
187.2698151225268077
 30
0.0
 40
0.0396665699364531
 50
124.9161703441559013
 51
172.28609340709599
  0
LINE
  5
30E75
  8
0
 10
6885.3620229172947802
 20
187.3023413278426119
 30
0.0
 11
6885.4385657877437552
 21
187.3557704955605914
 31
0.0
  0
ARC
  5
30E76
  8
0
 10
6885.4607500317215454
 20
187.3239879233350109
 30
0.0
 40
0.0387591612159695
 50
91.3258228091858371
 51
124.9150512107788984
  0
ARC
  5
30E77
  8
0
 10
6885.8861438186777377
 20
187.3626460226184065
 30
0.0
 40
0.0396569911393719
 50
0.1310209671951299
 51
83.9917610994858848
  0
ARC
  5
30E78
  8
0
 10
6887.5796854673499183
 20
187.4415077255314088
 30
0.0
 40
0.0394411082134329
 50
271.7575527224306029
 51
329.6009373073076745
  0
LINE
  5
30E79
  8
0
 10
6887.6137042888130964
 20
187.4215497495956129
 30
0.0
 11
6887.6438957656946513
 21
187.4730662534292094
 31
0.0
  0
ARC
  5
30E7A
  8
0
 10
6887.6096074150427739
 20
187.4931057834047863
 30
0.0
 40
0.0397149059167277
 50
329.6962188316741162
 51
359.8063610763588827
  0
LINE
  5
30E7B
  8
0
 10
6887.6493220941501932
 20
187.4929715617037118
 30
0.0
 11
6887.6493220941501932
 21
187.5873633310816047
 31
0.0
  0
ARC
  5
30E7C
  8
0
 10
6887.6092712647678127
 20
187.5871397750071026
 30
0.0
 40
0.0400514533004086
 50
0.3198107685988825
 51
30.0283135658892704
  0
ARC
  5
30E7D
  8
0
 10
6869.2679196278286327
 20
176.9401157124673034
 30
0.0
 40
21.2476986195096416
 50
30.1346592135632214
 51
30.4544963369349198
  0
ARC
  5
30E7E
  8
0
 10
6887.5547639099286243
 20
187.6923368806374128
 30
0.0
 40
0.0340489135528013
 50
30.4546185633796718
 51
89.9537634146981162
  0
ARC
  5
30E7F
  8
0
 10
6887.1373570541682057
 20
186.2518189814798859
 30
0.0
 40
0.0440002099177231
 50
272.0981536524341209
 51
305.9164886655726718
  0
LINE
  5
30E80
  8
0
 10
6887.1631678169951556
 20
186.2161844056425934
 30
0.0
 11
6887.2614050418969782
 21
186.2916658674699022
 31
0.0
  0
ARC
  5
30E81
  8
0
 10
6887.2865652111404415
 20
186.2602354359129038
 30
0.0
 40
0.0402604786877613
 50
90.8896867303081848
 51
128.6773930759599978
  0
ARC
  5
30E82
  8
0
 10
6887.3955792244496479
 20
186.3400094316392028
 30
0.0
 40
0.0395382148829832
 50
271.8153648281297023
 51
359.9072879771179032
  0
ARC
  5
30E83
  8
0
 10
6877.380511417370144
 20
185.9244207392843009
 30
0.0
 40
10.0631884611347893
 50
2.3665047181036352
 51
7.7137343938535832
  0
ARC
  5
30E84
  8
0
 10
6887.3133310098546644
 20
187.2698151225268077
 30
0.0
 40
0.0396665699364531
 50
7.7139065929039479
 51
55.0838296558440774
  0
LINE
  5
30E85
  8
0
 10
6887.3360352547942966
 20
187.3023413278426119
 30
0.0
 11
6887.2594923843453216
 21
187.3557704955605914
 31
0.0
  0
ARC
  5
30E86
  8
0
 10
6887.2328900305392381
 20
187.3096526461924896
 30
0.0
 40
0.0532404100130943
 50
60.022180407214627
 51
85.6079260262722954
  0
ARC
  5
30E87
  8
0
 10
6886.8119143534122486
 20
187.3626460226184065
 30
0.0
 40
0.0396569911393714
 50
96.008238900514101
 51
179.8689790328047877
  0
LINE
  5
30E88
  8
0
 10
6885.3454962598252678
 20
187.2756779773552012
 30
0.0
 11
6887.3525619122647186
 21
187.2756779773552012
 31
0.0
  0
LINE
  5
30E89
  8
0
 10
6886.3490215993660968
 20
187.7263857395554965
 30
0.0
 11
6886.3490215993660968
 21
187.4020847395555052
 31
0.0
  0
LINE
  5
30E8A
  8
0
 10
6886.3490215993660968
 20
187.3627367080555075
 30
0.0
 11
6886.3490215993660968
 21
186.2078266608554884
 31
0.0
  0
LINE
  5
30E8B
  8
0
 10
6895.4288066282397267
 20
187.7263856960074122
 30
0.0
 11
6893.0172670534930148
 21
187.7263857831036091
 31
0.0
  0
LINE
  5
30E8C
  8
0
 10
6895.1122052144282861
 20
187.3627367080555075
 30
0.0
 11
6893.3350912005380451
 21
187.3627367080555075
 31
0.0
  0
LINE
  5
30E8D
  8
0
 10
6895.4537374417814135
 20
187.4020851721280962
 30
0.0
 11
6892.9911633033907492
 21
187.4020851721280962
 31
0.0
  0
ARC
  5
30E8E
  8
0
 10
6895.4489354578172424
 20
187.4498348285812881
 30
0.0
 40
0.047990506784121
 50
275.7426901764923741
 51
323.8863350061010919
  0
LINE
  5
30E8F
  8
0
 10
6895.4877045569555776
 20
187.4215497495956129
 30
0.0
 11
6895.5178960338371326
 21
187.4730662534292094
 31
0.0
  0
ARC
  5
30E90
  8
0
 10
6895.4836100410839208
 20
187.4931052415751935
 30
0.0
 40
0.0397125968040792
 50
329.6951772104231964
 51
359.807131552072974
  0
LINE
  5
30E91
  8
0
 10
6895.5233224128933216
 20
187.4929715617037118
 30
0.0
 11
6895.5233224128933216
 21
187.5873633310816047
 31
0.0
  0
ARC
  5
30E92
  8
0
 10
6895.4832712460438415
 20
187.5871395949531006
 30
0.0
 40
0.0400517917682317
 50
0.3200656447735505
 51
30.0283312048263511
  0
ARC
  5
30E93
  8
0
 10
6877.1419198959720234
 20
176.9401157124673034
 30
0.0
 40
21.2476986195096416
 50
30.1346592135632214
 51
30.4544963369349198
  0
ARC
  5
30E94
  8
0
 10
6895.4287643765082976
 20
187.6923370815729015
 30
0.0
 40
0.0340486406499854
 50
30.45449633693773
 51
90.0710996557334909
  0
LINE
  5
30E95
  8
0
 10
6895.5178951748112013
 20
187.4730647866618085
 30
0.0
 11
6892.9285548052666854
 21
187.47306485851189
 31
0.0
  0
LINE
  5
30E96
  8
0
 10
6895.5179473333191709
 20
187.6071824248946882
 30
0.0
 11
6892.928111427560907
 21
187.6071824966649046
 31
0.0
  0
LINE
  5
30E97
  8
0
 10
6895.2708320154979447
 20
186.3004910609425906
 30
0.0
 11
6893.1752266928779136
 21
186.3004910609425906
 31
0.0
  0
LINE
  5
30E98
  8
0
 10
6895.0132695330848946
 20
186.2078482704426108
 30
0.0
 11
6893.4330904721382467
 21
186.2078482704426108
 31
0.0
  0
ARC
  5
30E99
  8
0
 10
6895.0092333797192623
 20
186.2578443635339056
 30
0.0
 40
0.0501587465791797
 50
274.6154432204328941
 51
303.8434691694511116
  0
LINE
  5
30E9A
  8
0
 10
6895.0371680851376368
 20
186.2161844056425934
 30
0.0
 11
6895.1354053100403689
 21
186.2916658674699022
 31
0.0
  0
ARC
  5
30E9B
  8
0
 10
6895.1605654792829228
 20
186.2602354359129038
 30
0.0
 40
0.0402604786877613
 50
90.8896867303081848
 51
128.6773930759599978
  0
ARC
  5
30E9C
  8
0
 10
6895.269579453390179
 20
186.3400095203903106
 30
0.0
 40
0.0395383048315047
 50
271.8154175380577726
 51
359.9071595768240854
  0
ARC
  5
30E9D
  8
0
 10
6885.2544886005571243
 20
185.9244181593030874
 30
0.0
 40
10.0632116834906107
 50
2.366513955823847
 51
7.7137313084234354
  0
ARC
  5
30E9E
  8
0
 10
6895.1873312779980552
 20
187.2698151225268077
 30
0.0
 40
0.0396665699364531
 50
7.7139065929039479
 51
55.0838296558440774
  0
LINE
  5
30E9F
  8
0
 10
6895.2100355229367779
 20
187.3023413278426119
 30
0.0
 11
6895.1334926524887123
 21
187.3557704955605914
 31
0.0
  0
ARC
  5
30EA0
  8
0
 10
6895.1113084085109222
 20
187.3239879233350109
 30
0.0
 40
0.0387591612159695
 50
55.0849487892211371
 51
88.6741771908141629
  0
ARC
  5
30EA1
  8
0
 10
6894.6859146215538203
 20
187.3626460226184065
 30
0.0
 40
0.0396569911393719
 50
96.008238900514101
 51
179.8689790328047877
  0
ARC
  5
30EA2
  8
0
 10
6892.9923729728807302
 20
187.4415077255314088
 30
0.0
 40
0.0394411082134329
 50
210.3990626926922118
 51
268.2424472775695108
  0
LINE
  5
30EA3
  8
0
 10
6892.9583541514193712
 20
187.4215497495956129
 30
0.0
 11
6892.9281626745396352
 21
187.4730662534292094
 31
0.0
  0
ARC
  5
30EA4
  8
0
 10
6892.9624510251896936
 20
187.4931057834047863
 30
0.0
 40
0.0397149059167277
 50
180.193638923639412
 51
210.3037811683259122
  0
LINE
  5
30EA5
  8
0
 10
6892.9227363460840934
 20
187.4929715617037118
 30
0.0
 11
6892.9227363460840934
 21
187.5873633310816047
 31
0.0
  0
ARC
  5
30EA6
  8
0
 10
6892.9627871754646549
 20
187.5871397750071026
 30
0.0
 40
0.0400514533004086
 50
149.9716864341106941
 51
179.6801892314011013
  0
ARC
  5
30EA7
  8
0
 10
6911.3041388124038349
 20
176.9401157124673034
 30
0.0
 40
21.2476986195096416
 50
149.5455036630650909
 51
149.8653407864368035
  0
ARC
  5
30EA8
  8
0
 10
6893.0172945303020242
 20
187.6923368806374128
 30
0.0
 40
0.0340489135528013
 50
90.0462365853018696
 51
149.5453814366202892
  0
ARC
  5
30EA9
  8
0
 10
6893.4347013860660809
 20
186.2518189814798859
 30
0.0
 40
0.0440002099177231
 50
234.0835113344271861
 51
267.9018463475658791
  0
LINE
  5
30EAA
  8
0
 10
6893.4088906232391309
 20
186.2161844056425934
 30
0.0
 11
6893.3106533983363988
 21
186.2916658674699022
 31
0.0
  0
ARC
  5
30EAB
  8
0
 10
6893.2854932290929355
 20
186.2602354359129038
 30
0.0
 40
0.0402604786877613
 50
51.322606924039988
 51
89.1103132696918152
  0
ARC
  5
30EAC
  8
0
 10
6893.1764792157819102
 20
186.3400094316392028
 30
0.0
 40
0.0395382148829832
 50
180.0927120228820115
 51
268.1846351718702977
  0
ARC
  5
30EAD
  8
0
 10
6903.191547022863233
 20
185.9244207392843009
 30
0.0
 40
10.0631884611347893
 50
172.2862656061448092
 51
177.633495281896387
  0
ARC
  5
30EAE
  8
0
 10
6893.2587274303778031
 20
187.2698151225268077
 30
0.0
 40
0.0396665699364531
 50
124.9161703441559013
 51
172.28609340709599
  0
LINE
  5
30EAF
  8
0
 10
6893.2360231854390804
 20
187.3023413278426119
 30
0.0
 11
6893.3125660558871459
 21
187.3557704955605914
 31
0.0
  0
ARC
  5
30EB0
  8
0
 10
6893.3391684096932295
 20
187.3096526461924896
 30
0.0
 40
0.0532404100130943
 50
94.3920739737277188
 51
119.9778195927852948
  0
ARC
  5
30EB1
  8
0
 10
6893.7601440868220379
 20
187.3626460226184065
 30
0.0
 40
0.0396569911393714
 50
0.1310209671951299
 51
83.9917610994858848
  0
LINE
  5
30EB2
  8
0
 10
6895.2265621804081093
 20
187.2756779773552012
 30
0.0
 11
6893.2194965279686585
 21
187.2756779773552012
 31
0.0
  0
LINE
  5
30EB3
  8
0
 10
6894.2230368408663708
 20
187.7263857395554965
 30
0.0
 11
6894.2230368408663708
 21
187.4020847395555052
 31
0.0
  0
LINE
  5
30EB4
  8
0
 10
6894.2230368408663708
 20
187.3627367080555075
 30
0.0
 11
6894.2230368408663708
 21
186.2078266608554884
 31
0.0
  0
ARC
  5
3110D
  8
0
 10
6891.5512703693320873
 20
187.5373964502954038
 30
0.0
 40
0.0287413037991897
 50
312.8442976611772224
 51
21.1238767211457095
  0
ENDSEC
  0
EOF
