  0
SECTION
  2
HEADER
  9
$ACADVER
  1
AC1009
  9
$INSBASE
 10
860.0862922403227913
 20
300.5735569086702981
 30
0.0
  9
$EXTMIN
 10
858.9051853571080528
 20
293.1532717445044796
 30
-0.0015258207003583
  9
$EXTMAX
 10
861.2708436661990845
 20
300.5832332064802017
 30
0.0000000349246037
  9
$LIMMIN
 10
0.0
 20
0.0
  9
$LIMMAX
 10
11.6929133858000007
 20
8.2677165353999982
  9
$ORTHOMODE
 70
     0
  9
$REGENMODE
 70
     1
  9
$FILLMODE
 70
     1
  9
$QTEXTMODE
 70
     0
  9
$MIRRTEXT
 70
     0
  9
$DRAGMODE
 70
     2
  9
$LTSCALE
 40
0.6431102362
  9
$OSMODE
 70
  4095
  9
$ATTMODE
 70
     1
  9
$TEXTSIZE
 40
0.2
  9
$TRACEWID
 40
0.05
  9
$TEXTSTYLE
  7
STANDARD
  9
$CLAYER
  8
0
  9
$CELTYPE
  6
BYLAYER
  9
$CECOLOR
 62
   256
  9
$DIMSCALE
 40
1.0
  9
$DIMASZ
 40
0.1875
  9
$DIMEXO
 40
0.0625
  9
$DIMDLI
 40
0.4443307087
  9
$DIMRND
 40
0.0
  9
$DIMDLE
 40
0.0
  9
$DIMEXE
 40
0.125
  9
$DIMTP
 40
0.01
  9
$DIMTM
 40
0.01
  9
$DIMTXT
 40
1.0
  9
$DIMCEN
 40
0.1052362205
  9
$DIMTSZ
 40
0.0
  9
$DIMTOL
 70
     1
  9
$DIMLIM
 70
     0
  9
$DIMTIH
 70
     1
  9
$DIMTOH
 70
     1
  9
$DIMSE1
 70
     0
  9
$DIMSE2
 70
     0
  9
$DIMTAD
 70
     0
  9
$DIMZIN
 70
     0
  9
$DIMBLK
  1

  9
$DIMASO
 70
     1
  9
$DIMSHO
 70
     1
  9
$DIMPOST
  1
\X
  9
$DIMAPOST
  1

  9
$DIMALT
 70
     1
  9
$DIMALTD
 70
     2
  9
$DIMALTF
 40
25.3999999999999986
  9
$DIMLFAC
 40
1.0
  9
$DIMTOFL
 70
     0
  9
$DIMTVP
 40
0.0
  9
$DIMTIX
 70
     0
  9
$DIMSOXD
 70
     0
  9
$DIMSAH
 70
     0
  9
$DIMBLK1
  1

  9
$DIMBLK2
  1

  9
$DIMSTYLE
  2
STANDARD
  9
$DIMCLRD
 70
     0
  9
$DIMCLRE
 70
     0
  9
$DIMCLRT
 70
     0
  9
$DIMTFAC
 40
1.0
  9
$DIMGAP
 40
0.09
  9
$LUNITS
 70
     2
  9
$LUPREC
 70
     4
  9
$SKETCHINC
 40
0.1
  9
$FILLETRAD
 40
0.0
  9
$AUNITS
 70
     0
  9
$AUPREC
 70
     0
  9
$MENU
  1
.
  9
$ELEVATION
 40
0.0
  9
$PELEVATION
 40
0.0
  9
$THICKNESS
 40
0.0
  9
$LIMCHECK
 70
     0
  9
$BLIPMODE
 70
     0
  9
$CHAMFERA
 40
0.0
  9
$CHAMFERB
 40
0.0
  9
$SKPOLY
 70
     0
  9
$TDCREATE
 40
2458172.4620254631154239
  9
$TDUPDATE
 40
2460049.790034722071141
  9
$TDINDWG
 40
0.1491378819
  9
$TDUSRTIMER
 40
0.1491378819
  9
$USRTIMER
 70
     1
  9
$ANGBASE
 50
0.0
  9
$ANGDIR
 70
     0
  9
$PDMODE
 70
     0
  9
$PDSIZE
 40
0.3125
  9
$PLINEWID
 40
0.0
  9
$COORDS
 70
     1
  9
$SPLFRAME
 70
     0
  9
$SPLINETYPE
 70
     6
  9
$SPLINESEGS
 70
     8
  9
$ATTDIA
 70
     1
  9
$ATTREQ
 70
     1
  9
$HANDLING
 70
     1
  9
$HANDSEED
  5
10A09
  9
$SURFTAB1
 70
     6
  9
$SURFTAB2
 70
     6
  9
$SURFTYPE
 70
     6
  9
$SURFU
 70
     6
  9
$SURFV
 70
     6
  9
$UCSNAME
  2

  9
$UCSORG
 10
0.0
 20
0.0
 30
0.0
  9
$UCSXDIR
 10
1.0
 20
0.0
 30
0.0
  9
$UCSYDIR
 10
0.0
 20
1.0
 30
0.0
  9
$PUCSNAME
  2

  9
$PUCSORG
 10
0.0
 20
0.0
 30
0.0
  9
$PUCSXDIR
 10
1.0
 20
0.0
 30
0.0
  9
$PUCSYDIR
 10
0.0
 20
1.0
 30
0.0
  9
$USERI1
 70
     0
  9
$USERI2
 70
     0
  9
$USERI3
 70
     0
  9
$USERI4
 70
     0
  9
$USERI5
 70
     0
  9
$USERR1
 40
0.0
  9
$USERR2
 40
0.0
  9
$USERR3
 40
0.0
  9
$USERR4
 40
0.0
  9
$USERR5
 40
0.0
  9
$WORLDVIEW
 70
     1
  9
$SHADEDGE
 70
     3
  9
$SHADEDIF
 70
    70
  9
$TILEMODE
 70
     1
  9
$MAXACTVP
 70
    64
  9
$PLIMCHECK
 70
     0
  9
$PEXTMIN
 10
1.0000000000000000E+20
 20
1.0000000000000000E+20
 30
1.0000000000000000E+20
  9
$PEXTMAX
 10
-1.0000000000000000E+20
 20
-1.0000000000000000E+20
 30
-1.0000000000000000E+20
  9
$PLIMMIN
 10
0.0
 20
0.0
  9
$PLIMMAX
 10
12.0
 20
9.0
  9
$UNITMODE
 70
     0
  9
$VISRETAIN
 70
     1
  9
$PLINEGEN
 70
     0
  9
$PSLTSCALE
 70
     1
  0
ENDSEC
  0
SECTION
  2
TABLES
  0
TABLE
  2
VPORT
 70
     1
  0
VPORT
  2
*ACTIVE
 70
     0
 10
0.0
 20
0.0
 11
1.0
 21
1.0
 12
756.9921587987629437
 22
301.4280060600672755
 13
0.0
 23
0.0
 14
1.0
 24
1.0
 15
0.0
 25
0.0
 16
0.0
 26
0.0
 36
24.7332413121020203
 17
103.0958557128905966
 27
-4.5597535845750086
 37
0.0
 40
7.4807935814418443
 41
2.1792237442922371
 42
50.0
 43
0.0
 44
0.0
 50
0.0
 51
0.0
 71
     0
 72
   100
 73
     1
 74
     1
 75
     0
 76
     0
 77
     0
 78
     0
  0
ENDTAB
  0
TABLE
  2
LTYPE
 70
     2
  0
LTYPE
  2
CONTINUOUS
 70
     0
  3
Solid line
 72
    65
 73
     0
 40
0.0
  0
LTYPE
  2
PHANTOM2
 70
     0
  3
___ _ _ ___ _ _ ___ _ _ ___ _ _
 72
    65
 73
     6
 40
1.25
 49
0.625
 49
-0.125
 49
0.125
 49
-0.125
 49
0.125
 49
-0.125
  0
ENDTAB
  0
TABLE
  2
LAYER
 70
     2
  0
LAYER
  2
0
 70
     0
 62
   255
  6
CONTINUOUS
  0
LAYER
  2
DEFPOINTS
 70
     0
 62
     7
  6
CONTINUOUS
  0
ENDTAB
  0
TABLE
  2
STYLE
 70
     1
  0
STYLE
  2
STANDARD
 70
     0
 40
0.0
 41
0.8
 50
0.0
 71
     0
 42
0.2
  3
txt
  4

  0
ENDTAB
  0
TABLE
  2
VIEW
 70
     0
  0
ENDTAB
  0
TABLE
  2
UCS
 70
     0
  0
ENDTAB
  0
TABLE
  2
APPID
 70
     9
  0
APPID
  2
ACAD
 70
     0
  0
APPID
  2
ACAD_MLEADERVER
 70
     0
  0
APPID
  2
ACAD_EXEMPT_FROM_CAD_STANDARDS
 70
     0
  0
APPID
  2
ACAD_DSTYLE_DIMJAG
 70
     0
  0
APPID
  2
ACAD_DSTYLE_DIMTALN
 70
     0
  0
APPID
  2
ACAD_NAV_VCDISPLAY
 70
     0
  0
APPID
  2
ACAECLAYERSTANDARD
 70
     0
  0
APPID
  2
ACCMTRANSPARENCY
 70
     0
  0
APPID
  2
ACDBATTR
 70
     0
  0
ENDTAB
  0
TABLE
  2
DIMSTYLE
 70
     1
  0
DIMSTYLE
  2
STANDARD
 70
     0
  3

  4

  5

  6

  7

 40
1.0
 41
0.1875
 42
0.0625
 43
0.38
 44
0.125
 45
0.0
 46
0.0
 47
0.01
 48
0.01
140
0.15625
141
0.09
142
0.0
143
25.3999999999999986
144
1.0
145
0.0
146
1.0
147
0.09
 71
     1
 72
     0
 73
     1
 74
     1
 75
     0
 76
     0
 77
     0
 78
     4
170
     0
171
     2
172
     0
173
     0
174
     0
175
     0
176
     0
177
     0
178
     0
  0
ENDTAB
  0
ENDSEC
  0
SECTION
  2
BLOCKS
  0
BLOCK
  8
0
  2
$MODEL_SPACE
 70
     0
 10
0.0
 20
0.0
 30
0.0
  3
$MODEL_SPACE
  1

  0
ENDBLK
  5
21
  8
0
  0
BLOCK
 67
     1
  8
0
  2
$PAPER_SPACE
 70
     0
 10
0.0
 20
0.0
 30
0.0
  3
$PAPER_SPACE
  1

  0
ENDBLK
  5
1D
 67
     1
  8
0
  0
ENDSEC
  0
SECTION
  2
ENTITIES
  0
LINE
  5
10542
  8
0
 10
858.9249172679727735
 20
300.5735569086702981
 30
0.0
 11
861.2476672126730364
 21
300.5735569086702981
 31
0.0
  0
LINE
  5
10543
  8
0
 10
859.5599417788729397
 20
300.2617402600703258
 30
0.0
 11
860.6126427017728702
 21
300.2617402600703258
 31
0.0
  0
ARC
  5
10544
  8
0
 10
858.9249172679727735
 20
300.5538718692703242
 30
0.0
 40
0.0196850394000006
 50
90.0
 51
180.0
  0
LINE
  5
10545
  8
0
 10
858.9052322285729133
 20
300.5538718692703242
 30
0.0
 11
858.9052322285729133
 21
300.4319466324702717
 31
0.0
  0
ARC
  5
10546
  8
0
 10
858.925310968773033
 20
300.4319466324702717
 30
0.0
 40
0.0200787401999998
 50
180.0000000000098055
 51
256.6449948884003902
  0
LINE
  5
10547
  8
0
 10
858.9206731030039919
 20
300.412410870157828
 30
0.0
 11
859.5508479244696218
 21
300.2628049225561995
 31
0.0
  0
LINE
  5
10548
  8
0
 10
859.5508479244696218
 20
300.2628049225561995
 30
0.0
 11
859.5599417788729397
 21
300.2617402600703258
 31
0.0
  0
ARC
  5
10549
  8
0
 10
861.2476672126730364
 20
300.5538718692703242
 30
0.0
 40
0.0196850393999988
 50
359.9999999999935199
 51
90.0
  0
LINE
  5
1054A
  8
0
 10
861.2673522520728966
 20
300.5538718692703242
 30
0.0
 11
861.2673522520728966
 21
300.4319466324702717
 31
0.0
  0
ARC
  5
1054B
  8
0
 10
861.2472735118427636
 20
300.4319466324702717
 30
0.0
 40
0.0200787402300415
 50
283.3550056266590218
 51
359.9999999999935199
  0
LINE
  5
1054C
  8
0
 10
861.2519113777941584
 20
300.4124108701702767
 30
0.0
 11
860.6217365575264466
 21
300.2628049168686744
 31
0.0
  0
LINE
  5
1054D
  8
0
 10
860.6217365575264466
 20
300.2628049168686744
 30
0.0
 11
860.6126427017728702
 21
300.2617402600703258
 31
0.0
  0
LINE
  5
1054E
  8
0
 10
859.5941662560728673
 20
300.2617402600703258
 30
0.0
 11
859.5941662560728673
 21
293.516609117170276
 31
0.0
  0
ARC
  5
1054F
  8
0
 10
859.851273477266318
 20
293.516609117170276
 30
0.0
 40
0.2571072211933387
 50
180.0
 51
192.8233888463219046
  0
ARC
  5
10550
  8
0
 10
859.8741477557218786
 20
293.5218158461843814
 30
0.0
 40
0.2805666040047771
 50
192.8233888463219046
 51
212.3762008280475868
  0
ARC
  5
10551
  8
0
 10
859.9629232727799035
 20
293.5781027899420224
 30
0.0
 40
0.385682313898658
 50
212.3762008280475868
 51
245.3174350132750021
  0
ARC
  5
10552
  8
0
 10
860.057454596989146
 20
293.7336584293341843
 30
0.0
 40
0.5668877775713496
 50
243.2009438122233007
 51
252.7822309460565009
  0
ARC
  5
10553
  8
0
 10
860.0846830097151496
 20
293.8256022665050864
 30
0.0
 40
0.662772126767873
 50
252.8866225881141929
 51
270.1391160126062232
  0
LINE
  5
10554
  8
0
 10
858.9206731029729553
 20
300.4124108701702767
 30
0.0
 11
861.2519113777941584
 21
300.4124108701702767
 31
0.0
  0
LINE
  5
10555
  8
0
 10
860.5784182245729426
 20
300.2617402600703258
 30
0.0
 11
860.5784182245729426
 21
293.516609117170276
 31
0.0
  0
ARC
  5
10556
  8
0
 10
860.3213110033794919
 20
293.516609117170276
 30
0.0
 40
0.2571072211933387
 50
347.1766111536782091
 51
0.0
  0
ARC
  5
10557
  8
0
 10
860.2984367249240449
 20
293.5218158461843814
 30
0.0
 40
0.2805666040047771
 50
327.6237991719523279
 51
347.1766111536782091
  0
ARC
  5
10558
  8
0
 10
860.2096612078659064
 20
293.5781027899420224
 30
0.0
 40
0.385682313898658
 50
294.6825649867250831
 51
327.6237991719523279
  0
ARC
  5
10559
  8
0
 10
860.1151298836566639
 20
293.7336584293341843
 30
0.0
 40
0.5668877775713496
 50
287.2177690539435275
 51
296.799056187776614
  0
ARC
  5
1055A
  8
0
 10
860.0879014709305466
 20
293.8256022665050864
 30
0.0
 40
0.662772126767873
 50
269.8608839873937768
 51
287.1133774118857787
  0
ATTDEF
  5
105E6
  8
DEFPOINTS
 10
860.0731429622796895
 20
300.5714693739304835
 30
0.0
 40
0.001
  1
K-EX27341T
  3

  2
MODELNUMBER
 70
     0
1001
ACDBATTR
1070
     0
1070
     1
  0
ATTDEF
  5
105E7
  8
DEFPOINTS
 10
860.0731429622796895
 20
300.5698027072638752
 30
0.0
 40
0.001
  1
COMPONENTS
  3

  2
TRADENAME
 70
     0
1001
ACDBATTR
1070
     0
1070
     1
  0
ATTDEF
  5
105E8
  8
DEFPOINTS
 10
860.0731429622796895
 20
300.56813604059721
 30
0.0
 40
0.001
  1
BATHROOM SINK FAUCET
  3

  2
PRODUCT
 70
     0
1001
ACDBATTR
1070
     0
1070
     1
  0
ENDSEC
  0
EOF
