  0
SECTION
  2
HEADER
  9
$ACADVER
  1
AC1009
  9
$INSBASE
 10
359.9970073273676121
 20
12.2326902334248206
 30
0.0
  9
$EXTMIN
 10
359.0362253124246763
 20
12.2317251480560607
 30
-0.0000000349181948
  9
$EXTMAX
 10
360.9639213787700101
 20
19.8362606255346385
 30
0.0000000814935746
  9
$LIMMIN
 10
0.0
 20
0.0
  9
$LIMMAX
 10
11.6929133858000007
 20
8.2677165353999982
  9
$ORTHOMODE
 70
     1
  9
$REGENMODE
 70
     1
  9
$FILLMODE
 70
     1
  9
$QTEXTMODE
 70
     0
  9
$MIRRTEXT
 70
     0
  9
$DRAGMODE
 70
     2
  9
$LTSCALE
 40
0.6431102362
  9
$OSMODE
 70
  4095
  9
$ATTMODE
 70
     1
  9
$TEXTSIZE
 40
0.2
  9
$TRACEWID
 40
0.05
  9
$TEXTSTYLE
  7
STANDARD
  9
$CLAYER
  8
0
  9
$CELTYPE
  6
BYLAYER
  9
$CECOLOR
 62
   256
  9
$DIMSCALE
 40
1.0
  9
$DIMASZ
 40
0.1875
  9
$DIMEXO
 40
0.0625
  9
$DIMDLI
 40
0.4443307087
  9
$DIMRND
 40
0.0
  9
$DIMDLE
 40
0.0
  9
$DIMEXE
 40
0.125
  9
$DIMTP
 40
0.01
  9
$DIMTM
 40
0.01
  9
$DIMTXT
 40
2.0
  9
$DIMCEN
 40
0.1052362205
  9
$DIMTSZ
 40
0.0
  9
$DIMTOL
 70
     1
  9
$DIMLIM
 70
     0
  9
$DIMTIH
 70
     1
  9
$DIMTOH
 70
     1
  9
$DIMSE1
 70
     0
  9
$DIMSE2
 70
     0
  9
$DIMTAD
 70
     0
  9
$DIMZIN
 70
     0
  9
$DIMBLK
  1

  9
$DIMASO
 70
     1
  9
$DIMSHO
 70
     1
  9
$DIMPOST
  1
\X
  9
$DIMAPOST
  1

  9
$DIMALT
 70
     1
  9
$DIMALTD
 70
     2
  9
$DIMALTF
 40
25.3999999999999986
  9
$DIMLFAC
 40
1.0
  9
$DIMTOFL
 70
     0
  9
$DIMTVP
 40
0.0
  9
$DIMTIX
 70
     0
  9
$DIMSOXD
 70
     0
  9
$DIMSAH
 70
     0
  9
$DIMBLK1
  1

  9
$DIMBLK2
  1

  9
$DIMSTYLE
  2
STANDARD
  9
$DIMCLRD
 70
     0
  9
$DIMCLRE
 70
     0
  9
$DIMCLRT
 70
     0
  9
$DIMTFAC
 40
1.0
  9
$DIMGAP
 40
0.09
  9
$LUNITS
 70
     2
  9
$LUPREC
 70
     4
  9
$SKETCHINC
 40
0.1
  9
$FILLETRAD
 40
0.0
  9
$AUNITS
 70
     0
  9
$AUPREC
 70
     0
  9
$MENU
  1
.
  9
$ELEVATION
 40
0.0
  9
$PELEVATION
 40
0.0
  9
$THICKNESS
 40
0.0
  9
$LIMCHECK
 70
     0
  9
$BLIPMODE
 70
     0
  9
$CHAMFERA
 40
0.0
  9
$CHAMFERB
 40
0.0
  9
$SKPOLY
 70
     0
  9
$TDCREATE
 40
2458106.4931018520146608
  9
$TDUPDATE
 40
2460174.5396874998696148
  9
$TDINDWG
 40
0.2227647685
  9
$TDUSRTIMER
 40
0.2227647685
  9
$USRTIMER
 70
     1
  9
$ANGBASE
 50
0.0
  9
$ANGDIR
 70
     0
  9
$PDMODE
 70
     0
  9
$PDSIZE
 40
0.3125
  9
$PLINEWID
 40
0.0
  9
$COORDS
 70
     1
  9
$SPLFRAME
 70
     0
  9
$SPLINETYPE
 70
     6
  9
$SPLINESEGS
 70
     8
  9
$ATTDIA
 70
     1
  9
$ATTREQ
 70
     1
  9
$HANDLING
 70
     1
  9
$HANDSEED
  5
18E3
  9
$SURFTAB1
 70
     6
  9
$SURFTAB2
 70
     6
  9
$SURFTYPE
 70
     6
  9
$SURFU
 70
     6
  9
$SURFV
 70
     6
  9
$UCSNAME
  2

  9
$UCSORG
 10
0.0
 20
0.0
 30
0.0
  9
$UCSXDIR
 10
1.0
 20
0.0
 30
0.0
  9
$UCSYDIR
 10
0.0
 20
1.0
 30
0.0
  9
$PUCSNAME
  2

  9
$PUCSORG
 10
0.0
 20
0.0
 30
0.0
  9
$PUCSXDIR
 10
1.0
 20
0.0
 30
0.0
  9
$PUCSYDIR
 10
0.0
 20
1.0
 30
0.0
  9
$USERI1
 70
     0
  9
$USERI2
 70
     0
  9
$USERI3
 70
     0
  9
$USERI4
 70
     0
  9
$USERI5
 70
     0
  9
$USERR1
 40
0.0
  9
$USERR2
 40
0.0
  9
$USERR3
 40
0.0
  9
$USERR4
 40
0.0
  9
$USERR5
 40
0.0
  9
$WORLDVIEW
 70
     1
  9
$SHADEDGE
 70
     3
  9
$SHADEDIF
 70
    70
  9
$TILEMODE
 70
     1
  9
$MAXACTVP
 70
    64
  9
$PLIMCHECK
 70
     0
  9
$PEXTMIN
 10
1.0000000000000000E+20
 20
1.0000000000000000E+20
 30
1.0000000000000000E+20
  9
$PEXTMAX
 10
-1.0000000000000000E+20
 20
-1.0000000000000000E+20
 30
-1.0000000000000000E+20
  9
$PLIMMIN
 10
0.0
 20
0.0
  9
$PLIMMAX
 10
12.0
 20
9.0
  9
$UNITMODE
 70
     0
  9
$VISRETAIN
 70
     1
  9
$PLINEGEN
 70
     0
  9
$PSLTSCALE
 70
     1
  0
ENDSEC
  0
SECTION
  2
TABLES
  0
TABLE
  2
VPORT
 70
     1
  0
VPORT
  2
*ACTIVE
 70
     0
 10
0.0
 20
0.0
 11
1.0
 21
1.0
 12
86.4258717890842263
 22
33.6399536208168328
 13
0.0
 23
0.0
 14
1.0
 24
1.0
 15
0.0
 25
0.0
 16
-0.0000000000000568
 26
0.0
 36
193.9250709296327955
 17
273.5742015565131169
 27
-17.6059607340214797
 37
0.0
 40
7.662957004834368
 41
1.4307692307692299
 42
50.0
 43
0.0
 44
0.0
 50
0.0
 51
0.0
 71
     0
 72
   100
 73
     1
 74
     1
 75
     0
 76
     0
 77
     0
 78
     0
  0
ENDTAB
  0
TABLE
  2
LTYPE
 70
     3
  0
LTYPE
  2
CONTINUOUS
 70
     0
  3
Solid line
 72
    65
 73
     0
 40
0.0
  0
LTYPE
  2
PHANTOM2
 70
     0
  3
___ _ _ ___ _ _ ___ _ _ ___ _ _
 72
    65
 73
     6
 40
1.25
 49
0.625
 49
-0.125
 49
0.125
 49
-0.125
 49
0.125
 49
-0.125
  0
ENDTAB
  0
TABLE
  2
LAYER
 70
     2
  0
LAYER
  2
0
 70
     0
 62
   255
  6
CONTINUOUS
  0
LAYER
  2
DEFPOINTS
 70
     0
 62
     7
  6
CONTINUOUS
  0
ENDTAB
  0
TABLE
  2
STYLE
 70
     1
  0
STYLE
  2
STANDARD
 70
     0
 40
0.0
 41
0.8
 50
0.0
 71
     0
 42
0.2
  3
txt
  4

  0
ENDTAB
  0
TABLE
  2
VIEW
 70
     0
  0
ENDTAB
  0
TABLE
  2
UCS
 70
     0
  0
ENDTAB
  0
TABLE
  2
APPID
 70
     9
  0
APPID
  2
ACAD
 70
     0
  0
APPID
  2
ACAD_MLEADERVER
 70
     0
  0
APPID
  2
ACAD_EXEMPT_FROM_CAD_STANDARDS
 70
     0
  0
APPID
  2
ACAD_NAV_VCDISPLAY
 70
     0
  0
APPID
  2
ACAD_DSTYLE_DIMJAG
 70
     0
  0
APPID
  2
ACAD_DSTYLE_DIMTALN
 70
     0
  0
APPID
  2
ACAECLAYERSTANDARD
 70
     0
  0
APPID
  2
ACCMTRANSPARENCY
 70
     0
  0
APPID
  2
ACDBATTR
 70
     0
  0
ENDTAB
  0
TABLE
  2
DIMSTYLE
 70
     2
  0
DIMSTYLE
  2
STANDARD
 70
     0
  3

  4

  5

  6

  7

 40
1.0
 41
0.1875
 42
0.0625
 43
0.38
 44
0.125
 45
0.0
 46
0.0
 47
0.01
 48
0.01
140
0.15625
141
0.09
142
0.0
143
25.3999999999999986
144
1.0
145
0.0
146
1.0
147
0.09
 71
     1
 72
     0
 73
     1
 74
     1
 75
     0
 76
     0
 77
     0
 78
     4
170
     0
171
     2
172
     0
173
     0
174
     0
175
     0
176
     0
177
     0
178
     0
  0
ENDTAB
  0
ENDSEC
  0
SECTION
  2
BLOCKS
  0
BLOCK
  8
0
  2
$MODEL_SPACE
 70
     0
 10
0.0
 20
0.0
 30
0.0
  3
$MODEL_SPACE
  1

  0
ENDBLK
  5
21
  8
0
  0
BLOCK
 67
     1
  8
0
  2
$PAPER_SPACE
 70
     0
 10
0.0
 20
0.0
 30
0.0
  3
$PAPER_SPACE
  1

  0
ENDBLK
  5
1D
 67
     1
  8
0
  0
ENDSEC
  0
SECTION
  2
ENTITIES
  0
ATTDEF
  5
FAA
  8
DEFPOINTS
 10
359.9972248186329011
 20
12.2363025770128697
 30
0.0
 40
0.001
  1
K-EX28093T-8
  3

  2
MODELNUMBER
 70
     0
1001
ACDBATTR
1070
     0
1070
     1
  0
ATTDEF
  5
FAB
  8
DEFPOINTS
 10
359.9972248186329011
 20
12.2346359103461992
 30
0.0
 40
0.001
  1
COMPONENTS
  3

  2
TRADENAME
 70
     0
1001
ACDBATTR
1070
     0
1070
     1
  0
ATTDEF
  5
FAC
  8
DEFPOINTS
 10
359.9972248186329011
 20
12.2329692436795394
 30
0.0
 40
0.001
  1
BATHROOM SINK FAUCET
  3

  2
PRODUCT
 70
     0
1001
ACDBATTR
1070
     0
1070
     1
  0
LINE
  5
1537
  8
0
 10
359.0521254375676108
 20
12.2326902334248206
 30
0.0
 11
360.9418892171676134
 21
12.2326902334248206
 31
0.0
  0
LINE
  5
1538
  8
0
 10
359.0521254375676108
 20
12.3735952889525702
 30
0.0
 11
359.0521254375676108
 21
12.2326902334248206
 31
0.0
  0
LINE
  5
1539
  8
0
 10
359.166298665967588
 20
12.4177296035248208
 30
0.0
 11
360.8277159887675793
 21
12.4177296035248208
 31
0.0
  0
LINE
  5
153A
  8
0
 10
359.0604356833356974
 20
12.3848755744080208
 30
0.0
 11
359.166298665967588
 21
12.4177296035248208
 31
0.0
  0
ARC
  5
153B
  8
0
 10
359.0639364615831255
 20
12.3735952889525702
 30
0.0
 40
0.011811024015458
 50
107.2414607725654037
 51
179.9999986792959987
  0
LINE
  5
153C
  8
0
 10
359.1702356738675803
 20
12.4177296035248208
 30
0.0
 11
359.1702356738675803
 21
17.7248162177248183
 31
0.0
  0
LINE
  5
153D
  8
0
 10
359.1899091094726941
 20
17.7445012570248188
 30
0.0
 11
360.8041055452624732
 21
17.7445012570248188
 31
0.0
  0
LINE
  5
153E
  8
0
 10
359.182165398070083
 20
17.8665459423248301
 30
0.0
 11
360.8118492566650843
 21
17.8665459423248301
 31
0.0
  0
LINE
  5
153F
  8
0
 10
359.2411018155676175
 20
19.8350498793248207
 30
0.0
 11
360.7529128391676068
 21
19.8350498793248207
 31
0.0
  0
LINE
  5
1540
  8
0
 10
359.2030138506676167
 20
19.7973408897248184
 30
0.0
 11
360.7910008040676075
 21
19.7973408897248184
 31
0.0
  0
LINE
  5
1541
  8
0
 10
359.2011024318073851
 20
19.7838713358248306
 30
0.0
 11
360.792912222927896
 21
19.7838713358248306
 31
0.0
  0
LINE
  5
1542
  8
0
 10
359.2030138506779053
 20
19.7973408897349508
 30
0.0
 11
359.2411018155676175
 21
19.8350498793248207
 31
0.0
  0
ARC
  5
1543
  8
0
 10
359.2085537132289232
 20
19.7917453515719188
 30
0.0
 40
0.0078740157746008
 50
134.7135307546024876
 51
270.0
  0
ARC
  5
1544
  8
0
 10
359.2011024318073851
 20
19.772060312084669
 30
0.0
 40
0.0118110237401483
 50
90.0000001928403321
 51
179.4270611127284951
  0
LINE
  5
1545
  8
0
 10
359.1892919985745039
 20
19.7721784164560894
 30
0.0
 11
359.1703549650675882
 21
17.8784750702248196
 31
0.0
  0
ARC
  5
1546
  8
0
 10
359.182165398070083
 20
17.8783569658945183
 30
0.0
 40
0.0118110235093952
 50
179.4270613009666135
 51
270.0
  0
ARC
  5
1547
  8
0
 10
359.1899207187701109
 20
17.7248162155456015
 30
0.0
 40
0.0196850449025253
 50
90.0337903108620878
 51
179.9999936571045112
  0
ARC
  5
1548
  8
0
 10
359.9969764904674889
 20
17.3429473324248313
 30
0.0
 40
0.8928393031999796
 50
144.0950624973305025
 51
153.2723943194114895
  0
ARC
  5
1549
  8
0
 10
364.6234519597495023
 20
16.4720839255380689
 30
0.0
 40
5.6297561431205709
 50
144.1473948390236046
 51
163.4214474129597932
  0
ARC
  5
154A
  8
0
 10
364.1644214772912278
 20
16.7591381035406499
 30
0.0
 40
5.123815316320381
 50
144.0193128645312015
 51
165.0793897746108883
  0
ARC
  5
154B
  8
0
 10
363.7733922746662074
 20
17.00668844658259
 30
0.0
 40
4.696174487793205
 50
143.9635988408531944
 51
166.8080685761831887
  0
ARC
  5
154C
  8
0
 10
363.4366212920750741
 20
17.2227598123733294
 30
0.0
 40
4.3308840560683404
 50
143.9827576395151993
 51
168.6050032313225984
  0
ARC
  5
154D
  8
0
 10
363.1440997323734905
 20
17.4132495116445796
 30
0.0
 40
4.0162924133639262
 50
144.0797136587858063
 51
170.4668587247280129
  0
ARC
  5
154E
  8
0
 10
362.8883878016383733
 20
17.5826020471822488
 30
0.0
 40
3.7437006598418079
 50
144.2577263411463946
 51
172.3893503417010891
  0
ARC
  5
154F
  8
0
 10
362.6638611888083119
 20
17.7342461139055096
 30
0.0
 40
3.5064930820782201
 50
144.520684633447587
 51
174.3671587275958927
  0
ARC
  5
1550
  8
0
 10
362.4778570179698818
 20
17.8651848770037986
 30
0.0
 40
3.3123641632363969
 50
144.9077921277082908
 51
176.309000867956911
  0
ARC
  5
1551
  8
0
 10
362.3444625055170718
 20
17.9698820840369784
 30
0.0
 40
3.1760891174621131
 50
145.4869257286825928
 51
176.9141243902529084
  0
ARC
  5
1552
  8
0
 10
362.22085277607232
 20
18.0699970411207111
 30
0.0
 40
3.0502323184715721
 50
146.1411582961389115
 51
177.457418799219397
  0
ARC
  5
1553
  8
0
 10
362.1055549883778895
 20
18.1663007850826688
 30
0.0
 40
2.9331418520484158
 50
146.8689884944747917
 51
177.9560132462148943
  0
ARC
  5
1554
  8
0
 10
361.9978535781689857
 20
18.2591783596578914
 30
0.0
 40
2.8240101708377439
 50
147.6705618684619026
 51
178.3931621617290091
  0
ARC
  5
1555
  8
0
 10
361.8967902095862996
 20
18.3491192599852511
 30
0.0
 40
2.7217700749722882
 50
148.5449661783214879
 51
178.7729853969987062
  0
ARC
  5
1556
  8
0
 10
361.8017003777532068
 20
18.4364595148484085
 30
0.0
 40
2.6256842269571998
 50
149.4918331936763991
 51
179.0736918438265093
  0
ARC
  5
1557
  8
0
 10
361.7121059079927932
 20
18.5214416974171208
 30
0.0
 40
2.535223416171938
 50
150.5110945340761077
 51
179.1535032652159032
  0
ARC
  5
1558
  8
0
 10
361.627518778160379
 20
18.6043011454347393
 30
0.0
 40
2.4498539314532568
 50
151.6023976026079936
 51
178.9912633781262059
  0
ARC
  5
1559
  8
0
 10
361.5442616122924733
 20
18.6862773862427183
 30
0.0
 40
2.3657474189549661
 50
152.7517696791879018
 51
179.1062799915769119
  0
ARC
  5
155A
  8
0
 10
361.4698757262631261
 20
18.7650462991449203
 30
0.0
 40
2.2906726877429371
 50
153.9938148155565898
 51
178.8115823874001933
  0
ARC
  5
155B
  8
0
 10
361.3958983600181796
 20
18.843211276984249
 30
0.0
 40
2.215913640218754
 50
155.2921639450686939
 51
178.810273997091798
  0
ARC
  5
155C
  8
0
 10
361.3251950059918158
 20
18.9198254843498397
 30
0.0
 40
2.1444478468451749
 50
156.6591011376999916
 51
178.7997644422750056
  0
ARC
  5
155D
  8
0
 10
361.3251950059918158
 20
18.9198254843498397
 30
0.0
 40
2.1444478468451749
 50
180.0543581596604952
 51
180.054454582099595
  0
ARC
  5
155E
  8
0
 10
361.2737102873226718
 20
18.9917211640895296
 30
0.0
 40
2.092247726463345
 50
158.1777166266373058
 51
178.7896565035036929
  0
ARC
  5
155F
  8
0
 10
361.1891855624925824
 20
19.0693409039870616
 30
0.0
 40
2.006920665361017
 50
159.5816746301854891
 51
178.8577705089203107
  0
ARC
  5
1560
  8
0
 10
361.1313154055774248
 20
19.1405582099796483
 30
0.0
 40
1.9484085217561511
 50
161.1670076095911099
 51
178.6784161528590005
  0
ARC
  5
1561
  8
0
 10
361.0742589362408239
 20
19.210918086155381
 30
0.0
 40
1.8906538434180999
 50
162.8139912266942133
 51
178.6613723843954062
  0
ARC
  5
1562
  8
0
 10
361.0160770732215951
 20
19.280645873361749
 30
0.0
 40
1.8317198855652139
 50
164.5177348187831115
 51
178.7961094453090141
  0
ARC
  5
1563
  8
0
 10
360.9592293997575894
 20
19.3490536479181401
 30
0.0
 40
1.7741370695641761
 50
166.2861663025771861
 51
178.9672827741451044
  0
ARC
  5
1564
  8
0
 10
360.9045430494902007
 20
19.4158642650292492
 30
0.0
 40
1.718760800802678
 50
168.1190758799650951
 51
179.0744819162806891
  0
ARC
  5
1565
  8
0
 10
360.8512586988351813
 20
19.4811853170022786
 30
0.0
 40
1.66481129162497
 50
170.0163724436652046
 51
179.161382328360304
  0
ARC
  5
1566
  8
0
 10
360.8002842965282753
 20
19.5448759247410884
 30
0.0
 40
1.6131960105028951
 50
171.9805975302695913
 51
179.2121824978823099
  0
ARC
  5
1567
  8
0
 10
360.7598606081310777
 20
19.6062781160148987
 30
0.0
 40
1.57217400991371
 50
174.0183904609262129
 51
179.1039274010074962
  0
ARC
  5
1568
  8
0
 10
360.7254430277689039
 20
19.6662804868247605
 30
0.0
 40
1.537154675601289
 50
176.1148432492510949
 51
179.1238683503304117
  0
ARC
  5
1569
  8
0
 10
365.1698255851489989
 20
16.1342949576890611
 30
0.0
 40
6.2363976429855796
 50
144.3457590472810068
 51
161.8359690732766012
  0
ARC
  5
156A
  8
0
 10
365.7731971888763951
 20
15.7599095080410301
 30
0.0
 40
6.9109967792868501
 50
144.5376455121127037
 51
160.3981881290050922
  0
ARC
  5
156B
  8
0
 10
366.619401480076192
 20
15.2502304256674908
 30
0.0
 40
7.8624033242750153
 50
144.9152059545112934
 51
158.9175769975587968
  0
ARC
  5
156C
  8
0
 10
367.6943249314983859
 20
14.6076231439404598
 30
0.0
 40
9.078209792736013
 50
145.3477275935113937
 51
157.5224290709082027
  0
ARC
  5
156D
  8
0
 10
369.0792655702642264
 20
13.7844337488044708
 30
0.0
 40
10.6528223975065899
 50
145.8180251412831012
 51
156.2288595962008912
  0
ARC
  5
156E
  8
0
 10
370.9856705668090058
 20
12.6595469691609903
 30
0.0
 40
12.8297846753902807
 50
146.3464272820299072
 51
155.0159057534027909
  0
ARC
  5
156F
  8
0
 10
373.8332720424443778
 20
10.9911640041686205
 30
0.0
 40
16.09342594353447
 50
146.9441470705322104
 51
153.8717392536495936
  0
ARC
  5
1570
  8
0
 10
378.5486970289068722
 20
8.2441941732321489
 30
0.0
 40
21.5138261090147793
 50
147.6077515061429892
 51
152.7990998454831129
  0
ARC
  5
1571
  8
0
 10
387.9321832277238968
 20
2.8019872325641582
 30
0.0
 40
32.3244072946539873
 50
148.337759872323403
 51
151.7969505909736085
  0
ARC
  5
1572
  8
0
 10
415.9858366497643942
 20
-13.4195027642417699
 30
0.0
 40
64.6933910166544166
 50
149.1348852619088916
 51
150.8642620889914099
  0
LINE
  5
1573
  8
0
 10
359.5124052065127103
 20
18.0784318815298803
 30
0.0
 11
360.4886965822113893
 21
19.7694181471680288
 31
0.0
  0
ARC
  5
1574
  8
0
 10
304.0653686894747807
 20
51.1485375133598126
 30
0.0
 40
64.5906336473146894
 50
329.2031556054050156
 51
330.9340989105118069
  0
ARC
  5
1575
  8
0
 10
332.1188077704339889
 20
34.9274659989188621
 30
0.0
 40
32.2221680589977026
 50
328.4728239643591223
 51
331.938261107484891
  0
ARC
  5
1576
  8
0
 10
341.5019387141151128
 20
29.4859510085625907
 30
0.0
 40
21.412444677053859
 50
327.8082043221965023
 51
333.0135998352611182
  0
ARC
  5
1577
  8
0
 10
346.2168680110548848
 20
26.7399397934385483
 30
0.0
 40
15.9932362818743599
 50
327.208744631428317
 51
334.1612286666053251
  0
ARC
  5
1578
  8
0
 10
349.063834104962325
 20
25.0727726391671908
 30
0.0
 40
12.7311127886547606
 50
326.6740452665995917
 51
335.3821944322675108
  0
ARC
  5
1579
  8
0
 10
350.9760970313652138
 20
23.9456794932176216
 30
0.0
 40
10.5484376539396401
 50
326.2037943102549775
 51
336.6773931244015898
  0
ARC
  5
157A
  8
0
 10
352.3534941429152809
 20
23.1278489374586691
 30
0.0
 40
8.983508964021194
 50
325.7989898994010218
 51
338.0476735415002736
  0
ARC
  5
157B
  8
0
 10
353.3958284604639744
 20
22.5039440939732707
 30
0.0
 40
7.8055944356594189
 50
325.4593087125019224
 51
339.4934023029343848
  0
ARC
  5
157C
  8
0
 10
354.213998204785014
 20
22.0099397876903886
 30
0.0
 40
6.8866089437171958
 50
325.1856420224443127
 51
341.0147765939846067
  0
ARC
  5
157D
  8
0
 10
354.8380321150077066
 20
21.6254358861685212
 30
0.0
 40
6.1899109496578619
 50
325.0362725141649207
 51
342.5534848663892262
  0
ARC
  5
157E
  8
0
 10
355.4184867847716873
 20
21.2725163172757803
 30
0.0
 40
5.5473132387378756
 50
324.8427076235827826
 51
344.2811405775751155
  0
ARC
  5
157F
  8
0
 10
355.8768280965862232
 20
20.9875899602111495
 30
0.0
 40
5.0438242210834261
 50
324.7732865215762104
 51
346.0274114956220046
  0
ARC
  5
1580
  8
0
 10
356.2661517720716233
 20
20.7426921607632515
 30
0.0
 40
4.6198071235873774
 50
324.7781318027816724
 51
347.8430862044555738
  0
ARC
  5
1581
  8
0
 10
356.6010904543380775
 20
20.529347097647431
 30
0.0
 40
4.258323487270065
 50
324.8583949942402
 51
349.7270890821037028
  0
ARC
  5
1582
  8
0
 10
356.8916546655141246
 20
20.3416293077708197
 30
0.0
 40
3.9477023132226199
 50
325.016323277232118
 51
351.6759327946073768
  0
ARC
  5
1583
  8
0
 10
357.1452860299722261
 20
20.1750652893509184
 30
0.0
 40
3.679225589180728
 50
325.2560775188061939
 51
353.6859806660888239
  0
ARC
  5
1584
  8
0
 10
357.3676109670063852
 20
20.0261966726804488
 30
0.0
 40
3.4462589276254301
 50
325.581113739892885
 51
355.7729859363794844
  0
ARC
  5
1585
  8
0
 10
357.5794002922826849
 20
19.8870674263262117
 30
0.0
 40
3.2271409343714801
 50
325.9086616014375863
 51
357.9597895469839841
  0
ARC
  5
1586
  8
0
 10
357.6873143204657026
 20
19.7915856477697112
 30
0.0
 40
3.118152091197683
 50
326.6699357026284929
 51
359.0553775987744984
  0
ARC
  5
1587
  8
0
 10
357.7983371512507915
 20
19.6977723239780609
 30
0.0
 40
3.0073760532409479
 50
327.4189555760365238
 51
359.6421476189195232
  0
ARC
  5
1588
  8
0
 10
357.9012795588599261
 20
19.6073374282678614
 30
0.0
 40
2.9050218937154382
 50
328.2427492494888952
 51
0.1594996191228878
  0
ARC
  5
1589
  8
0
 10
357.9892166637251876
 20
19.523209760190781
 30
0.0
 40
2.8185431320631089
 50
329.1622519735076935
 51
359.3066394517964
  0
ARC
  5
158A
  8
0
 10
358.0841363891914853
 20
19.43568680671072
 30
0.0
 40
2.7241252535649529
 50
330.1164081391045215
 51
359.708190640324176
  0
ARC
  5
158B
  8
0
 10
358.1731541544057791
 20
19.3505541586330807
 30
0.0
 40
2.635765720137611
 50
331.1421245883611846
 51
0.0429654270799602
  0
ARC
  5
158C
  8
0
 10
358.2565178161818267
 20
19.2676503871423783
 30
0.0
 40
2.5531799054378128
 50
332.2393966291846255
 51
0.1886145113884295
  0
ARC
  5
158D
  8
0
 10
358.3350491374300759
 20
19.1866006124950204
 30
0.0
 40
2.4754777674557631
 50
333.4063114282419065
 51
0.135223536099678
  0
ARC
  5
158E
  8
0
 10
358.411163544598196
 20
19.1066278512828411
 30
0.0
 40
2.4001561813344359
 50
334.6344434332211222
 51
0.1625563267685343
  0
ARC
  5
158F
  8
0
 10
358.48102275570659
 20
19.0287548140503304
 30
0.0
 40
2.3311203006301211
 50
335.9412628421192721
 51
0.0350806309332195
  0
ARC
  5
1590
  8
0
 10
358.5494212408987096
 20
18.9516791029660006
 30
0.0
 40
2.2634849574682279
 50
337.3064075111639113
 51
0.0571491097307892
  0
ARC
  5
1591
  8
0
 10
358.6146658881884832
 20
18.8759202194972495
 30
0.0
 40
2.1989992333085979
 50
338.7360452279265246
 51
0.0550603381905643
  0
ARC
  5
1592
  8
0
 10
358.676178611364378
 20
18.8016513598372903
 30
0.0
 40
2.1382652456930722
 50
340.2307622031601113
 51
359.9587956300557039
  0
ARC
  5
1593
  8
0
 10
358.7412667383650273
 20
18.7272711554901896
 30
0.0
 40
2.073850337355625
 50
341.7675648419551067
 51
0.1789350815492355
  0
ARC
  5
1594
  8
0
 10
358.7905408082023087
 20
18.6567668135000702
 30
0.0
 40
2.0254010592160001
 50
343.408466346167927
 51
359.8385901510148983
  0
ARC
  5
1595
  8
0
 10
358.8451000284131851
 20
18.5857843830490488
 30
0.0
 40
1.971526958366415
 50
345.0873678428624203
 51
359.8926718021062925
  0
ARC
  5
1596
  8
0
 10
358.9034949274553128
 20
18.5150061575004514
 30
0.0
 40
1.9137469385785451
 50
346.812907011706784
 51
0.1880922601223207
  0
ARC
  5
1597
  8
0
 10
358.9511452918209784
 20
18.4468177418902108
 30
0.0
 40
1.866780123993947
 50
348.6183208257667729
 51
0.186374097740852
  0
ARC
  5
1598
  8
0
 10
359.0015445953213202
 20
18.3792785899174618
 30
0.0
 40
1.8170401707646919
 50
350.4692953007319147
 51
0.2786993420040083
  0
ARC
  5
1599
  8
0
 10
359.181110086619924
 20
18.2996014816350794
 30
0.0
 40
1.6375474529656671
 50
352.2374086753537767
 51
1.412857545280612
  0
ARC
  5
159A
  8
0
 10
359.1521573914757255
 20
18.243964791940801
 30
0.0
 40
1.6675904137261579
 50
354.302761625108019
 51
2.0787895041095199
  0
ARC
  5
159B
  8
0
 10
359.1317509836679278
 20
18.1852934010248113
 30
0.0
 40
1.6887791817996931
 50
356.3716492427656135
 51
0.2732924258898563
  0
ARC
  5
159C
  8
0
 10
359.1523087760688782
 20
18.1235051075247817
 30
0.0
 40
1.6688362713987219
 50
358.4519185604519862
 51
0.2988360662216412
  0
LINE
  5
159D
  8
0
 10
360.8047226561607204
 20
19.7721784164560894
 30
0.0
 11
360.8236596896675792
 21
17.8784750702248196
 31
0.0
  0
ARC
  5
159E
  8
0
 10
355.3705626949857219
 20
16.4720839255380689
 30
0.0
 40
5.6297561431205709
 50
16.5785525870401287
 51
35.8526051609763172
  0
ARC
  5
159F
  8
0
 10
355.8295931774439964
 20
16.7591381035406499
 30
0.0
 40
5.123815316320381
 50
14.9206102253890691
 51
35.9806871354687985
  0
ARC
  5
15A0
  8
0
 10
356.2206223800690168
 20
17.00668844658259
 30
0.0
 40
4.696174487793205
 50
13.1919314238168202
 51
36.0364011591467417
  0
ARC
  5
15A1
  8
0
 10
356.5573933626600933
 20
17.2227598123733294
 30
0.0
 40
4.3308840560683404
 50
11.3949967686773306
 51
36.0172423604847936
  0
ARC
  5
15A2
  8
0
 10
356.8499149223616769
 20
17.4132495116445796
 30
0.0
 40
4.0162924133639262
 50
9.5331412752720315
 51
35.9202863412141866
  0
ARC
  5
15A3
  8
0
 10
357.1056268530969078
 20
17.5826020471822488
 30
0.0
 40
3.7437006598418079
 50
7.6106496582988292
 51
35.7422736588535628
  0
ARC
  5
15A4
  8
0
 10
357.330153465927026
 20
17.7342461139055096
 30
0.0
 40
3.5064930820782201
 50
5.6328412724040611
 51
35.4793153665524272
  0
ARC
  5
15A5
  8
0
 10
357.5161576367653993
 20
17.8651848770037986
 30
0.0
 40
3.3123641632363969
 50
3.6909991320430429
 51
35.0922078722916808
  0
ARC
  5
15A6
  8
0
 10
357.6495521492180956
 20
17.9698820840369784
 30
0.0
 40
3.1760891174621131
 50
3.085875609747136
 51
34.5130742713173291
  0
ARC
  5
15A7
  8
0
 10
357.7731618786629042
 20
18.0699970411207111
 30
0.0
 40
3.0502323184715721
 50
2.5425812007805928
 51
33.8588417038610601
  0
ARC
  5
15A8
  8
0
 10
357.8884596663572779
 20
18.1663007850826688
 30
0.0
 40
2.9331418520484158
 50
2.043986753785064
 51
33.1310115055251799
  0
ARC
  5
15A9
  8
0
 10
357.9961610765661817
 20
18.2591783596578914
 30
0.0
 40
2.8240101708377439
 50
1.6068378382709789
 51
32.3294381315381187
  0
ARC
  5
15AA
  8
0
 10
358.0972244451489246
 20
18.3491192599852511
 30
0.0
 40
2.7217700749722882
 50
1.227014603001322
 51
31.4550338216785015
  0
ARC
  5
15AB
  8
0
 10
358.1923142769820743
 20
18.4364595148484085
 30
0.0
 40
2.6256842269571998
 50
0.9263081561734489
 51
30.5081668063236009
  0
ARC
  5
15AC
  8
0
 10
358.2819087467423742
 20
18.5214416974171208
 30
0.0
 40
2.535223416171938
 50
0.8464967347840795
 51
29.4889054659238496
  0
ARC
  5
15AD
  8
0
 10
358.3664958765747883
 20
18.6043011454347393
 30
0.0
 40
2.4498539314532568
 50
1.008736621873779
 51
28.3976023973919389
  0
ARC
  5
15AE
  8
0
 10
358.4497530424428078
 20
18.6862773862427183
 30
0.0
 40
2.3657474189549661
 50
0.893720008423145
 51
27.248230320811949
  0
ARC
  5
15AF
  8
0
 10
358.5241389284719844
 20
18.7650462991449203
 30
0.0
 40
2.2906726877429371
 50
1.188417612599773
 51
26.0061851844433995
  0
ARC
  5
15B0
  8
0
 10
358.5981162947168741
 20
18.843211276984249
 30
0.0
 40
2.215913640218754
 50
1.189726002908128
 51
24.707836054931299
  0
ARC
  5
15B1
  8
0
 10
358.6688196487435221
 20
18.9198254843498397
 30
0.0
 40
2.1444478468451749
 50
1.200235557724997
 51
23.3408988622999516
  0
ARC
  5
15B2
  8
0
 10
358.6688196487435221
 20
18.9198254843498397
 30
0.0
 40
2.1444478468451749
 50
359.9455454179002913
 51
359.9456418403394196
  0
ARC
  5
15B3
  8
0
 10
358.7203043674126093
 20
18.9917211640895296
 30
0.0
 40
2.092247726463345
 50
1.2103434964962621
 51
21.8222833733626693
  0
ARC
  5
15B4
  8
0
 10
358.8048290922425849
 20
19.0693409039870616
 30
0.0
 40
2.006920665361017
 50
1.1422294910797259
 51
20.4183253698144718
  0
ARC
  5
15B5
  8
0
 10
358.8626992491577994
 20
19.1405582099796483
 30
0.0
 40
1.9484085217561511
 50
1.3215838471409731
 51
18.8329923904089398
  0
ARC
  5
15B6
  8
0
 10
358.9197557184944003
 20
19.210918086155381
 30
0.0
 40
1.8906538434180999
 50
1.3386276156046399
 51
17.1860087733059004
  0
ARC
  5
15B7
  8
0
 10
358.9779375815135722
 20
19.280645873361749
 30
0.0
 40
1.8317198855652139
 50
1.2038905546909351
 51
15.4822651812170093
  0
ARC
  5
15B8
  8
0
 10
359.034785254977578
 20
19.3490536479181401
 30
0.0
 40
1.7741370695641761
 50
1.032717225854934
 51
13.7138336974227801
  0
ARC
  5
15B9
  8
0
 10
359.0894716052450804
 20
19.4158642650292492
 30
0.0
 40
1.718760800802678
 50
0.9255180837193012
 51
11.8809241200348303
  0
ARC
  5
15BA
  8
0
 10
359.142755955899986
 20
19.4811853170022786
 30
0.0
 40
1.66481129162497
 50
0.8386176716396962
 51
9.9836275563347652
  0
ARC
  5
15BB
  8
0
 10
359.1937303582068921
 20
19.5448759247410884
 30
0.0
 40
1.6131960105028951
 50
0.7878175021177442
 51
8.01940246973043
  0
ARC
  5
15BC
  8
0
 10
359.2341540466040897
 20
19.6062781160148987
 30
0.0
 40
1.57217400991371
 50
0.8960725989924805
 51
5.9816095390737978
  0
ARC
  5
15BD
  8
0
 10
359.2685716269663203
 20
19.6662804868247605
 30
0.0
 40
1.537154675601289
 50
0.8761316496695831
 51
3.885156750749013
  0
ARC
  5
15BE
  8
0
 10
354.8241890695862253
 20
16.1342949576890611
 30
0.0
 40
6.2363976429855796
 50
18.164030926723381
 51
35.6542409527189577
  0
ARC
  5
15BF
  8
0
 10
354.2208174658587723
 20
15.7599095080410301
 30
0.0
 40
6.9109967792868501
 50
19.6018118709949185
 51
35.4623544878872465
  0
ARC
  5
15C0
  8
0
 10
353.3746131746589754
 20
15.2502304256674908
 30
0.0
 40
7.8624033242750153
 50
21.0824230024411605
 51
35.0847940454886498
  0
ARC
  5
15C1
  8
0
 10
352.2996897232367814
 20
14.6076231439404598
 30
0.0
 40
9.078209792736013
 50
22.47757092909184
 51
34.6522724064886276
  0
ARC
  5
15C2
  8
0
 10
350.9147490844711115
 20
13.7844337488044708
 30
0.0
 40
10.6528223975065899
 50
23.7711404037990697
 51
34.1819748587168277
  0
ARC
  5
15C3
  8
0
 10
349.0083440879262184
 20
12.6595469691609903
 30
0.0
 40
12.8297846753902807
 50
24.9840942465972091
 51
33.653572717970107
  0
ARC
  5
15C4
  8
0
 10
346.1607426122907896
 20
10.9911640041686205
 30
0.0
 40
16.09342594353447
 50
26.1282607463503282
 51
33.055852929467811
  0
ARC
  5
15C5
  8
0
 10
341.4453176258282951
 20
8.2441941732321489
 30
0.0
 40
21.5138261090147793
 50
27.20090015451688
 51
32.3922484938570179
  0
ARC
  5
15C6
  8
0
 10
332.0618314270113842
 20
2.8019872325641582
 30
0.0
 40
32.3244072946539873
 50
28.2030494090263595
 51
31.6622401276766006
  0
ARC
  5
15C7
  8
0
 10
304.0081780049707731
 20
-13.4195027642417699
 30
0.0
 40
64.6933910166544166
 50
29.135737911008551
 51
30.8651147380910515
  0
LINE
  5
15C8
  8
0
 10
360.4816094482225139
 20
18.0784318815298803
 30
0.0
 11
359.505318072523778
 21
19.7694181471680288
 31
0.0
  0
ARC
  5
15C9
  8
0
 10
415.9286459652603867
 20
51.1485375133598126
 30
0.0
 40
64.5906336473146894
 50
209.0659010894881931
 51
210.7968443945948991
  0
ARC
  5
15CA
  8
0
 10
387.8752068843012921
 20
34.9274659989188621
 30
0.0
 40
32.2221680589977026
 50
208.0617388925149953
 51
211.5271760356409061
  0
ARC
  5
15CB
  8
0
 10
378.4920759406201114
 20
29.4859510085625907
 30
0.0
 40
21.412444677053859
 50
206.9864001647387113
 51
212.1917956778034124
  0
ARC
  5
15CC
  8
0
 10
373.7771466436802257
 20
26.7399397934385483
 30
0.0
 40
15.9932362818743599
 50
205.8387713333947033
 51
212.7912553685717114
  0
ARC
  5
15CD
  8
0
 10
370.9301805497728992
 20
25.0727726391671908
 30
0.0
 40
12.7311127886547606
 50
204.6178055677326029
 51
213.3259547334002946
  0
ARC
  5
15CE
  8
0
 10
369.0179176233700105
 20
23.9456794932176216
 30
0.0
 40
10.5484376539396401
 50
203.3226068755982965
 51
213.7962056897449088
  0
ARC
  5
15CF
  8
0
 10
367.6405205118198865
 20
23.1278489374586691
 30
0.0
 40
8.983508964021194
 50
201.952326458499698
 51
214.2010101005990066
  0
ARC
  5
15D0
  8
0
 10
366.598186194271193
 20
22.5039440939732707
 30
0.0
 40
7.8055944356594189
 50
200.5065976970655015
 51
214.540691287498106
  0
ARC
  5
15D1
  8
0
 10
365.7800164499502102
 20
22.0099397876903886
 30
0.0
 40
6.8866089437171958
 50
198.985223406015308
 51
214.8143579775556873
  0
ARC
  5
15D2
  8
0
 10
365.1559825397275176
 20
21.6254358861685212
 30
0.0
 40
6.1899109496578619
 50
197.4465151336108022
 51
214.9637274858351077
  0
ARC
  5
15D3
  8
0
 10
364.5755278699634232
 20
21.2725163172757803
 30
0.0
 40
5.5473132387378756
 50
195.7188594224247993
 51
215.157292376417189
  0
ARC
  5
15D4
  8
0
 10
364.117186558149001
 20
20.9875899602111495
 30
0.0
 40
5.0438242210834261
 50
193.9725885043779954
 51
215.2267134784239033
  0
ARC
  5
15D5
  8
0
 10
363.7278628826637146
 20
20.7426921607632515
 30
0.0
 40
4.6198071235873774
 50
192.1569137955443125
 51
215.2218681972182139
  0
ARC
  5
15D6
  8
0
 10
363.3929242003970899
 20
20.529347097647431
 30
0.0
 40
4.258323487270065
 50
190.2729109178962119
 51
215.1416050057599136
  0
ARC
  5
15D7
  8
0
 10
363.1023599892210996
 20
20.3416293077708197
 30
0.0
 40
3.9477023132226199
 50
188.3240672053925095
 51
214.9836767227679104
  0
ARC
  5
15D8
  8
0
 10
362.8487286247631118
 20
20.1750652893509184
 30
0.0
 40
3.679225589180728
 50
186.3140193339112045
 51
214.7439224811938061
  0
ARC
  5
15D9
  8
0
 10
362.6264036877287822
 20
20.0261966726804488
 30
0.0
 40
3.4462589276254301
 50
184.2270140636204019
 51
214.4188862601070866
  0
ARC
  5
15DA
  8
0
 10
362.4146143624524825
 20
19.8870674263262117
 30
0.0
 40
3.2271409343714801
 50
182.0402104530159022
 51
214.0913383985623
  0
ARC
  5
15DB
  8
0
 10
362.3067003342695216
 20
19.7915856477697112
 30
0.0
 40
3.118152091197683
 50
180.9446224012253026
 51
213.3300642973715071
  0
ARC
  5
15DC
  8
0
 10
362.1956775034843758
 20
19.6977723239780609
 30
0.0
 40
3.0073760532409479
 50
180.3578523810803915
 51
212.5810444239635046
  0
ARC
  5
15DD
  8
0
 10
362.0927350958754118
 20
19.6073374282678614
 30
0.0
 40
2.9050218937154382
 50
179.8405003808771028
 51
211.7572507505109911
  0
ARC
  5
15DE
  8
0
 10
362.0047979910100935
 20
19.523209760190781
 30
0.0
 40
2.8185431320631089
 50
180.6933605482034011
 51
210.8377480264921076
  0
ARC
  5
15DF
  8
0
 10
361.9098782655436821
 20
19.43568680671072
 30
0.0
 40
2.7241252535649529
 50
180.2918093596757956
 51
209.8835918608955069
  0
ARC
  5
15E0
  8
0
 10
361.8208605003293883
 20
19.3505541586330807
 30
0.0
 40
2.635765720137611
 50
179.9570345729200085
 51
208.8578754116387017
  0
ARC
  5
15E1
  8
0
 10
361.7374968385532839
 20
19.2676503871423783
 30
0.0
 40
2.5531799054378128
 50
179.8113854886115917
 51
207.7606033708152893
  0
ARC
  5
15E2
  8
0
 10
361.6589655173050915
 20
19.1866006124950204
 30
0.0
 40
2.4754777674557631
 50
179.8647764639003128
 51
206.5936885717580935
  0
ARC
  5
15E3
  8
0
 10
361.5828511101370282
 20
19.1066278512828411
 30
0.0
 40
2.4001561813344359
 50
179.8374436732314052
 51
205.3655565667789062
  0
ARC
  5
15E4
  8
0
 10
361.512991899028691
 20
19.0287548140503304
 30
0.0
 40
2.3311203006301211
 50
179.9649193690667914
 51
204.0587371578806994
  0
ARC
  5
15E5
  8
0
 10
361.4445934138365146
 20
18.9516791029660006
 30
0.0
 40
2.2634849574682279
 50
179.9428508902691988
 51
202.6935924888360887
  0
ARC
  5
15E6
  8
0
 10
361.3793487665466273
 20
18.8759202194972495
 30
0.0
 40
2.1989992333085979
 50
179.9449396618093999
 51
201.2639547720735038
  0
ARC
  5
15E7
  8
0
 10
361.3178360433707894
 20
18.8016513598372903
 30
0.0
 40
2.1382652456930722
 50
180.0412043699442108
 51
199.7692377968398034
  0
ARC
  5
15E8
  8
0
 10
361.2527479163701969
 20
18.7272711554901896
 30
0.0
 40
2.073850337355625
 50
179.821064918450702
 51
198.2324351580448933
  0
ARC
  5
15E9
  8
0
 10
361.2034738465329156
 20
18.6567668135000702
 30
0.0
 40
2.0254010592160001
 50
180.1614098489851017
 51
196.5915336538321014
  0
ARC
  5
15EA
  8
0
 10
361.1489146263219823
 20
18.5857843830490488
 30
0.0
 40
1.971526958366415
 50
180.1073281978937075
 51
194.9126321571376081
  0
ARC
  5
15EB
  8
0
 10
361.0905197272799114
 20
18.5150061575004514
 30
0.0
 40
1.9137469385785451
 50
179.8119077398777108
 51
193.1870929882931023
  0
ARC
  5
15EC
  8
0
 10
361.042869362914189
 20
18.4468177418902108
 30
0.0
 40
1.866780123993947
 50
179.8136259022591048
 51
191.3816791742331986
  0
ARC
  5
15ED
  8
0
 10
360.992470059413904
 20
18.3792785899174618
 30
0.0
 40
1.8170401707646919
 50
179.7213006579960108
 51
189.5307046992681137
  0
ARC
  5
15EE
  8
0
 10
360.8129045681153002
 20
18.2996014816350794
 30
0.0
 40
1.6375474529656671
 50
178.5871424547194124
 51
187.7625913246461096
  0
ARC
  5
15EF
  8
0
 10
360.8418572632594987
 20
18.243964791940801
 30
0.0
 40
1.6675904137261579
 50
177.9212104958905911
 51
185.6972383748920947
  0
ARC
  5
15F0
  8
0
 10
360.8622636710672964
 20
18.1852934010248113
 30
0.0
 40
1.6887791817996931
 50
179.7267075741100939
 51
183.6283507572343012
  0
ARC
  5
15F1
  8
0
 10
360.8417058786664029
 20
18.1235051075247817
 30
0.0
 40
1.6688362713987219
 50
179.7011639337783038
 51
181.5480814395480138
  0
LINE
  5
15F2
  8
0
 10
359.465511264367592
 20
17.7248162177248183
 30
0.0
 11
359.465511264367592
 21
16.7011941109754503
 31
0.0
  0
ARC
  5
15F3
  8
0
 10
359.4851963037676228
 20
17.7248162177248183
 30
0.0
 40
0.0196850394000032
 50
90.0057752585495479
 51
179.9999997089296926
  0
ARC
  5
15F4
  8
0
 10
359.9206953872115946
 20
15.3806722997659495
 30
0.0
 40
1.4367398200584891
 50
94.252804232409062
 51
101.5530451884105929
  0
ARC
  5
15F5
  8
0
 10
359.7669654918129254
 20
16.1327143694561599
 30
0.0
 40
0.6691460763872527
 50
101.5530451884105929
 51
110.022258185796602
  0
ARC
  5
15F6
  8
0
 10
359.6127869093295999
 20
16.5558050682396889
 30
0.0
 40
0.2188386539593049
 50
110.022258185796602
 51
124.9133433262279027
  0
ARC
  5
15F7
  8
0
 10
359.5238289578277886
 20
16.6832600356180691
 30
0.0
 40
0.0634092942977432
 50
124.9133433262278032
 51
146.5022668136292907
  0
ARC
  5
15F8
  8
0
 10
359.9843735344574043
 20
15.2425486388467402
 30
0.0
 40
1.5522320485251011
 50
92.6785078042133961
 51
96.1547084180097755
  0
ARC
  5
15F9
  8
0
 10
359.9379610018941094
 20
15.6729518045917899
 30
0.0
 40
1.1193336675367811
 50
96.1547084180065639
 51
101.4940406293709998
  0
ARC
  5
15FA
  8
0
 10
359.8205644092125794
 20
16.2502818506739892
 30
0.0
 40
0.5301885732836835
 50
101.4940406293709998
 51
107.8280825467505935
  0
ARC
  5
15FB
  8
0
 10
359.7478292993604896
 20
16.4764442863856004
 30
0.0
 40
0.2926178605849092
 50
107.8280825467505935
 51
116.3657011080990031
  0
ARC
  5
15FC
  8
0
 10
359.6633534937482182
 20
16.6468757913315812
 30
0.0
 40
0.1023994082412942
 50
116.3657011080989037
 51
131.0303979557417904
  0
ARC
  5
15FD
  8
0
 10
359.6251777101920197
 20
16.6907449783930488
 30
0.0
 40
0.04424533681401
 50
131.0303979557415914
 51
151.4643971600476107
  0
ARC
  5
15FE
  8
0
 10
359.9206953872115946
 20
18.0217159221849492
 30
0.0
 40
1.4367398200584891
 50
258.4469548115894213
 51
265.7471957675908811
  0
ARC
  5
15FF
  8
0
 10
359.7669654918129254
 20
17.2696738524947406
 30
0.0
 40
0.6691460763872527
 50
249.9777418142033127
 51
258.4469548115894213
  0
ARC
  5
1600
  8
0
 10
359.6127869093295999
 20
16.8465831537112116
 30
0.0
 40
0.2188386539593049
 50
235.086656673772012
 51
249.9777418142033127
  0
ARC
  5
1601
  8
0
 10
359.5238289578277886
 20
16.7191281863328314
 30
0.0
 40
0.0634092942977432
 50
213.4977331863707093
 51
235.0866566737720973
  0
ARC
  5
1602
  8
0
 10
359.9843735344574043
 20
18.1598395831041586
 30
0.0
 40
1.5522320485251011
 50
263.8452915819902955
 51
267.3214921957866181
  0
ARC
  5
1603
  8
0
 10
359.9379610018941094
 20
17.7294364173591106
 30
0.0
 40
1.1193336675367811
 50
258.5059593706290002
 51
263.8452915819934219
  0
ARC
  5
1604
  8
0
 10
359.8205644092125794
 20
17.1521063712769113
 30
0.0
 40
0.5301885732836835
 50
252.1719174532493923
 51
258.5059593706290002
  0
ARC
  5
1605
  8
0
 10
359.7478292993604896
 20
16.9259439355653001
 30
0.0
 40
0.2926178605849092
 50
243.6342988919010111
 51
252.1719174532493923
  0
ARC
  5
1606
  8
0
 10
359.6633534937482182
 20
16.7555124306193193
 30
0.0
 40
0.1023994082412942
 50
228.9696020442582096
 51
243.6342988919010111
  0
ARC
  5
1607
  8
0
 10
359.6251777101920197
 20
16.7116432435578517
 30
0.0
 40
0.04424533681401
 50
208.5356028399523041
 51
228.9696020442582949
  0
ARC
  5
1608
  8
0
 10
359.4949862661488851
 20
16.7011941109754503
 30
0.0
 40
0.0294750017813292
 50
144.6299140008349013
 51
215.3700859991650987
  0
ARC
  5
1609
  8
0
 10
359.6062671531967112
 20
16.7011941109754503
 30
0.0
 40
0.0226408970826232
 50
151.8341595272067082
 51
208.1658404727932066
  0
ARC
  5
160A
  8
0
 10
359.9970087470834983
 20
17.4657516540006199
 30
0.0
 40
0.6939316158250943
 50
257.3903828818910142
 51
282.6005937547242866
  0
ARC
  5
160B
  8
0
 10
359.9548979696946276
 20
17.1934320847827884
 30
0.0
 40
0.4420633998123524
 50
248.3109274437589136
 51
264.216380388046673
  0
ARC
  5
160C
  8
0
 10
359.9493023981279975
 20
17.2185109947023385
 30
0.0
 40
0.475585726205812
 50
247.4833976511393985
 51
263.6475599182512042
  0
ARC
  5
160D
  8
0
 10
359.9109967097335243
 20
17.1582467137513106
 30
0.0
 40
0.4213861532934243
 50
245.6973197903807886
 51
257.7291044500124144
  0
ARC
  5
160E
  8
0
 10
359.9066838429362747
 20
17.2192943771639406
 30
0.0
 40
0.4960825014275182
 50
248.1994821590583911
 51
256.7761127484881172
  0
ARC
  5
160F
  8
0
 10
359.9821349317056161
 20
17.4282631751757116
 30
0.0
 40
0.7368549140933091
 50
257.4033605439462917
 51
265.709528394591473
  0
ARC
  5
1610
  8
0
 10
359.980685588137419
 20
17.5014093535008186
 30
0.0
 40
0.8239988718670135
 50
256.8483396428657102
 51
266.2649011609482272
  0
ARC
  5
1611
  8
0
 10
359.9970073273676121
 20
17.6281897714944691
 30
0.0
 40
0.9001012528696257
 50
265.53997185439232
 51
274.46002814560768
  0
ARC
  5
1612
  8
0
 10
359.9970073273676121
 20
17.7305752708521496
 30
0.0
 40
1.0164993336511161
 50
266.0514701106985171
 51
273.9485298893014829
  0
ARC
  5
1613
  8
0
 10
359.7972406896359985
 20
16.8816213181172188
 30
0.0
 40
0.1560877366269886
 50
228.3363648490110904
 51
241.3698239988430032
  0
ARC
  5
1614
  8
0
 10
359.7827396515198188
 20
16.9046189040584913
 30
0.0
 40
0.1917776553711936
 50
230.781309775018201
 51
242.5067663255082095
  0
LINE
  5
1615
  8
0
 10
359.6942066746676119
 20
16.7344995897248197
 30
0.0
 11
359.7224505951675724
 21
16.7446183134248301
 31
0.0
  0
LINE
  5
1616
  8
0
 10
359.7224505951675724
 20
16.7446183134248301
 30
0.0
 11
359.7224505951675724
 21
16.7713429570843502
 31
0.0
  0
LINE
  5
1617
  8
0
 10
359.7932016240675921
 20
16.7363661897248193
 30
0.0
 11
359.8214378037675942
 21
16.7464876913248197
 31
0.0
  0
LINE
  5
1618
  8
0
 10
359.8214378037675942
 20
16.7464876913248197
 30
0.0
 11
359.8214371901676145
 21
16.7091446868248212
 31
0.0
  0
LINE
  5
1619
  8
0
 10
359.8214371901676145
 20
16.7091446868248212
 30
0.0
 11
359.7932016240675921
 21
16.6990229727248192
 31
0.0
  0
LINE
  5
161A
  8
0
 10
359.7932016240675921
 20
16.6990229727248192
 30
0.0
 11
359.7932016240675921
 21
16.7363661897248193
 31
0.0
  0
LINE
  5
161B
  8
0
 10
359.9270073273676189
 20
16.6791607383248213
 30
0.0
 11
359.9270122254462763
 21
16.7308141806048383
 31
0.0
  0
ARC
  5
161C
  8
0
 10
359.7651912669841749
 20
16.8664258139948089
 30
0.0
 40
0.1657342026567511
 50
224.1894880422667029
 51
243.4681130352495018
  0
ARC
  5
161D
  8
0
 10
359.8949493492507941
 20
17.1263179497273512
 30
0.0
 40
0.4562184227602379
 50
243.468113035249587
 51
259.6841138549883112
  0
ARC
  5
161E
  8
0
 10
359.9846429068290945
 20
17.5300359892475193
 30
0.0
 40
0.8696186518810657
 50
258.6333107699456946
 51
265.8669133809536902
  0
ARC
  5
161F
  8
0
 10
359.6912840875792199
 20
16.7836903794013601
 30
0.0
 40
0.1106553333583862
 50
211.9234894906786053
 51
231.2838611220371945
  0
ARC
  5
1620
  8
0
 10
359.7678465144122129
 20
16.8792007632866792
 30
0.0
 40
0.2330646411437352
 50
231.2838611220371945
 51
245.8658836734364002
  0
ARC
  5
1621
  8
0
 10
359.8741723927698786
 20
17.1091228836965605
 30
0.0
 40
0.4863727442944668
 50
245.5097810899497119
 51
254.9133669361376064
  0
ARC
  5
1622
  8
0
 10
359.9569313351253754
 20
17.4139081940038416
 30
0.0
 40
0.8021937789082267
 50
254.8721391938030933
 51
262.0876329685024757
  0
ARC
  5
1623
  8
0
 10
359.9894371878323227
 20
17.632595253053001
 30
0.0
 40
1.0232757283720531
 50
261.9704801916765859
 51
266.0351626529144937
  0
ARC
  5
1624
  8
0
 10
359.6795302285021876
 20
16.7779782425965216
 30
0.0
 40
0.1019787031533943
 50
213.1197902466539063
 51
226.3776115771347008
  0
ARC
  5
1625
  8
0
 10
359.72421115790371
 20
16.8244880287722296
 30
0.0
 40
0.1664729282551852
 50
226.2890164288338042
 51
236.5010522376497022
  0
ARC
  5
1626
  8
0
 10
359.7917763712317196
 20
16.9285473633349284
 30
0.0
 40
0.2905403377597151
 50
236.7160533551221135
 51
247.0060890137337992
  0
ARC
  5
1627
  8
0
 10
359.8750500731666762
 20
17.1221682469300092
 30
0.0
 40
0.5013078637506854
 50
246.8892202552339938
 51
254.5108754358815872
  0
ARC
  5
1628
  8
0
 10
359.9445307188261154
 20
17.3685039929183489
 30
0.0
 40
0.7572530741576293
 50
254.4222076417983089
 51
260.4271433220711174
  0
ARC
  5
1629
  8
0
 10
359.9814906743297911
 20
17.5778553567202707
 30
0.0
 40
0.9698370758808303
 50
260.3308575400357086
 51
264.2973062188754056
  0
ARC
  5
162A
  8
0
 10
359.9930528607628162
 20
17.6860160762855116
 30
0.0
 40
1.0786116574569351
 50
264.2570727343825183
 51
266.4055327853054109
  0
LINE
  5
162B
  8
0
 10
360.9418892171676134
 20
12.3735952889525702
 30
0.0
 11
360.9418892171676134
 21
12.2326902334248206
 31
0.0
  0
LINE
  5
162C
  8
0
 10
360.9335789713995268
 20
12.3848755744080208
 30
0.0
 11
360.8277159887675793
 21
12.4177296035248208
 31
0.0
  0
ARC
  5
162D
  8
0
 10
360.9300781931520987
 20
12.3735952889525702
 30
0.0
 40
0.011811024015458
 50
0.0000013207039073
 51
72.7585392274345537
  0
LINE
  5
162E
  8
0
 10
360.7910008040573757
 20
19.7973408897349508
 30
0.0
 11
360.7529128391676068
 21
19.8350498793248207
 31
0.0
  0
ARC
  5
162F
  8
0
 10
360.785460941506301
 20
19.7917453515719188
 30
0.0
 40
0.0078740157746008
 50
270.0
 51
45.2864692453974698
  0
ARC
  5
1630
  8
0
 10
360.792912222927896
 20
19.772060312084669
 30
0.0
 40
0.0118110237401483
 50
0.5729388872714982
 51
89.9999998071596679
  0
ARC
  5
1631
  8
0
 10
360.8118492566650843
 20
17.8783569658945183
 30
0.0
 40
0.0118110235093952
 50
270.0
 51
0.5729386990333984
  0
ARC
  5
1632
  8
0
 10
360.8040939359649997
 20
17.7248162155456015
 30
0.0
 40
0.0196850449025253
 50
0.0000063428954204
 51
89.9662096891379122
  0
ARC
  5
1633
  8
0
 10
359.9970381642676216
 20
17.3429473324248313
 30
0.0
 40
0.8928393031999796
 50
26.7276056805884501
 51
35.904937502669533
  0
LINE
  5
1634
  8
0
 10
360.528503390367689
 20
17.7248162177248183
 30
0.0
 11
360.528503390367689
 21
16.7011941109754503
 31
0.0
  0
ARC
  5
1635
  8
0
 10
360.5088183509676014
 20
17.7248162177248183
 30
0.0
 40
0.0196850394000032
 50
0.0000002910703191
 51
89.9942247414504664
  0
ARC
  5
1636
  8
0
 10
360.0733192675235728
 20
15.3806722997659495
 30
0.0
 40
1.4367398200584891
 50
78.4469548115893929
 51
85.7471957675909238
  0
ARC
  5
1637
  8
0
 10
360.2270491629222988
 20
16.1327143694561599
 30
0.0
 40
0.6691460763872527
 50
69.9777418142033554
 51
78.4469548115893929
  0
ARC
  5
1638
  8
0
 10
360.3812277454056812
 20
16.5558050682396889
 30
0.0
 40
0.2188386539593049
 50
55.0866566737720689
 51
69.9777418142033554
  0
ARC
  5
1639
  8
0
 10
360.4701856969073788
 20
16.6832600356180691
 30
0.0
 40
0.0634092942977432
 50
33.497733186370688
 51
55.0866566737720973
  0
ARC
  5
163A
  8
0
 10
360.0096411202778199
 20
15.2425486388467402
 30
0.0
 40
1.5522320485251011
 50
83.8452915819934645
 51
87.3214921957898724
  0
ARC
  5
163B
  8
0
 10
360.0560536528411149
 20
15.6729518045917899
 30
0.0
 40
1.1193336675367811
 50
78.5059593706290286
 51
83.8452915819934645
  0
ARC
  5
163C
  8
0
 10
360.1734502455225879
 20
16.2502818506739892
 30
0.0
 40
0.5301885732836835
 50
72.1719174532493497
 51
78.5059593706290286
  0
ARC
  5
163D
  8
0
 10
360.2461853553746778
 20
16.4764442863856004
 30
0.0
 40
0.2926178605849092
 50
63.6342988919009969
 51
72.1719174532493497
  0
ARC
  5
163E
  8
0
 10
360.330661160987006
 20
16.6468757913315812
 30
0.0
 40
0.1023994082412942
 50
48.9696020442582309
 51
63.6342988919010466
  0
ARC
  5
163F
  8
0
 10
360.3688369445432045
 20
16.6907449783930488
 30
0.0
 40
0.04424533681401
 50
28.5356028399523893
 51
48.9696020442583588
  0
ARC
  5
1640
  8
0
 10
360.0733192675235728
 20
18.0217159221849492
 30
0.0
 40
1.4367398200584891
 50
274.2528042324090052
 51
281.5530451884105787
  0
ARC
  5
1641
  8
0
 10
360.2270491629222988
 20
17.2696738524947406
 30
0.0
 40
0.6691460763872527
 50
281.5530451884105787
 51
290.0222581857967157
  0
ARC
  5
1642
  8
0
 10
360.3812277454056812
 20
16.8465831537112116
 30
0.0
 40
0.2188386539593049
 50
290.0222581857967157
 51
304.9133433262280164
  0
ARC
  5
1643
  8
0
 10
360.4701856969073788
 20
16.7191281863328314
 30
0.0
 40
0.0634092942977432
 50
304.913343326227789
 51
326.5022668136293191
  0
ARC
  5
1644
  8
0
 10
360.0096411202778199
 20
18.1598395831041586
 30
0.0
 40
1.5522320485251011
 50
272.6785078042133819
 51
276.1547084180065212
  0
ARC
  5
1645
  8
0
 10
360.0560536528411149
 20
17.7294364173591106
 30
0.0
 40
1.1193336675367811
 50
276.1547084180065212
 51
281.4940406293708861
  0
ARC
  5
1646
  8
0
 10
360.1734502455225879
 20
17.1521063712769113
 30
0.0
 40
0.5301885732836835
 50
281.4940406293708861
 51
287.8280825467505792
  0
ARC
  5
1647
  8
0
 10
360.2461853553746778
 20
16.9259439355653001
 30
0.0
 40
0.2926178605849092
 50
287.8280825467505792
 51
296.3657011080989037
  0
ARC
  5
1648
  8
0
 10
360.330661160987006
 20
16.7555124306193193
 30
0.0
 40
0.1023994082412942
 50
296.3657011080989037
 51
311.0303979557418188
  0
ARC
  5
1649
  8
0
 10
360.3688369445432045
 20
16.7116432435578517
 30
0.0
 40
0.04424533681401
 50
311.0303979557415914
 51
331.4643971600477244
  0
ARC
  5
164A
  8
0
 10
360.4990283885862823
 20
16.7011941109754503
 30
0.0
 40
0.0294750017813292
 50
324.6299140008349013
 51
35.3700859991650773
  0
ARC
  5
164B
  8
0
 10
360.387747501538513
 20
16.7011941109754503
 30
0.0
 40
0.0226408970826232
 50
331.8341595272066797
 51
28.1658404727933309
  0
ARC
  5
164C
  8
0
 10
360.0391166850405966
 20
17.1934320847827884
 30
0.0
 40
0.4420633998123524
 50
275.783619611953327
 51
291.6890725562410012
  0
ARC
  5
164D
  8
0
 10
360.0447122566072267
 20
17.2185109947023385
 30
0.0
 40
0.475585726205812
 50
276.3524400817487958
 51
292.5166023488606015
  0
ARC
  5
164E
  8
0
 10
360.0830179450015862
 20
17.1582467137513106
 30
0.0
 40
0.4213861532934243
 50
282.2708955499875856
 51
294.3026802096190977
  0
ARC
  5
164F
  8
0
 10
360.0873308117990064
 20
17.2192943771639406
 30
0.0
 40
0.4960825014275182
 50
283.2238872515118828
 51
291.8005178409416089
  0
ARC
  5
1650
  8
0
 10
360.0118797230297218
 20
17.4282631751757116
 30
0.0
 40
0.7368549140933091
 50
274.290471605408527
 51
282.5966394560537083
  0
ARC
  5
1651
  8
0
 10
360.0133290665979189
 20
17.5014093535008186
 30
0.0
 40
0.8239988718670135
 50
273.7350988390517728
 51
283.1516603571341761
  0
ARC
  5
1652
  8
0
 10
360.1967739650992257
 20
16.8816213181172188
 30
0.0
 40
0.1560877366269886
 50
298.6301760011568831
 51
311.6636351509887959
  0
ARC
  5
1653
  8
0
 10
360.2112750032154054
 20
16.9046189040584913
 30
0.0
 40
0.1917776553711936
 50
297.4932336744918189
 51
309.2186902249816853
  0
LINE
  5
1654
  8
0
 10
360.2998079800676123
 20
16.7344995897248197
 30
0.0
 11
360.271564059567595
 21
16.7446183134248301
 31
0.0
  0
LINE
  5
1655
  8
0
 10
360.271564059567595
 20
16.7446183134248301
 30
0.0
 11
360.271564059567595
 21
16.7713429570843502
 31
0.0
  0
LINE
  5
1656
  8
0
 10
360.2008130306675753
 20
16.7363661897248193
 30
0.0
 11
360.1725768509675731
 21
16.7464876913248197
 31
0.0
  0
LINE
  5
1657
  8
0
 10
360.1725768509675731
 20
16.7464876913248197
 30
0.0
 11
360.1725774645676097
 21
16.7091446868248212
 31
0.0
  0
LINE
  5
1658
  8
0
 10
360.1725774645676097
 20
16.7091446868248212
 30
0.0
 11
360.2008130306675753
 21
16.6990229727248192
 31
0.0
  0
LINE
  5
1659
  8
0
 10
360.2008130306675753
 20
16.6990229727248192
 30
0.0
 11
360.2008130306675753
 21
16.7363661897248193
 31
0.0
  0
LINE
  5
165A
  8
0
 10
360.0670073273676053
 20
16.6791607383248213
 30
0.0
 11
360.0670024292888911
 21
16.7308141806048383
 31
0.0
  0
ARC
  5
165B
  8
0
 10
360.2288233877509924
 20
16.8664258139948089
 30
0.0
 40
0.1657342026567511
 50
296.531886964750413
 51
315.8105119577331834
  0
ARC
  5
165C
  8
0
 10
360.0990653054843733
 20
17.1263179497273512
 30
0.0
 40
0.4562184227602379
 50
280.3158861450118025
 51
296.531886964750413
  0
ARC
  5
165D
  8
0
 10
360.0093717479060729
 20
17.5300359892475193
 30
0.0
 40
0.8696186518810657
 50
274.1330866190461961
 51
281.3666892300511222
  0
ARC
  5
165E
  8
0
 10
360.3027305671560043
 20
16.7836903794013601
 30
0.0
 40
0.1106553333583862
 50
308.7161388779628055
 51
328.076510509321281
  0
ARC
  5
165F
  8
0
 10
360.2261681403230114
 20
16.8792007632866792
 30
0.0
 40
0.2330646411437352
 50
294.1341163265636283
 51
308.7161388779628055
  0
ARC
  5
1660
  8
0
 10
360.1198422619654025
 20
17.1091228836965605
 30
0.0
 40
0.4863727442944668
 50
285.0866330638622799
 51
294.4902189100503165
  0
ARC
  5
1661
  8
0
 10
360.0370833196097919
 20
17.4139081940038416
 30
0.0
 40
0.8021937789082267
 50
277.9123670314975243
 51
285.1278608061969067
  0
ARC
  5
1662
  8
0
 10
360.0045774669029015
 20
17.632595253053001
 30
0.0
 40
1.0232757283720531
 50
273.964837347082323
 51
278.0295198083233004
  0
ARC
  5
1663
  8
0
 10
360.3144844262329229
 20
16.7779782425965216
 30
0.0
 40
0.1019787031533943
 50
313.6223884228650718
 51
326.8802097533460937
  0
ARC
  5
1664
  8
0
 10
360.2698034968315142
 20
16.8244880287722296
 30
0.0
 40
0.1664729282551852
 50
303.4989477623503831
 51
313.7109835711660821
  0
ARC
  5
1665
  8
0
 10
360.2022382835035046
 20
16.9285473633349284
 30
0.0
 40
0.2905403377597151
 50
292.9939109862662008
 51
303.2839466448779149
  0
ARC
  5
1666
  8
0
 10
360.1189645815684912
 20
17.1221682469300092
 30
0.0
 40
0.5013078637506854
 50
285.4891245641184128
 51
293.1107797447659209
  0
ARC
  5
1667
  8
0
 10
360.0494839359091088
 20
17.3685039929183489
 30
0.0
 40
0.7572530741576293
 50
279.5728566779288826
 51
285.5777923582015774
  0
ARC
  5
1668
  8
0
 10
360.0125239804053763
 20
17.5778553567202707
 30
0.0
 40
0.9698370758808303
 50
275.702693781124708
 51
279.6691424599642914
  0
ARC
  5
1669
  8
0
 10
360.000961793972408
 20
17.6860160762855116
 30
0.0
 40
1.0786116574569351
 50
273.5944672146977723
 51
275.7429272656174817
  0
LINE
  5
166A
  8
0
 10
360.8237789808675871
 20
12.4177296035248208
 30
0.0
 11
360.8237789808675871
 21
17.7248162177248183
 31
0.0
  0
ARC
  5
166B
  8
0
 10
359.9970073273676121
 20
14.5265003486531494
 30
0.0
 40
2.2942544215716709
 50
85.4285626484822984
 51
94.5714373515177016
  0
ARC
  5
166C
  8
0
 10
359.9970073273676121
 20
14.9941552800317304
 30
0.0
 40
1.800944715043179
 50
87.2892919073719185
 51
92.7107080926313358
  0
ARC
  5
166D
  8
0
 10
359.9970073273676121
 20
17.4817577522764509
 30
0.0
 40
0.7332772247135267
 50
263.213064146421118
 51
276.7869358535758124
  0
ARC
  5
166E
  8
0
 10
359.9970073273676121
 20
17.5383642409349001
 30
0.0
 40
0.7988438396371491
 50
262.7852555168474851
 51
277.2147444831524012
  0
ARC
  5
166F
  8
0
 10
359.9970073273676121
 20
17.6805104420364714
 30
0.0
 40
1.0205939996116471
 50
265.7834305874484926
 51
274.2165694125513937
  0
ARC
  5
1670
  8
0
 10
359.9970073273676121
 20
18.4086660863113885
 30
0.0
 40
1.8013773748865629
 50
267.2899434588239842
 51
272.7100565411760158
  0
ARC
  5
1671
  8
0
 10
359.9973074191570959
 20
17.7578414206961099
 30
0.0
 40
1.150562470693641
 50
266.4183229066405829
 51
269.6323749881007075
  0
ARC
  5
1672
  8
0
 10
359.9967072355781283
 20
17.7578414206961099
 30
0.0
 40
1.150562470693641
 50
270.3676250118992925
 51
273.5816770933594171
  0
ARC
  5
1673
  8
0
 10
359.9970073273676121
 20
17.7396637365058609
 30
0.0
 40
1.130611403281035
 50
266.0276193306818868
 51
273.9723806693179995
  0
ARC
  5
1674
  8
0
 10
359.9970073273676121
 20
18.8759252800128614
 30
0.0
 40
2.2942917092880331
 50
265.428637103305789
 51
274.5713628966940973
  0
LINE
  5
1676
  8
0
 10
359.0604356833356974
 20
12.3848755744080208
 30
0.0
 11
360.9335789713995268
 21
12.3848755744080208
 31
0.0
  0
LINE
  5
185B
  8
0
 10
360.8216602392741947
 20
18.0784201090909811
 30
0.0
 11
359.1723544154609726
 21
18.0784201090909811
 31
0.0
  0
ENDSEC
  0
EOF
