  0
SECTION
  2
HEADER
  9
$ACADVER
  1
AC1009
  9
$INSBASE
 10
161.2480769172616988
 20
-1.1208921532648859
 30
0.0
  9
$EXTMIN
 10
160.0732889285550016
 20
-11.3056154591242493
 30
-0.0000000000112498
  9
$EXTMAX
 10
164.5542936884430958
 20
0.0437250833530598
 30
0.0000000000002956
  9
$LIMMIN
 10
0.0
 20
0.0
  9
$LIMMAX
 10
11.6929133858000007
 20
8.2677165353999982
  9
$ORTHOMODE
 70
     0
  9
$REGENMODE
 70
     1
  9
$FILLMODE
 70
     1
  9
$QTEXTMODE
 70
     0
  9
$MIRRTEXT
 70
     0
  9
$DRAGMODE
 70
     2
  9
$LTSCALE
 40
0.6431102362
  9
$OSMODE
 70
  4095
  9
$ATTMODE
 70
     1
  9
$TEXTSIZE
 40
0.2
  9
$TRACEWID
 40
0.05
  9
$TEXTSTYLE
  7
STANDARD
  9
$CLAYER
  8
0
  9
$CELTYPE
  6
BYLAYER
  9
$CECOLOR
 62
   256
  9
$DIMSCALE
 40
1.0
  9
$DIMASZ
 40
0.1875
  9
$DIMEXO
 40
0.0625
  9
$DIMDLI
 40
0.4443307087
  9
$DIMRND
 40
0.0
  9
$DIMDLE
 40
0.0
  9
$DIMEXE
 40
0.125
  9
$DIMTP
 40
0.01
  9
$DIMTM
 40
0.01
  9
$DIMTXT
 40
0.15625
  9
$DIMCEN
 40
0.1052362205
  9
$DIMTSZ
 40
0.0
  9
$DIMTOL
 70
     1
  9
$DIMLIM
 70
     0
  9
$DIMTIH
 70
     1
  9
$DIMTOH
 70
     1
  9
$DIMSE1
 70
     0
  9
$DIMSE2
 70
     0
  9
$DIMTAD
 70
     0
  9
$DIMZIN
 70
     0
  9
$DIMBLK
  1

  9
$DIMASO
 70
     1
  9
$DIMSHO
 70
     1
  9
$DIMPOST
  1
\X
  9
$DIMAPOST
  1

  9
$DIMALT
 70
     1
  9
$DIMALTD
 70
     2
  9
$DIMALTF
 40
25.3999999999999986
  9
$DIMLFAC
 40
1.0
  9
$DIMTOFL
 70
     0
  9
$DIMTVP
 40
0.0
  9
$DIMTIX
 70
     0
  9
$DIMSOXD
 70
     0
  9
$DIMSAH
 70
     0
  9
$DIMBLK1
  1

  9
$DIMBLK2
  1

  9
$DIMSTYLE
  2
STANDARD
  9
$DIMCLRD
 70
     0
  9
$DIMCLRE
 70
     0
  9
$DIMCLRT
 70
     0
  9
$DIMTFAC
 40
1.0
  9
$DIMGAP
 40
0.09
  9
$LUNITS
 70
     2
  9
$LUPREC
 70
     4
  9
$SKETCHINC
 40
0.1
  9
$FILLETRAD
 40
0.0
  9
$AUNITS
 70
     0
  9
$AUPREC
 70
     0
  9
$MENU
  1
.
  9
$ELEVATION
 40
0.0
  9
$PELEVATION
 40
0.0
  9
$THICKNESS
 40
0.0
  9
$LIMCHECK
 70
     0
  9
$BLIPMODE
 70
     0
  9
$CHAMFERA
 40
0.0
  9
$CHAMFERB
 40
0.0
  9
$SKPOLY
 70
     0
  9
$TDCREATE
 40
2458018.639108797069639
  9
$TDUPDATE
 40
2460153.7142476849257946
  9
$TDINDWG
 40
0.3005898148
  9
$TDUSRTIMER
 40
0.3005898148
  9
$USRTIMER
 70
     1
  9
$ANGBASE
 50
0.0
  9
$ANGDIR
 70
     0
  9
$PDMODE
 70
     0
  9
$PDSIZE
 40
0.3125
  9
$PLINEWID
 40
0.0
  9
$COORDS
 70
     1
  9
$SPLFRAME
 70
     0
  9
$SPLINETYPE
 70
     6
  9
$SPLINESEGS
 70
     8
  9
$ATTDIA
 70
     1
  9
$ATTREQ
 70
     1
  9
$HANDLING
 70
     1
  9
$HANDSEED
  5
9123
  9
$SURFTAB1
 70
     6
  9
$SURFTAB2
 70
     6
  9
$SURFTYPE
 70
     6
  9
$SURFU
 70
     6
  9
$SURFV
 70
     6
  9
$UCSNAME
  2

  9
$UCSORG
 10
0.0
 20
0.0
 30
0.0
  9
$UCSXDIR
 10
1.0
 20
0.0
 30
0.0
  9
$UCSYDIR
 10
0.0
 20
1.0
 30
0.0
  9
$PUCSNAME
  2

  9
$PUCSORG
 10
0.0
 20
0.0
 30
0.0
  9
$PUCSXDIR
 10
1.0
 20
0.0
 30
0.0
  9
$PUCSYDIR
 10
0.0
 20
1.0
 30
0.0
  9
$USERI1
 70
     0
  9
$USERI2
 70
     0
  9
$USERI3
 70
     0
  9
$USERI4
 70
     0
  9
$USERI5
 70
     0
  9
$USERR1
 40
0.0
  9
$USERR2
 40
0.0
  9
$USERR3
 40
0.0
  9
$USERR4
 40
0.0
  9
$USERR5
 40
0.0
  9
$WORLDVIEW
 70
     1
  9
$SHADEDGE
 70
     3
  9
$SHADEDIF
 70
    70
  9
$TILEMODE
 70
     1
  9
$MAXACTVP
 70
    64
  9
$PLIMCHECK
 70
     0
  9
$PEXTMIN
 10
1.0000000000000000E+20
 20
1.0000000000000000E+20
 30
1.0000000000000000E+20
  9
$PEXTMAX
 10
-1.0000000000000000E+20
 20
-1.0000000000000000E+20
 30
-1.0000000000000000E+20
  9
$PLIMMIN
 10
0.0
 20
0.0
  9
$PLIMMAX
 10
12.0
 20
9.0
  9
$UNITMODE
 70
     0
  9
$VISRETAIN
 70
     1
  9
$PLINEGEN
 70
     0
  9
$PSLTSCALE
 70
     1
  0
ENDSEC
  0
SECTION
  2
TABLES
  0
TABLE
  2
VPORT
 70
     1
  0
VPORT
  2
*ACTIVE
 70
     0
 10
0.0
 20
0.0
 11
1.0
 21
1.0
 12
66.9895303107613245
 22
-12.6672771991084296
 13
0.0
 23
0.0
 14
1.0
 24
1.0
 15
0.0
 25
0.0
 16
-0.0000000000000142
 26
0.0
 36
39.3282560748450578
 17
95.3242609977377526
 27
7.0363320112228394
 37
0.0
 40
11.4365313789111998
 41
1.4307692307692299
 42
50.0
 43
0.0
 44
0.0
 50
0.0
 51
0.0
 71
     0
 72
   100
 73
     1
 74
     1
 75
     0
 76
     0
 77
     0
 78
     0
  0
ENDTAB
  0
TABLE
  2
LTYPE
 70
     2
  0
LTYPE
  2
CONTINUOUS
 70
     0
  3
Solid line
 72
    65
 73
     0
 40
0.0
  0
LTYPE
  2
PHANTOM2
 70
     0
  3
___ _ _ ___ _ _ ___ _ _ ___ _ _
 72
    65
 73
     6
 40
1.25
 49
0.625
 49
-0.125
 49
0.125
 49
-0.125
 49
0.125
 49
-0.125
  0
ENDTAB
  0
TABLE
  2
LAYER
 70
     2
  0
LAYER
  2
0
 70
     0
 62
   255
  6
CONTINUOUS
  0
LAYER
  2
DEFPOINTS
 70
     0
 62
     7
  6
CONTINUOUS
  0
ENDTAB
  0
TABLE
  2
STYLE
 70
     1
  0
STYLE
  2
STANDARD
 70
     0
 40
0.0
 41
0.8
 50
0.0
 71
     0
 42
0.2
  3
txt
  4

  0
ENDTAB
  0
TABLE
  2
VIEW
 70
     0
  0
ENDTAB
  0
TABLE
  2
UCS
 70
     0
  0
ENDTAB
  0
TABLE
  2
APPID
 70
    10
  0
APPID
  2
ACAD
 70
     0
  0
APPID
  2
ACAD_MLEADERVER
 70
     0
  0
APPID
  2
ACAD_DSTYLE_DIMJAG
 70
     0
  0
APPID
  2
ACAD_DSTYLE_DIMTALN
 70
     0
  0
APPID
  2
ACAD_NAV_VCDISPLAY
 70
     0
  0
APPID
  2
ACAD_EXEMPT_FROM_CAD_STANDARDS
 70
     0
  0
APPID
  2
ACAECLAYERSTANDARD
 70
     0
  0
APPID
  2
ACCMTRANSPARENCY
 70
     0
  0
APPID
  2
DCO15
 70
     0
  0
APPID
  2
ACDBATTR
 70
     0
  0
ENDTAB
  0
TABLE
  2
DIMSTYLE
 70
     1
  0
DIMSTYLE
  2
STANDARD
 70
     0
  3

  4

  5

  6

  7

 40
1.0
 41
0.1875
 42
0.0625
 43
0.38
 44
0.125
 45
0.0
 46
0.0
 47
0.01
 48
0.01
140
0.15625
141
0.09
142
0.0
143
25.3999999999999986
144
1.0
145
0.0
146
1.0
147
0.09
 71
     1
 72
     0
 73
     1
 74
     1
 75
     0
 76
     0
 77
     0
 78
     4
170
     0
171
     2
172
     0
173
     0
174
     0
175
     0
176
     0
177
     0
178
     0
  0
ENDTAB
  0
ENDSEC
  0
SECTION
  2
BLOCKS
  0
BLOCK
  8
0
  2
$MODEL_SPACE
 70
     0
 10
0.0
 20
0.0
 30
0.0
  3
$MODEL_SPACE
  1

  0
ENDBLK
  5
21
  8
0
  0
BLOCK
 67
     1
  8
0
  2
$PAPER_SPACE
 70
     0
 10
0.0
 20
0.0
 30
0.0
  3
$PAPER_SPACE
  1

  0
ENDBLK
  5
1D
 67
     1
  8
0
  0
ENDSEC
  0
SECTION
  2
ENTITIES
  0
ATTDEF
  5
7A6E
  8
DEFPOINTS
 10
161.2430228016314118
 20
-1.1226571631318061
 30
0.0
 40
0.001
  1
K-EX28268T-4
  3

  2
MODELNUMBER
 70
     0
1001
ACDBATTR
1070
     0
1070
     1
  0
ATTDEF
  5
7A6F
  8
DEFPOINTS
 10
161.2430228016314118
 20
-1.1243238297984719
 30
0.0
 40
0.001
  1
COMPONENTS
  3

  2
TRADENAME
 70
     0
1001
ACDBATTR
1070
     0
1070
     1
  0
ATTDEF
  5
7A70
  8
DEFPOINTS
 10
161.2430228016314118
 20
-1.125990496465137
 30
0.0
 40
0.001
  1
KITCHEN SINK FAUCET
  3

  2
PRODUCT
 70
     0
1001
ACDBATTR
1070
     0
1070
     1
  0
ARC
  5
9077
  8
0
 10
161.2480769172616988
 20
-1.1208921532648859
 30
0.0
 40
1.1640473039000021
 50
303.9415678646453784
 51
236.0557150966085942
  0
ARC
  5
9078
  8
0
 10
161.2481103544706968
 20
-10.6550813543940208
 30
0.0
 40
0.6495321990984415
 50
269.9970504757757794
 51
2.4947683801724381
  0
ARC
  5
9079
  8
0
 10
161.2481355727998107
 20
-10.6550813231244792
 30
0.0
 40
0.6495322321557498
 50
177.627194156221492
 51
269.9948259460915096
  0
ARC
  5
907A
  8
0
 10
161.248054020211697
 20
-10.5908820443672003
 30
0.0
 40
0.6499653720310739
 50
180.0019619911419966
 51
359.9980380088583161
  0
LINE
  5
907B
  8
0
 10
160.5980886485617134
 20
-10.5909043012648798
 30
0.0
 11
160.5980886485617134
 21
-1.352470018597276
 31
0.0
  0
LINE
  5
907C
  8
0
 10
161.898019391861709
 20
-10.5909043012648798
 30
0.0
 11
161.898019391861709
 21
-1.3525985011733641
 31
0.0
  0
LINE
  5
907D
  8
0
 10
163.958256917261707
 20
-2.5606385057364558
 30
0.0
 11
163.958256917261707
 21
-0.9066372899357588
 31
0.0
  0
LINE
  5
907E
  8
0
 10
164.0408474714926967
 20
-0.8889519223807518
 30
0.0
 11
164.0408474714926967
 21
-2.586791311141023
 31
0.0
  0
ARC
  5
907F
  8
0
 10
164.0508474714926876
 20
-0.8889519223807518
 30
0.0
 40
0.01
 50
89.7000173662063816
 51
180.0
  0
LINE
  5
9080
  8
0
 10
164.5130474714927118
 20
-0.8913195206172161
 30
0.0
 11
164.5130474714927118
 21
-1.580048763233882
 31
0.0
  0
LINE
  5
9081
  8
0
 10
164.5130474714927118
 20
-1.86295240913196
 30
0.0
 11
164.5130474714927118
 21
-2.5844460582125559
 31
0.0
  0
ARC
  5
9082
  8
0
 10
164.5030474714926925
 20
-0.8913195206172161
 30
0.0
 40
0.01
 50
0.0
 51
89.7000173662063816
  0
ARC
  5
9083
  8
0
 10
164.5259894714926929
 20
-1.6377411857172171
 30
0.0
 40
0.025
 50
0.0
 51
89.6999998816957458
  0
ARC
  5
9084
  8
0
 10
163.9679518889562928
 20
-0.9181884176287837
 30
0.0
 40
0.0098307949683827
 50
36.0552878274201518
 51
170.4647584136847058
  0
LINE
  5
9085
  8
0
 10
163.9758995895618057
 20
-0.9124023494649797
 30
0.0
 11
164.023240064461703
 21
-0.97664054444785
 31
0.0
  0
ARC
  5
9086
  8
0
 10
163.9327979856163893
 20
-0.9068273856474603
 30
0.0
 40
0.0254596413348599
 50
0.4278058376072007
 51
88.9671390014541146
  0
LINE
  5
9087
  8
0
 10
164.0508998281000004
 20
-0.8789520594424082
 30
0.0
 11
164.5030998281000905
 21
-0.8813196576788725
 31
0.0
  0
LINE
  5
9088
  8
0
 10
161.9599464010576071
 20
-0.8813718809648811
 30
0.0
 11
163.9332569172617013
 21
-0.8813718809648847
 31
0.0
  0
LINE
  5
9089
  8
0
 10
164.5261203706400863
 20
-1.612741528411302
 30
0.0
 11
164.1016830668015132
 21
-1.615067503250244
 31
0.0
  0
LINE
  5
908A
  8
0
 10
164.5509894684616938
 20
-1.6377288752179839
 30
0.0
 11
164.5509894684616938
 21
-1.8380367036117491
 31
0.0
  0
ARC
  5
908B
  8
0
 10
164.5530956702486947
 20
-1.578580501890833
 30
0.0
 40
0.0400751046783006
 50
182.0996578992065906
 51
244.8915897453115917
  0
LINE
  5
908C
  8
0
 10
164.0718474684616979
 20
-1.645067052781765
 30
0.0
 11
164.0718474684616979
 21
-1.830698526048006
 31
0.0
  0
ARC
  5
908D
  8
0
 10
164.101847468461699
 20
-1.645067052781765
 30
0.0
 40
0.03
 50
90.3139856139905106
 51
180.0
  0
ARC
  5
908E
  8
0
 10
164.5259894714926929
 20
-1.8380243931125539
 30
0.0
 40
0.025
 50
270.3000001183042968
 51
0.0
  0
LINE
  5
908F
  8
0
 10
164.5261203706400863
 20
-1.8630240504184701
 30
0.0
 11
164.1016830668015132
 21
-1.860698075579527
 31
0.0
  0
ARC
  5
9090
  8
0
 10
164.5530956702486947
 20
-1.8971850769389389
 30
0.0
 40
0.0400751046783006
 50
115.108410254688394
 51
177.9003421007932104
  0
ARC
  5
9091
  8
0
 10
164.101847468461699
 20
-1.830698526048006
 30
0.0
 40
0.03
 50
180.0
 51
269.6860143860095036
  0
ARC
  5
9092
  8
0
 10
164.0508474714926876
 20
-2.5868136564490198
 30
0.0
 40
0.01
 50
180.0
 51
270.2999826337936042
  0
ARC
  5
9093
  8
0
 10
164.5030474714926925
 20
-2.5844460582125559
 30
0.0
 40
0.01
 50
270.2999826337936042
 51
0.0
  0
ARC
  5
9094
  8
0
 10
163.9679518889562928
 20
-2.5575771612009879
 30
0.0
 40
0.0098307949683827
 50
180.2107991179667863
 51
323.9447121725797842
  0
LINE
  5
9095
  8
0
 10
163.9758995895618057
 20
-2.5633632293647919
 30
0.0
 11
164.0408474714926967
 21
-2.4752328354044328
 31
0.0
  0
ARC
  5
9096
  8
0
 10
163.9327979856163893
 20
-2.5689381931823121
 30
0.0
 40
0.0254596413348599
 50
271.0328609985459138
 51
359.5721941623928046
  0
LINE
  5
9097
  8
0
 10
164.0508998281000004
 20
-2.5968135193873638
 30
0.0
 11
164.5030998281000905
 21
-2.594445921150899
 31
0.0
  0
LINE
  5
9098
  8
0
 10
163.9332569172617013
 20
-2.5943936978648869
 30
0.0
 11
161.898019391861709
 21
-2.5943936978648909
 31
0.0
  0
LINE
  5
9099
  8
0
 10
164.023240064461703
 20
-0.9766405444478571
 30
0.0
 11
164.023240064461703
 21
-1.026304433564881
 31
0.0
  0
ARC
  5
909A
  8
0
 10
164.3009406197247984
 20
-1.0010895900304779
 30
0.0
 40
0.278842942761466
 50
185.1881545540759078
 51
201.1310060456077053
  0
LINE
  5
909B
  8
0
 10
163.975899589561692
 20
-0.9124023494648839
 30
0.0
 11
163.975899589561692
 21
-2.5633632293648878
 31
0.0
  0
ARC
  5
909C
  8
0
 10
161.2480769172616988
 20
-1.1208718809648841
 30
0.0
 40
0.6900162656071355
 50
340.377118246544228
 51
199.6115557511054988
  0
ARC
  5
909D
  8
0
 10
161.9601546379618071
 20
-0.7833552473644616
 30
0.0
 40
0.0980168548004241
 50
206.3062986276545985
 51
269.8782749686390048
  0
ENDSEC
  0
EOF
