  0
SECTION
  2
HEADER
  9
$ACADVER
  1
AC1009
  9
$INSBASE
 10
200.4486997267686093
 20
13.4597192004380801
 30
0.0
  9
$EXTMIN
 10
199.2722344762055968
 20
3.1258490168481572
 30
-0.0000000000000058
  9
$EXTMAX
 10
203.7648992434864113
 20
14.6246352707835197
 30
0.0000000000000104
  9
$LIMMIN
 10
0.0
 20
0.0
  9
$LIMMAX
 10
11.6929133858000007
 20
8.2677165353999982
  9
$ORTHOMODE
 70
     0
  9
$REGENMODE
 70
     1
  9
$FILLMODE
 70
     1
  9
$QTEXTMODE
 70
     0
  9
$MIRRTEXT
 70
     0
  9
$DRAGMODE
 70
     2
  9
$LTSCALE
 40
0.6431102362
  9
$OSMODE
 70
  4095
  9
$ATTMODE
 70
     1
  9
$TEXTSIZE
 40
0.2
  9
$TRACEWID
 40
0.05
  9
$TEXTSTYLE
  7
STANDARD
  9
$CLAYER
  8
0
  9
$CELTYPE
  6
BYLAYER
  9
$CECOLOR
 62
   256
  9
$DIMSCALE
 40
1.0
  9
$DIMASZ
 40
0.1875
  9
$DIMEXO
 40
0.0625
  9
$DIMDLI
 40
0.4443307087
  9
$DIMRND
 40
0.0
  9
$DIMDLE
 40
0.0
  9
$DIMEXE
 40
0.125
  9
$DIMTP
 40
0.01
  9
$DIMTM
 40
0.01
  9
$DIMTXT
 40
0.15625
  9
$DIMCEN
 40
0.1052362205
  9
$DIMTSZ
 40
0.0
  9
$DIMTOL
 70
     1
  9
$DIMLIM
 70
     0
  9
$DIMTIH
 70
     1
  9
$DIMTOH
 70
     1
  9
$DIMSE1
 70
     0
  9
$DIMSE2
 70
     0
  9
$DIMTAD
 70
     0
  9
$DIMZIN
 70
     0
  9
$DIMBLK
  1

  9
$DIMASO
 70
     1
  9
$DIMSHO
 70
     1
  9
$DIMPOST
  1
\X
  9
$DIMAPOST
  1

  9
$DIMALT
 70
     1
  9
$DIMALTD
 70
     2
  9
$DIMALTF
 40
25.3999999999999986
  9
$DIMLFAC
 40
1.0
  9
$DIMTOFL
 70
     0
  9
$DIMTVP
 40
0.0
  9
$DIMTIX
 70
     0
  9
$DIMSOXD
 70
     0
  9
$DIMSAH
 70
     0
  9
$DIMBLK1
  1

  9
$DIMBLK2
  1

  9
$DIMSTYLE
  2
STANDARD
  9
$DIMCLRD
 70
     0
  9
$DIMCLRE
 70
     0
  9
$DIMCLRT
 70
     0
  9
$DIMTFAC
 40
1.0
  9
$DIMGAP
 40
0.09
  9
$LUNITS
 70
     2
  9
$LUPREC
 70
     4
  9
$SKETCHINC
 40
0.1
  9
$FILLETRAD
 40
0.0
  9
$AUNITS
 70
     0
  9
$AUPREC
 70
     0
  9
$MENU
  1
.
  9
$ELEVATION
 40
0.0
  9
$PELEVATION
 40
0.0
  9
$THICKNESS
 40
0.0
  9
$LIMCHECK
 70
     0
  9
$BLIPMODE
 70
     0
  9
$CHAMFERA
 40
0.0
  9
$CHAMFERB
 40
0.0
  9
$SKPOLY
 70
     0
  9
$TDCREATE
 40
2458018.639108797069639
  9
$TDUPDATE
 40
2460258.5482754628174007
  9
$TDINDWG
 40
0.3109023148
  9
$TDUSRTIMER
 40
0.3109023148
  9
$USRTIMER
 70
     1
  9
$ANGBASE
 50
0.0
  9
$ANGDIR
 70
     0
  9
$PDMODE
 70
     0
  9
$PDSIZE
 40
0.3125
  9
$PLINEWID
 40
0.0
  9
$COORDS
 70
     1
  9
$SPLFRAME
 70
     0
  9
$SPLINETYPE
 70
     6
  9
$SPLINESEGS
 70
     8
  9
$ATTDIA
 70
     1
  9
$ATTREQ
 70
     1
  9
$HANDLING
 70
     1
  9
$HANDSEED
  5
9914
  9
$SURFTAB1
 70
     6
  9
$SURFTAB2
 70
     6
  9
$SURFTYPE
 70
     6
  9
$SURFU
 70
     6
  9
$SURFV
 70
     6
  9
$UCSNAME
  2

  9
$UCSORG
 10
0.0
 20
0.0
 30
0.0
  9
$UCSXDIR
 10
1.0
 20
0.0
 30
0.0
  9
$UCSYDIR
 10
0.0
 20
1.0
 30
0.0
  9
$PUCSNAME
  2

  9
$PUCSORG
 10
0.0
 20
0.0
 30
0.0
  9
$PUCSXDIR
 10
1.0
 20
0.0
 30
0.0
  9
$PUCSYDIR
 10
0.0
 20
1.0
 30
0.0
  9
$USERI1
 70
     0
  9
$USERI2
 70
     0
  9
$USERI3
 70
     0
  9
$USERI4
 70
     0
  9
$USERI5
 70
     0
  9
$USERR1
 40
0.0
  9
$USERR2
 40
0.0
  9
$USERR3
 40
0.0
  9
$USERR4
 40
0.0
  9
$USERR5
 40
0.0
  9
$WORLDVIEW
 70
     1
  9
$SHADEDGE
 70
     3
  9
$SHADEDIF
 70
    70
  9
$TILEMODE
 70
     1
  9
$MAXACTVP
 70
    64
  9
$PLIMCHECK
 70
     0
  9
$PEXTMIN
 10
1.0000000000000000E+20
 20
1.0000000000000000E+20
 30
1.0000000000000000E+20
  9
$PEXTMAX
 10
-1.0000000000000000E+20
 20
-1.0000000000000000E+20
 30
-1.0000000000000000E+20
  9
$PLIMMIN
 10
0.0
 20
0.0
  9
$PLIMMAX
 10
12.0
 20
9.0
  9
$UNITMODE
 70
     0
  9
$VISRETAIN
 70
     1
  9
$PLINEGEN
 70
     0
  9
$PSLTSCALE
 70
     1
  0
ENDSEC
  0
SECTION
  2
TABLES
  0
TABLE
  2
VPORT
 70
     1
  0
VPORT
  2
*ACTIVE
 70
     0
 10
0.0
 20
0.0
 11
1.0
 21
1.0
 12
106.1943058621081946
 22
1.838910132593
 13
0.0
 23
0.0
 14
1.0
 24
1.0
 15
0.0
 25
0.0
 16
-0.0000000000000142
 26
0.0
 36
39.3282560748450578
 17
95.3242609977377526
 27
7.0363320112228394
 37
0.0
 40
11.5894468551490508
 41
2.498684210526315
 42
50.0
 43
0.0
 44
0.0
 50
0.0
 51
0.0
 71
     0
 72
   100
 73
     1
 74
     1
 75
     0
 76
     0
 77
     0
 78
     0
  0
ENDTAB
  0
TABLE
  2
LTYPE
 70
     3
  0
LTYPE
  2
CONTINUOUS
 70
     0
  3
Solid line
 72
    65
 73
     0
 40
0.0
  0
LTYPE
  2
PHANTOM2
 70
     0
  3
___ _ _ ___ _ _ ___ _ _ ___ _ _
 72
    65
 73
     6
 40
1.25
 49
0.625
 49
-0.125
 49
0.125
 49
-0.125
 49
0.125
 49
-0.125
  0
ENDTAB
  0
TABLE
  2
LAYER
 70
     2
  0
LAYER
  2
0
 70
     0
 62
   255
  6
CONTINUOUS
  0
LAYER
  2
DEFPOINTS
 70
     0
 62
     7
  6
CONTINUOUS
  0
ENDTAB
  0
TABLE
  2
STYLE
 70
     1
  0
STYLE
  2
STANDARD
 70
     0
 40
0.0
 41
0.8
 50
0.0
 71
     0
 42
0.2
  3
txt
  4

  0
ENDTAB
  0
TABLE
  2
VIEW
 70
     0
  0
ENDTAB
  0
TABLE
  2
UCS
 70
     0
  0
ENDTAB
  0
TABLE
  2
APPID
 70
    10
  0
APPID
  2
ACAD
 70
     0
  0
APPID
  2
ACAD_MLEADERVER
 70
     0
  0
APPID
  2
ACAD_DSTYLE_DIMJAG
 70
     0
  0
APPID
  2
ACAD_DSTYLE_DIMTALN
 70
     0
  0
APPID
  2
ACAD_NAV_VCDISPLAY
 70
     0
  0
APPID
  2
ACAD_EXEMPT_FROM_CAD_STANDARDS
 70
     0
  0
APPID
  2
ACAECLAYERSTANDARD
 70
     0
  0
APPID
  2
ACCMTRANSPARENCY
 70
     0
  0
APPID
  2
DCO15
 70
     0
  0
APPID
  2
ACDBATTR
 70
     0
  0
ENDTAB
  0
TABLE
  2
DIMSTYLE
 70
     2
  0
DIMSTYLE
  2
STANDARD
 70
     0
  3

  4

  5

  6

  7

 40
1.0
 41
0.1875
 42
0.0625
 43
0.38
 44
0.125
 45
0.0
 46
0.0
 47
0.01
 48
0.01
140
0.15625
141
0.09
142
0.0
143
25.3999999999999986
144
1.0
145
0.0
146
1.0
147
0.09
 71
     1
 72
     0
 73
     1
 74
     1
 75
     0
 76
     0
 77
     0
 78
     4
170
     0
171
     2
172
     0
173
     0
174
     0
175
     0
176
     0
177
     0
178
     0
  0
ENDTAB
  0
ENDSEC
  0
SECTION
  2
BLOCKS
  0
BLOCK
  8
0
  2
$MODEL_SPACE
 70
     0
 10
0.0
 20
0.0
 30
0.0
  3
$MODEL_SPACE
  1

  0
ENDBLK
  5
21
  8
0
  0
BLOCK
 67
     1
  8
0
  2
$PAPER_SPACE
 70
     0
 10
0.0
 20
0.0
 30
0.0
  3
$PAPER_SPACE
  1

  0
ENDBLK
  5
1D
 67
     1
  8
0
  0
BLOCK
  8
0
  2
_FILLED
 70
     0
 10
0.0
 20
0.0
 30
0.0
  3
_FILLED
  1

  0
SOLID
  5
92B9
  8
0
  6
BYBLOCK
 62
     0
 10
0.0
 20
0.0
 30
0.0
 11
-1.0
 21
0.1666666667
 31
0.0
 12
-1.0
 22
-0.1666666667
 32
0.0
 13
-1.0
 23
-0.1666666667
 33
0.0
  0
ENDBLK
  5
92BA
  8
0
  6
BYBLOCK
 62
     0
  0
ENDSEC
  0
SECTION
  2
ENTITIES
  0
ATTDEF
  5
7A6E
  8
DEFPOINTS
 10
200.444649816963107
 20
13.4569943001088692
 30
0.0
 40
0.001
  1
K-EX28269T-4
  3

  2
MODELNUMBER
 70
     0
1001
ACDBATTR
1070
     0
1070
     1
  0
ATTDEF
  5
7A6F
  8
DEFPOINTS
 10
200.444649816963107
 20
13.4553276334422005
 30
0.0
 40
0.001
  1
COMPONENTS
  3

  2
TRADENAME
 70
     0
1001
ACDBATTR
1070
     0
1070
     1
  0
ATTDEF
  5
7A70
  8
DEFPOINTS
 10
200.444649816963107
 20
13.4536609667755407
 30
0.0
 40
0.001
  1
KITCHEN SINK FAUCET
  3

  2
PRODUCT
 70
     0
1001
ACDBATTR
1070
     0
1070
     1
  0
ARC
  5
9752
  8
0
 10
200.4486997267686093
 20
13.4597192004380801
 30
0.0
 40
1.1640473039000021
 50
11.8742890437772797
 51
236.0557150966085942
  0
ARC
  5
9753
  8
0
 10
200.4487331639776073
 20
3.7764703718134132
 30
0.0
 40
0.6495321990984415
 50
269.9970504757757794
 51
2.4947683801724381
  0
ARC
  5
9754
  8
0
 10
200.4487583823068064
 20
3.776470403082949
 30
0.0
 40
0.6495322321557498
 50
177.627194156221293
 51
269.994825946089918
  0
ARC
  5
9755
  8
0
 10
200.4486768297186075
 20
3.8406696818402208
 30
0.0
 40
0.6499653720310739
 50
180.0019619911417976
 51
359.9980380088580887
  0
LINE
  5
9756
  8
0
 10
199.7987114580685954
 20
3.8406474249425422
 30
0.0
 11
199.7987114580685954
 21
13.2281413351056791
 31
0.0
  0
LINE
  5
9757
  8
0
 10
201.0986422013687047
 20
3.840647424942556
 30
0.0
 11
201.0986422013687047
 21
13.2280128525295897
 31
0.0
  0
LINE
  5
9758
  8
0
 10
203.1588797267687028
 20
12.01148306481163
 30
0.0
 11
203.1588797267687028
 21
13.6739740637672007
 31
0.0
  0
LINE
  5
9759
  8
0
 10
203.2414702809996072
 20
13.6916594313222095
 30
0.0
 11
203.2414702809996072
 21
11.9938200425619304
 31
0.0
  0
ARC
  5
975A
  8
0
 10
203.2514702809995981
 20
13.6916594313222095
 30
0.0
 40
0.01
 50
89.7000173662063816
 51
180.0
  0
LINE
  5
975B
  8
0
 10
203.7136702809995938
 20
13.6892918330857398
 30
0.0
 11
203.7136702809995938
 21
13.0005625904690802
 31
0.0
  0
LINE
  5
975C
  8
0
 10
203.7136702809995938
 20
12.7176589445709993
 30
0.0
 11
203.7136702809995938
 21
11.9961652954903997
 31
0.0
  0
ARC
  5
975D
  8
0
 10
203.7036702809996029
 20
13.6892918330857398
 30
0.0
 40
0.01
 50
0.0
 51
89.7000173662063816
  0
ARC
  5
975E
  8
0
 10
203.7266122809996034
 20
12.9428701679857401
 30
0.0
 40
0.025
 50
0.0
 51
89.6999998816957458
  0
ARC
  5
975F
  8
0
 10
203.1685746984632033
 20
13.6624229360741705
 30
0.0
 40
0.0098307949683827
 50
36.0552878274201731
 51
170.4647584136845069
  0
LINE
  5
9760
  8
0
 10
203.1765223990686877
 20
13.6682090042379691
 30
0.0
 11
203.2238628739686135
 21
13.6039708092551095
 31
0.0
  0
ARC
  5
9761
  8
0
 10
203.1334207951232997
 20
13.6737839680554902
 30
0.0
 40
0.0254596413348599
 50
0.4278058376072007
 51
88.9671390014541146
  0
LINE
  5
9762
  8
0
 10
203.2515226376069961
 20
13.7016592942605602
 30
0.0
 11
203.7037226376070009
 21
13.6992916960240798
 31
0.0
  0
LINE
  5
9763
  8
0
 10
201.2869583666812048
 20
13.6992394727380802
 30
0.0
 11
203.1338797267686118
 21
13.6992394727380802
 31
0.0
  0
LINE
  5
9764
  8
0
 10
203.7267431801469968
 20
12.9678698252916593
 30
0.0
 11
203.3023058763085089
 21
12.9655438504527094
 31
0.0
  0
LINE
  5
9765
  8
0
 10
203.7516122779686043
 20
12.9428824784849805
 30
0.0
 11
203.7516122779686043
 21
12.7425746500911998
 31
0.0
  0
ARC
  5
9766
  8
0
 10
203.7537184797556904
 20
13.0020308518121297
 30
0.0
 40
0.0400751046783006
 50
182.0996578992067043
 51
244.8915897453115917
  0
LINE
  5
9767
  8
0
 10
203.2724702779686083
 20
12.9355443009211992
 30
0.0
 11
203.2724702779686083
 21
12.7499128276549403
 31
0.0
  0
ARC
  5
9768
  8
0
 10
203.3024702779686947
 20
12.9355443009211992
 30
0.0
 40
0.03
 50
90.3139856139905106
 51
180.0
  0
ARC
  5
9769
  8
0
 10
203.7266122809996034
 20
12.7425869605904101
 30
0.0
 40
0.025
 50
270.3000001183042968
 51
0.0
  0
LINE
  5
976A
  8
0
 10
203.7267431801469968
 20
12.7175873032844802
 30
0.0
 11
203.3023058763085089
 21
12.7199132781234301
 31
0.0
  0
ARC
  5
976B
  8
0
 10
203.7537184797556904
 20
12.6834262767640205
 30
0.0
 40
0.0400751046783006
 50
115.108410254688394
 51
177.9003421007932104
  0
ARC
  5
976C
  8
0
 10
203.3024702779686947
 20
12.7499128276549403
 30
0.0
 40
0.03
 50
180.0
 51
269.6860143860095036
  0
ARC
  5
976D
  8
0
 10
203.2514702809995981
 20
11.99379769725393
 30
0.0
 40
0.01
 50
180.0
 51
270.2999826337936042
  0
ARC
  5
976E
  8
0
 10
203.7036702809996029
 20
11.9961652954903997
 30
0.0
 40
0.01
 50
270.2999826337936042
 51
0.0
  0
ARC
  5
976F
  8
0
 10
203.1685746984632033
 20
12.0230341925019708
 30
0.0
 40
0.0098307949683827
 50
189.5352415873969107
 51
323.9447121725797842
  0
LINE
  5
9770
  8
0
 10
203.1765223990686877
 20
12.0172481243381704
 30
0.0
 11
203.2414702809996072
 21
12.1053785182985294
 31
0.0
  0
ARC
  5
9771
  8
0
 10
203.1334207951232997
 20
12.0116731605206493
 30
0.0
 40
0.0254596413348599
 50
271.0328609985459138
 51
359.5721941623928046
  0
LINE
  5
9772
  8
0
 10
203.2515226376069961
 20
11.98379783431559
 30
0.0
 11
203.7037226376070009
 21
11.9861654325520597
 31
0.0
  0
LINE
  5
9773
  8
0
 10
203.1338797267686118
 20
11.98621765583807
 30
0.0
 11
201.0986422013687047
 21
11.98621765583807
 31
0.0
  0
LINE
  5
9774
  8
0
 10
203.2238628739686135
 20
13.6039708092551095
 30
0.0
 11
203.2238628739686135
 21
13.5543069201380799
 31
0.0
  0
ARC
  5
9775
  8
0
 10
203.5015634292317088
 20
13.5795217636724797
 30
0.0
 40
0.278842942761466
 50
185.1881545540757941
 51
201.1310060456077906
  0
LINE
  5
9776
  8
0
 10
203.1765223990686025
 20
13.6682090042380704
 30
0.0
 11
203.1765223990686025
 21
12.0172481243380709
 31
0.0
  0
ARC
  5
9777
  8
0
 10
200.4486997267686093
 20
13.4597394727380699
 30
0.0
 40
0.6900162656071355
 50
340.3771182465533229
 51
199.6115557511051861
  0
ARC
  5
9778
  8
0
 10
201.2869583666812048
 20
14.0143394727380795
 30
0.0
 40
0.3151
 50
213.4890056298615093
 51
270.0
  0
ENDSEC
  0
EOF
