  0
SECTION
  2
HEADER
  9
$ACADVER
  1
AC1009
  9
$INSBASE
 10
588.7033489987046551
 20
23.1222493126081794
 30
0.0
  9
$EXTMIN
 10
587.5223086265419852
 20
12.7889780046828694
 30
-0.0015258207003583
  9
$EXTMAX
 10
592.0390697323520044
 20
24.2836059702494786
 30
0.0000000349246037
  9
$LIMMIN
 10
0.0
 20
0.0
  9
$LIMMAX
 10
11.6929133858000007
 20
8.2677165353999982
  9
$ORTHOMODE
 70
     0
  9
$REGENMODE
 70
     1
  9
$FILLMODE
 70
     1
  9
$QTEXTMODE
 70
     0
  9
$MIRRTEXT
 70
     0
  9
$DRAGMODE
 70
     2
  9
$LTSCALE
 40
0.6431102362
  9
$OSMODE
 70
  4095
  9
$ATTMODE
 70
     1
  9
$TEXTSIZE
 40
0.2
  9
$TRACEWID
 40
0.05
  9
$TEXTSTYLE
  7
STANDARD
  9
$CLAYER
  8
0
  9
$CELTYPE
  6
BYLAYER
  9
$CECOLOR
 62
   256
  9
$DIMSCALE
 40
1.0
  9
$DIMASZ
 40
0.1875
  9
$DIMEXO
 40
0.0625
  9
$DIMDLI
 40
0.4443307087
  9
$DIMRND
 40
0.0
  9
$DIMDLE
 40
0.0
  9
$DIMEXE
 40
0.125
  9
$DIMTP
 40
0.01
  9
$DIMTM
 40
0.01
  9
$DIMTXT
 40
1.0
  9
$DIMCEN
 40
0.1052362205
  9
$DIMTSZ
 40
0.0
  9
$DIMTOL
 70
     1
  9
$DIMLIM
 70
     0
  9
$DIMTIH
 70
     1
  9
$DIMTOH
 70
     1
  9
$DIMSE1
 70
     0
  9
$DIMSE2
 70
     0
  9
$DIMTAD
 70
     0
  9
$DIMZIN
 70
     0
  9
$DIMBLK
  1

  9
$DIMASO
 70
     1
  9
$DIMSHO
 70
     1
  9
$DIMPOST
  1
\X
  9
$DIMAPOST
  1

  9
$DIMALT
 70
     1
  9
$DIMALTD
 70
     2
  9
$DIMALTF
 40
25.3999999999999986
  9
$DIMLFAC
 40
1.0
  9
$DIMTOFL
 70
     0
  9
$DIMTVP
 40
0.0
  9
$DIMTIX
 70
     0
  9
$DIMSOXD
 70
     0
  9
$DIMSAH
 70
     0
  9
$DIMBLK1
  1

  9
$DIMBLK2
  1

  9
$DIMSTYLE
  2
STANDARD
  9
$DIMCLRD
 70
     0
  9
$DIMCLRE
 70
     0
  9
$DIMCLRT
 70
     0
  9
$DIMTFAC
 40
1.0
  9
$DIMGAP
 40
0.09
  9
$LUNITS
 70
     2
  9
$LUPREC
 70
     4
  9
$SKETCHINC
 40
0.1
  9
$FILLETRAD
 40
0.0
  9
$AUNITS
 70
     0
  9
$AUPREC
 70
     0
  9
$MENU
  1
.
  9
$ELEVATION
 40
0.0
  9
$PELEVATION
 40
0.0
  9
$THICKNESS
 40
0.0
  9
$LIMCHECK
 70
     0
  9
$BLIPMODE
 70
     0
  9
$CHAMFERA
 40
0.0
  9
$CHAMFERB
 40
0.0
  9
$SKPOLY
 70
     0
  9
$TDCREATE
 40
2458306.6094560190103948
  9
$TDUPDATE
 40
2460258.5687500000931323
  9
$TDINDWG
 40
0.1079604167
  9
$TDUSRTIMER
 40
0.1079602894
  9
$USRTIMER
 70
     1
  9
$ANGBASE
 50
0.0
  9
$ANGDIR
 70
     0
  9
$PDMODE
 70
     0
  9
$PDSIZE
 40
0.3125
  9
$PLINEWID
 40
0.0
  9
$COORDS
 70
     1
  9
$SPLFRAME
 70
     0
  9
$SPLINETYPE
 70
     6
  9
$SPLINESEGS
 70
     8
  9
$ATTDIA
 70
     1
  9
$ATTREQ
 70
     1
  9
$HANDLING
 70
     1
  9
$HANDSEED
  5
2DA4
  9
$SURFTAB1
 70
     6
  9
$SURFTAB2
 70
     6
  9
$SURFTYPE
 70
     6
  9
$SURFU
 70
     6
  9
$SURFV
 70
     6
  9
$UCSNAME
  2

  9
$UCSORG
 10
0.0
 20
0.0
 30
0.0
  9
$UCSXDIR
 10
1.0
 20
0.0
 30
0.0
  9
$UCSYDIR
 10
0.0
 20
1.0
 30
0.0
  9
$PUCSNAME
  2

  9
$PUCSORG
 10
0.0
 20
0.0
 30
0.0
  9
$PUCSXDIR
 10
1.0
 20
0.0
 30
0.0
  9
$PUCSYDIR
 10
0.0
 20
1.0
 30
0.0
  9
$USERI1
 70
     0
  9
$USERI2
 70
     0
  9
$USERI3
 70
     0
  9
$USERI4
 70
     0
  9
$USERI5
 70
     0
  9
$USERR1
 40
0.0
  9
$USERR2
 40
0.0
  9
$USERR3
 40
0.0
  9
$USERR4
 40
0.0
  9
$USERR5
 40
0.0
  9
$WORLDVIEW
 70
     1
  9
$SHADEDGE
 70
     3
  9
$SHADEDIF
 70
    70
  9
$TILEMODE
 70
     1
  9
$MAXACTVP
 70
    64
  9
$PLIMCHECK
 70
     0
  9
$PEXTMIN
 10
1.0000000000000000E+20
 20
1.0000000000000000E+20
 30
1.0000000000000000E+20
  9
$PEXTMAX
 10
-1.0000000000000000E+20
 20
-1.0000000000000000E+20
 30
-1.0000000000000000E+20
  9
$PLIMMIN
 10
0.0
 20
0.0
  9
$PLIMMAX
 10
12.0
 20
9.0
  9
$UNITMODE
 70
     0
  9
$VISRETAIN
 70
     1
  9
$PLINEGEN
 70
     0
  9
$PSLTSCALE
 70
     1
  0
ENDSEC
  0
SECTION
  2
TABLES
  0
TABLE
  2
VPORT
 70
     1
  0
VPORT
  2
*ACTIVE
 70
     0
 10
0.0
 20
0.0
 11
1.0
 21
1.0
 12
74.4849245482753304
 22
24.4365626879208904
 13
0.0
 23
0.0
 14
1.0
 24
1.0
 15
0.0
 25
0.0
 16
0.0
 26
0.0
 36
51.4704153786931471
 17
515.2957646311716644
 27
-5.900270700454711
 37
0.0
 40
11.5852557813266603
 41
2.498684210526315
 42
50.0
 43
0.0
 44
0.0
 50
0.0
 51
0.0
 71
     0
 72
   100
 73
     1
 74
     1
 75
     0
 76
     0
 77
     0
 78
     0
  0
ENDTAB
  0
TABLE
  2
LTYPE
 70
     2
  0
LTYPE
  2
CONTINUOUS
 70
     0
  3
Solid line
 72
    65
 73
     0
 40
0.0
  0
ENDTAB
  0
TABLE
  2
LAYER
 70
     3
  0
LAYER
  2
0
 70
     0
 62
   255
  6
CONTINUOUS
  0
LAYER
  2
DEFPOINT
 70
     0
 62
     7
  6
CONTINUOUS
  0
LAYER
  2
DEFPOINTS
 70
     0
 62
     7
  6
CONTINUOUS
  0
ENDTAB
  0
TABLE
  2
STYLE
 70
     1
  0
STYLE
  2
STANDARD
 70
     0
 40
0.0
 41
0.8
 50
0.0
 71
     0
 42
0.2
  3
txt
  4

  0
ENDTAB
  0
TABLE
  2
VIEW
 70
     0
  0
ENDTAB
  0
TABLE
  2
UCS
 70
     0
  0
ENDTAB
  0
TABLE
  2
APPID
 70
    10
  0
APPID
  2
ACAD
 70
     0
  0
APPID
  2
ACADANNOTATIVE
 70
     0
  0
APPID
  2
ACAD_MLEADERVER
 70
     0
  0
APPID
  2
ACAD_EXEMPT_FROM_CAD_STANDARDS
 70
     0
  0
APPID
  2
ACAD_DSTYLE_DIMJAG
 70
     0
  0
APPID
  2
ACAD_DSTYLE_DIMTALN
 70
     0
  0
APPID
  2
ACAD_NAV_VCDISPLAY
 70
     0
  0
APPID
  2
ACAECLAYERSTANDARD
 70
     0
  0
APPID
  2
ACCMTRANSPARENCY
 70
     0
  0
APPID
  2
ACDBATTR
 70
     0
  0
ENDTAB
  0
TABLE
  2
DIMSTYLE
 70
     2
  0
DIMSTYLE
  2
STANDARD
 70
     0
  3

  4

  5

  6

  7

 40
1.0
 41
0.1875
 42
0.0625
 43
0.38
 44
0.125
 45
0.0
 46
0.0
 47
0.01
 48
0.01
140
0.15625
141
0.09
142
0.0
143
25.3999999999999986
144
1.0
145
0.0
146
1.0
147
0.09
 71
     1
 72
     0
 73
     1
 74
     1
 75
     0
 76
     0
 77
     0
 78
     4
170
     0
171
     2
172
     0
173
     0
174
     0
175
     0
176
     0
177
     0
178
     0
  0
ENDTAB
  0
ENDSEC
  0
SECTION
  2
BLOCKS
  0
BLOCK
  8
0
  2
$MODEL_SPACE
 70
     0
 10
0.0
 20
0.0
 30
0.0
  3
$MODEL_SPACE
  1

  0
ENDBLK
  5
1598
  8
0
  0
BLOCK
 67
     1
  8
0
  2
$PAPER_SPACE
 70
     0
 10
0.0
 20
0.0
 30
0.0
  3
$PAPER_SPACE
  1

  0
ENDBLK
  5
1594
 67
     1
  8
0
  0
ENDSEC
  0
SECTION
  2
ENTITIES
  0
LINE
  5
2996
  8
0
 10
591.4311647410046362
 20
21.6764046246081783
 30
0.0
 11
591.4311794001047247
 21
21.6764638683081898
 31
0.0
  0
LINE
  5
2997
  8
0
 10
591.413528998704578
 20
23.3333831611081806
 30
0.0
 11
591.413528998704578
 21
21.6703831612081785
 31
0.0
  0
LINE
  5
2998
  8
0
 10
591.478512145904574
 20
23.2618831612081891
 30
0.0
 11
591.478512145904574
 21
23.2133324907678009
 31
0.0
  0
LINE
  5
2999
  8
0
 10
591.4959095499046953
 20
23.3508031197081891
 30
0.0
 11
591.4959095499046953
 21
21.6529632026081913
 31
0.0
  0
LINE
  5
299A
  8
0
 10
591.9681095499047387
 20
23.3484106350081717
 30
0.0
 11
591.9681095499047387
 21
22.6611141841517707
 31
0.0
  0
LINE
  5
299B
  8
0
 10
591.9681095499047387
 20
22.3426521402121416
 30
0.0
 11
591.9681095499047387
 21
21.6553309379081895
 31
0.0
  0
LINE
  5
299C
  8
0
 10
591.9581619095047245
 20
21.6453310750081904
 30
0.0
 11
591.5059619095045491
 21
21.6429633397081886
 31
0.0
  0
LINE
  5
299D
  8
0
 10
591.3885289987047145
 20
21.6453831612081906
 30
0.0
 11
589.3493750539303164
 21
21.6453831612082013
 31
0.0
  0
LINE
  5
299E
  8
0
 10
591.3885289987047145
 20
23.3583831612081809
 30
0.0
 11
589.4154085596534287
 21
23.3583820944127893
 31
0.0
  0
LINE
  5
299F
  8
0
 10
591.9581619095047245
 20
23.3584352474081918
 30
0.0
 11
591.5059619095045491
 21
23.3608029827081793
 31
0.0
  0
ARC
  5
29E4
  8
0
 10
588.7033489987046551
 20
23.1188831612081884
 30
0.0
 40
1.1640473039000001
 50
11.87556595320053
 51
236.3932611233018974
  0
ARC
  5
29E5
  8
0
 10
588.7033489987046551
 20
23.1188831612081884
 30
0.0
 40
1.1293740126
 50
12.2446057554002596
 51
235.2173860041993123
  0
ARC
  5
29E6
  8
0
 10
589.4431277338045447
 20
23.1191696730081908
 30
0.0
 40
0.049792767
 50
185.6329392876000099
 51
191.0841879056991957
  0
ARC
  5
29E7
  8
0
 10
589.4406941802046731
 20
23.118907042208189
 30
0.0
 40
0.0473451915
 50
180.0292600802997072
 51
185.60571404129999
  0
ARC
  5
29E8
  8
0
 10
590.3585289987047418
 20
22.5018831612081804
 30
0.0
 40
1.353499999999999
 50
34.1600951239998807
 51
37.580663853398967
  0
ARC
  5
29E9
  8
0
 10
590.3585289987047418
 20
22.5018831612081804
 30
0.0
 40
1.353499999999999
 50
322.4188551347987186
 51
327.1840937615992857
  0
ARC
  5
29EA
  8
0
 10
591.3885289987047145
 20
21.6703831612081785
 30
0.0
 40
0.025
 50
270.0
 51
0.0
  0
ARC
  5
29EB
  8
0
 10
591.5059095499046862
 20
21.6529632026081913
 30
0.0
 40
0.01
 50
180.0
 51
270.3000000002014076
  0
ARC
  5
29EC
  8
0
 10
591.9581095499046342
 20
21.6553309379081895
 30
0.0
 40
0.01
 50
270.2999999999993861
 51
0.0
  0
ARC
  5
29ED
  8
0
 10
591.423371518404565
 20
21.6824163634082012
 30
0.0
 40
0.0098425197
 50
180.0
 51
322.419336146100477
  0
ARC
  5
29EE
  8
0
 10
591.3885289987047145
 20
23.3333831611081806
 30
0.0
 40
0.025
 50
0.0
 51
90.0
  0
ARC
  5
29EF
  8
0
 10
591.5059095499046862
 20
23.3508031197081891
 30
0.0
 40
0.01
 50
89.6999999997986066
 51
180.0
  0
ARC
  5
29F0
  8
0
 10
591.9581095499046342
 20
23.3484353844081909
 30
0.0
 40
0.01
 50
0.0
 51
89.7000000000005286
  0
ARC
  5
29F1
  8
0
 10
591.423371518404565
 20
23.3213499589081792
 30
0.0
 40
0.0098425197
 50
37.5806638538994378
 51
180.0
  0
LINE
  5
2AF2
  8
0
 10
592.006051549904555
 20
22.5968827499699785
 30
0.0
 11
592.006051549904555
 21
22.4068835724463895
 31
0.0
  0
LINE
  5
2AF3
  8
0
 10
591.5269095499046443
 20
22.4090782148756915
 30
0.0
 11
591.5269095499046443
 21
22.59468810754068
 31
0.0
  0
LINE
  5
2AF4
  8
0
 10
591.5567524709902045
 20
22.6246876963081007
 30
0.0
 11
591.9758944709901698
 21
22.6268823387373992
 31
0.0
  0
LINE
  5
2AF5
  8
0
 10
591.5567524709902045
 20
22.3790786261082708
 30
0.0
 11
591.9758944709901698
 21
22.3768839836789688
 31
0.0
  0
ARC
  5
2AF6
  8
0
 10
591.5569095499047307
 20
22.4090782148756915
 30
0.0
 40
0.03
 50
180.0000000000133866
 51
269.7000000008864049
  0
ARC
  5
2AF7
  8
0
 10
591.5569095499046171
 20
22.59468810754068
 30
0.0
 40
0.03
 50
90.2999999990940267
 51
180.0
  0
ARC
  5
2AF8
  8
0
 10
591.976051549904696
 20
22.5968827499699785
 30
0.0
 40
0.03
 50
0.0000000000135364
 51
90.2999999990810096
  0
ARC
  5
2AF9
  8
0
 10
591.976051549904696
 20
22.4068835724464002
 30
0.0
 40
0.03
 50
269.7000000009123823
 51
359.999999999972772
  0
ARC
  5
2AFA
  8
0
 10
592.0118719152155791
 20
22.3445315015692501
 30
0.0
 40
0.0438027010204434
 50
130.6018598335845979
 51
182.4590387310138055
  0
ARC
  5
2AFB
  8
0
 10
592.0171698945700882
 20
22.6643046601439089
 30
0.0
 40
0.0491639762004543
 50
183.7208007155130929
 51
235.4988231170885911
  0
ARC
  5
2AFC
  8
0
 10
591.7524413583539626
 20
23.2388968337103989
 30
0.0
 40
0.2751195177793444
 50
185.3316646363248026
 51
201.1819476635664046
  0
ARC
  5
2B35
  8
0
 10
589.4154101253412819
 20
23.4563845489535296
 30
0.0
 40
0.098002454553247
 50
205.3605978244762014
 51
269.999084642249386
  0
ARC
  5
2B36
  8
0
 10
588.7033833614860896
 20
23.1192513587400299
 30
0.0
 40
0.6898225124152231
 50
339.9484694513413956
 51
201.0076817944903951
  0
LINE
  5
2B37
  8
0
 10
588.0594117160526366
 20
22.8719547382363189
 30
0.0
 11
588.0549603356533908
 21
13.5546679469088307
 31
0.0
  0
LINE
  5
2B38
  8
0
 10
589.3513920308533898
 20
22.8827352640242587
 30
0.0
 11
589.3517950553533638
 21
13.5485037396088401
 31
0.0
  0
ARC
  5
2B39
  8
0
 10
589.2433107789471478
 20
13.4903801620838397
 30
0.0
 40
1.190088104030238
 50
176.9034120134950001
 51
188.9268931820080013
  0
ARC
  5
2B3A
  8
0
 10
588.7032313995623554
 20
13.4388757614419294
 30
0.0
 40
0.6493937268099992
 50
191.8331703621336999
 51
219.6703177288869995
  0
ARC
  5
2B3B
  8
0
 10
588.7033074000145234
 20
13.4389509330835804
 30
0.0
 40
0.6495002139896408
 50
219.6711421484490074
 51
248.5975662718271906
  0
ARC
  5
2B3C
  8
0
 10
588.7033416429088675
 20
13.4390251750776706
 30
0.0
 40
0.64958183208835
 50
248.5971438272129888
 51
305.4235464716771844
  0
ARC
  5
2B3D
  8
0
 10
588.7034410448229664
 20
13.4388828103611306
 30
0.0
 40
0.6494082056031881
 50
305.4236801622810162
 51
346.6807421645091267
  0
ARC
  5
2B3E
  8
0
 10
588.7035887086617549
 20
13.4388198995564192
 30
0.0
 40
0.6492500210793725
 50
346.6831425661275716
 51
356.1743838314359891
  0
ARC
  5
2B3F
  8
0
 10
588.7540359005923847
 20
13.5072357755628101
 30
0.0
 40
0.5991819856747663
 50
357.9724042344936947
 51
3.9493068675271341
  0
ARC
  5
2B40
  8
0
 10
587.939406864468765
 20
13.4634061587419396
 30
0.0
 40
1.4136170248787781
 50
357.2466920902649008
 51
0.9172655172842989
  0
ARC
  5
2B41
  8
0
 10
588.7085158858272962
 20
13.5050963030220501
 30
0.0
 40
0.6555081187216965
 50
181.4737625086119124
 51
205.9523116903905873
  0
ARC
  5
2B42
  8
0
 10
588.7016373918354475
 20
13.5017485214653394
 30
0.0
 40
0.6478581957842444
 50
205.9523116903903883
 51
237.5105402014665117
  0
ARC
  5
2B43
  8
0
 10
588.7032976925902403
 20
13.5043557299057095
 30
0.0
 40
0.6509491720779277
 50
237.5105402014665117
 51
308.023876293463502
  0
ARC
  5
2B44
  8
0
 10
588.7058454868347326
 20
13.5010975015634607
 30
0.0
 40
0.6468130739840326
 50
308.023876293463502
 51
331.5677143827949749
  0
ARC
  5
2B45
  8
0
 10
588.6990974943284982
 20
13.5047510430836901
 30
0.0
 40
0.6544866499760027
 50
331.5677143827948044
 51
357.5079023188254155
  0
ATTDEF
  5
2B7E
  8
DEFPOINT
 10
588.6906237021976267
 20
23.1200645751769613
 30
0.0
 40
0.001
  1
K-EX28271T-4
  3

  2
MODELNUMBER
 70
     0
1001
ACDBATTR
1070
     0
1070
     1
  0
ATTDEF
  5
2B7F
  8
DEFPOINT
 10
588.6906237021976267
 20
23.1183979085102891
 30
0.0
 40
0.001
  1
COMPONENTS
  3

  2
TRADENAME
 70
     0
1001
ACDBATTR
1070
     0
1070
     1
  0
ATTDEF
  5
2B80
  8
DEFPOINT
 10
588.6906237021976267
 20
23.116731241843631
 30
0.0
 40
0.001
  1
KITCHEN SINK FACUET
  3

  2
PRODUCT
 70
     0
1001
ACDBATTR
1070
     0
1070
     1
  0
ENDSEC
  0
EOF
