  0
SECTION
  2
HEADER
  9
$ACADVER
  1
AC1009
  9
$INSBASE
 10
172.6851543817458037
 20
-4.9580724702421524
 30
0.0
  9
$EXTMIN
 10
171.6226543817458037
 20
-4.9580724702421524
 30
0.0
  9
$EXTMAX
 10
174.8322094998958107
 20
4.1897770927578479
 30
0.0
  9
$LIMMIN
 10
0.0
 20
0.0
  9
$LIMMAX
 10
11.6929133858000007
 20
8.2677165353999982
  9
$ORTHOMODE
 70
     0
  9
$REGENMODE
 70
     1
  9
$FILLMODE
 70
     1
  9
$QTEXTMODE
 70
     0
  9
$MIRRTEXT
 70
     0
  9
$DRAGMODE
 70
     2
  9
$LTSCALE
 40
0.6431102362
  9
$OSMODE
 70
  4095
  9
$ATTMODE
 70
     1
  9
$TEXTSIZE
 40
0.2
  9
$TRACEWID
 40
0.05
  9
$TEXTSTYLE
  7
STANDARD
  9
$CLAYER
  8
0
  9
$CELTYPE
  6
BYLAYER
  9
$CECOLOR
 62
   256
  9
$DIMSCALE
 40
1.0
  9
$DIMASZ
 40
0.1875
  9
$DIMEXO
 40
0.0625
  9
$DIMDLI
 40
0.4443307087
  9
$DIMRND
 40
0.0
  9
$DIMDLE
 40
0.0
  9
$DIMEXE
 40
0.125
  9
$DIMTP
 40
0.01
  9
$DIMTM
 40
0.01
  9
$DIMTXT
 40
0.15625
  9
$DIMCEN
 40
0.1052362205
  9
$DIMTSZ
 40
0.0
  9
$DIMTOL
 70
     1
  9
$DIMLIM
 70
     0
  9
$DIMTIH
 70
     1
  9
$DIMTOH
 70
     1
  9
$DIMSE1
 70
     0
  9
$DIMSE2
 70
     0
  9
$DIMTAD
 70
     0
  9
$DIMZIN
 70
     0
  9
$DIMBLK
  1

  9
$DIMASO
 70
     1
  9
$DIMSHO
 70
     1
  9
$DIMPOST
  1
\X
  9
$DIMAPOST
  1

  9
$DIMALT
 70
     1
  9
$DIMALTD
 70
     2
  9
$DIMALTF
 40
25.3999999999999986
  9
$DIMLFAC
 40
1.0
  9
$DIMTOFL
 70
     0
  9
$DIMTVP
 40
0.0
  9
$DIMTIX
 70
     0
  9
$DIMSOXD
 70
     0
  9
$DIMSAH
 70
     0
  9
$DIMBLK1
  1

  9
$DIMBLK2
  1

  9
$DIMSTYLE
  2
STANDARD
  9
$DIMCLRD
 70
     0
  9
$DIMCLRE
 70
     0
  9
$DIMCLRT
 70
     0
  9
$DIMTFAC
 40
1.0
  9
$DIMGAP
 40
0.09
  9
$LUNITS
 70
     2
  9
$LUPREC
 70
     4
  9
$SKETCHINC
 40
0.1
  9
$FILLETRAD
 40
0.0
  9
$AUNITS
 70
     0
  9
$AUPREC
 70
     0
  9
$MENU
  1
.
  9
$ELEVATION
 40
0.0
  9
$PELEVATION
 40
0.0
  9
$THICKNESS
 40
0.0
  9
$LIMCHECK
 70
     0
  9
$BLIPMODE
 70
     0
  9
$CHAMFERA
 40
0.0
  9
$CHAMFERB
 40
0.0
  9
$SKPOLY
 70
     0
  9
$TDCREATE
 40
2458018.639108797069639
  9
$TDUPDATE
 40
2460258.525532407220453
  9
$TDINDWG
 40
0.3146986111
  9
$TDUSRTIMER
 40
0.3146986111
  9
$USRTIMER
 70
     1
  9
$ANGBASE
 50
0.0
  9
$ANGDIR
 70
     0
  9
$PDMODE
 70
     0
  9
$PDSIZE
 40
0.3125
  9
$PLINEWID
 40
0.0
  9
$COORDS
 70
     1
  9
$SPLFRAME
 70
     0
  9
$SPLINETYPE
 70
     6
  9
$SPLINESEGS
 70
     8
  9
$ATTDIA
 70
     1
  9
$ATTREQ
 70
     1
  9
$HANDLING
 70
     1
  9
$HANDSEED
  5
94AC
  9
$SURFTAB1
 70
     6
  9
$SURFTAB2
 70
     6
  9
$SURFTYPE
 70
     6
  9
$SURFU
 70
     6
  9
$SURFV
 70
     6
  9
$UCSNAME
  2

  9
$UCSORG
 10
0.0
 20
0.0
 30
0.0
  9
$UCSXDIR
 10
1.0
 20
0.0
 30
0.0
  9
$UCSYDIR
 10
0.0
 20
1.0
 30
0.0
  9
$PUCSNAME
  2

  9
$PUCSORG
 10
0.0
 20
0.0
 30
0.0
  9
$PUCSXDIR
 10
1.0
 20
0.0
 30
0.0
  9
$PUCSYDIR
 10
0.0
 20
1.0
 30
0.0
  9
$USERI1
 70
     0
  9
$USERI2
 70
     0
  9
$USERI3
 70
     0
  9
$USERI4
 70
     0
  9
$USERI5
 70
     0
  9
$USERR1
 40
0.0
  9
$USERR2
 40
0.0
  9
$USERR3
 40
0.0
  9
$USERR4
 40
0.0
  9
$USERR5
 40
0.0
  9
$WORLDVIEW
 70
     1
  9
$SHADEDGE
 70
     3
  9
$SHADEDIF
 70
    70
  9
$TILEMODE
 70
     1
  9
$MAXACTVP
 70
    64
  9
$PLIMCHECK
 70
     0
  9
$PEXTMIN
 10
1.0000000000000000E+20
 20
1.0000000000000000E+20
 30
1.0000000000000000E+20
  9
$PEXTMAX
 10
-1.0000000000000000E+20
 20
-1.0000000000000000E+20
 30
-1.0000000000000000E+20
  9
$PLIMMIN
 10
0.0
 20
0.0
  9
$PLIMMAX
 10
12.0
 20
9.0
  9
$UNITMODE
 70
     0
  9
$VISRETAIN
 70
     1
  9
$PLINEGEN
 70
     0
  9
$PSLTSCALE
 70
     1
  0
ENDSEC
  0
SECTION
  2
TABLES
  0
TABLE
  2
VPORT
 70
     1
  0
VPORT
  2
*ACTIVE
 70
     0
 10
0.0
 20
0.0
 11
1.0
 21
1.0
 12
77.9031709430830546
 22
-7.4204796999649911
 13
0.0
 23
0.0
 14
1.0
 24
1.0
 15
0.0
 25
0.0
 16
-0.0000000000000142
 26
0.0
 36
39.3282560748450578
 17
95.3242609977377526
 27
7.0363320112228394
 37
0.0
 40
9.2199745267030231
 41
2.498684210526315
 42
50.0
 43
0.0
 44
0.0
 50
0.0
 51
0.0
 71
     0
 72
   100
 73
     1
 74
     1
 75
     0
 76
     0
 77
     0
 78
     0
  0
ENDTAB
  0
TABLE
  2
LTYPE
 70
     3
  0
LTYPE
  2
CONTINUOUS
 70
     0
  3
Solid line
 72
    65
 73
     0
 40
0.0
  0
LTYPE
  2
PHANTOM2
 70
     0
  3
___ _ _ ___ _ _ ___ _ _ ___ _ _
 72
    65
 73
     6
 40
1.25
 49
0.625
 49
-0.125
 49
0.125
 49
-0.125
 49
0.125
 49
-0.125
  0
ENDTAB
  0
TABLE
  2
LAYER
 70
     2
  0
LAYER
  2
0
 70
     0
 62
   255
  6
CONTINUOUS
  0
LAYER
  2
DEFPOINTS
 70
     0
 62
     7
  6
CONTINUOUS
  0
ENDTAB
  0
TABLE
  2
STYLE
 70
     1
  0
STYLE
  2
STANDARD
 70
     0
 40
0.0
 41
0.8
 50
0.0
 71
     0
 42
0.2
  3
txt
  4

  0
ENDTAB
  0
TABLE
  2
VIEW
 70
     0
  0
ENDTAB
  0
TABLE
  2
UCS
 70
     0
  0
ENDTAB
  0
TABLE
  2
APPID
 70
    10
  0
APPID
  2
ACAD
 70
     0
  0
APPID
  2
ACAD_MLEADERVER
 70
     0
  0
APPID
  2
ACAD_DSTYLE_DIMJAG
 70
     0
  0
APPID
  2
ACAD_DSTYLE_DIMTALN
 70
     0
  0
APPID
  2
ACAD_NAV_VCDISPLAY
 70
     0
  0
APPID
  2
ACAD_EXEMPT_FROM_CAD_STANDARDS
 70
     0
  0
APPID
  2
ACAECLAYERSTANDARD
 70
     0
  0
APPID
  2
ACCMTRANSPARENCY
 70
     0
  0
APPID
  2
DCO15
 70
     0
  0
APPID
  2
ACDBATTR
 70
     0
  0
ENDTAB
  0
TABLE
  2
DIMSTYLE
 70
     2
  0
DIMSTYLE
  2
STANDARD
 70
     0
  3

  4

  5

  6

  7

 40
1.0
 41
0.1875
 42
0.0625
 43
0.38
 44
0.125
 45
0.0
 46
0.0
 47
0.01
 48
0.01
140
0.15625
141
0.09
142
0.0
143
25.3999999999999986
144
1.0
145
0.0
146
1.0
147
0.09
 71
     1
 72
     0
 73
     1
 74
     1
 75
     0
 76
     0
 77
     0
 78
     4
170
     0
171
     2
172
     0
173
     0
174
     0
175
     0
176
     0
177
     0
178
     0
  0
ENDTAB
  0
ENDSEC
  0
SECTION
  2
BLOCKS
  0
BLOCK
  8
0
  2
$MODEL_SPACE
 70
     0
 10
0.0
 20
0.0
 30
0.0
  3
$MODEL_SPACE
  1

  0
ENDBLK
  5
21
  8
0
  0
BLOCK
 67
     1
  8
0
  2
$PAPER_SPACE
 70
     0
 10
0.0
 20
0.0
 30
0.0
  3
$PAPER_SPACE
  1

  0
ENDBLK
  5
1D
 67
     1
  8
0
  0
ENDSEC
  0
SECTION
  2
ENTITIES
  0
ATTDEF
  5
7A6E
  8
DEFPOINTS
 10
172.68116425452979
 20
-4.9539548973653806
 30
0.0
 40
0.001
  1
K-EX28292T-4
  3

  2
MODELNUMBER
 70
     0
1001
ACDBATTR
1070
     0
1070
     1
  0
ATTDEF
  5
7A6F
  8
DEFPOINTS
 10
172.68116425452979
 20
-4.9556215640320458
 30
0.0
 40
0.001
  1
COMPONENTS
  3

  2
TRADENAME
 70
     0
1001
ACDBATTR
1070
     0
1070
     1
  0
ATTDEF
  5
7A70
  8
DEFPOINTS
 10
172.68116425452979
 20
-4.9572882306987109
 30
0.0
 40
0.001
  1
KITCHEN SINK FAUCET
  3

  2
PRODUCT
 70
     0
1001
ACDBATTR
1070
     0
1070
     1
  0
LINE
  5
92CF
  8
0
 10
173.0905078817957872
 20
1.071423592757849
 30
0.0
 11
172.2798008817958078
 21
1.071423592757849
 31
0.0
  0
ARC
  5
92D0
  8
0
 10
173.0905078817957872
 20
1.0814235927578471
 30
0.0
 40
0.01
 50
270.0
 51
0.0
  0
LINE
  5
92D1
  8
0
 10
171.6426543817458139
 20
-4.9580724702421524
 30
0.0
 11
173.7276543817457934
 21
-4.9580724702421524
 31
0.0
  0
LINE
  5
92D2
  8
0
 10
171.6426543817458139
 20
-4.7400724702421524
 30
0.0
 11
173.7276543817457934
 21
-4.7400724702421524
 31
0.0
  0
LINE
  5
92D3
  8
0
 10
171.6226543817458037
 20
-4.7600724702421511
 30
0.0
 11
171.6226543817458037
 21
-4.938072470242151
 31
0.0
  0
LINE
  5
92D4
  8
0
 10
172.0041543817457921
 20
-1.1500724702421521
 30
0.0
 11
173.3661543817457868
 21
-1.150072470242153
 31
0.0
  0
LINE
  5
92D5
  8
0
 10
172.279800881745814
 20
-1.118576407242152
 30
0.0
 11
173.0905078817457934
 21
-1.118576407242152
 31
0.0
  0
LINE
  5
92D6
  8
0
 10
172.2835795786457993
 20
-1.1264764072421509
 30
0.0
 11
172.2835795786457993
 21
-1.1500724702421521
 31
0.0
  0
ARC
  5
92D7
  8
0
 10
171.6426543817458139
 20
-4.7600724702421511
 30
0.0
 40
0.02
 50
90.0
 51
179.999999999999801
  0
ARC
  5
92D8
  8
0
 10
171.6426543817458139
 20
-4.9380724702421492
 30
0.0
 40
0.02
 50
180.0000000000063096
 51
269.9999999999902229
  0
LINE
  5
92D9
  8
0
 10
171.9741543817457909
 20
-4.7400724702421524
 30
0.0
 11
171.9741543817457909
 21
-1.1800724702421519
 31
0.0
  0
ARC
  5
92DA
  8
0
 10
172.0041543817457921
 20
-1.180072470242155
 30
0.0
 40
0.03
 50
90.0000000000097771
 51
179.9999999999932072
  0
ARC
  5
92DB
  8
0
 10
172.279800881745814
 20
-1.10857640724215
 30
0.0
 40
0.01
 50
180.0000000000075886
 51
270.0
  0
ARC
  5
92DC
  8
0
 10
172.2914795786458058
 20
-1.126476407242152
 30
0.0
 40
0.0079
 50
90.0
 51
179.9999999999967883
  0
LINE
  5
92DD
  8
0
 10
173.7476543817458037
 20
-4.7600724702421511
 30
0.0
 11
173.7476543817458037
 21
-4.938072470242151
 31
0.0
  0
ARC
  5
92DE
  8
0
 10
173.7276543817457934
 20
-4.7600724702421511
 30
0.0
 40
0.02
 50
0.0000000000001527
 51
90.0
  0
ARC
  5
92DF
  8
0
 10
173.7276543817457934
 20
-4.9380724702421492
 30
0.0
 40
0.02
 50
270.0000000000097771
 51
359.9999999999935767
  0
LINE
  5
92E0
  8
0
 10
173.396154381745788
 20
-1.592472470242152
 30
0.0
 11
173.396154381745788
 21
-1.1800724702421519
 31
0.0
  0
ARC
  5
92E1
  8
0
 10
173.3661543817457868
 20
-1.180072470242155
 30
0.0
 40
0.03
 50
0.0000000000067682
 51
89.9999999999902229
  0
ARC
  5
92E2
  8
0
 10
172.6851543817957975
 20
3.7744235927578478
 30
0.0
 40
0.4153535000000002
 50
0.0
 51
180.0
  0
LINE
  5
92E3
  8
0
 10
172.2698008817957884
 20
3.7744235927578478
 30
0.0
 11
172.2698008817957884
 21
-1.108576407242152
 31
0.0
  0
LINE
  5
92E4
  8
0
 10
173.1005078817958065
 20
3.7744235927578478
 30
0.0
 11
173.1005078817958065
 21
-1.108576407242152
 31
0.0
  0
LINE
  5
92E5
  8
0
 10
173.086729184845808
 20
-1.1264764072421509
 30
0.0
 11
173.086729184845808
 21
-1.1500724702421521
 31
0.0
  0
ARC
  5
92E6
  8
0
 10
173.0905078817457934
 20
-1.10857640724215
 30
0.0
 40
0.01
 50
270.0
 51
359.999999999992383
  0
ARC
  5
92E7
  8
0
 10
173.0788291848458016
 20
-1.126476407242152
 30
0.0
 40
0.0079
 50
0.000000000003206
 51
90.0
  0
ARC
  5
92E8
  8
0
 10
172.2798008817958078
 20
1.0814235927578471
 30
0.0
 40
0.01
 50
180.0000000000050022
 51
269.9999999999951115
  0
ARC
  5
92E9
  8
0
 10
173.3187425920114038
 20
-2.298932469832585
 30
0.0
 40
0.3806076879639967
 50
151.1244890141699102
 51
208.4770011983860911
  0
ARC
  5
92EA
  8
0
 10
175.4742978177667965
 20
-3.6482529582494689
 30
0.0
 40
2.9231473133924188
 50
135.3103632555948934
 51
148.3670615272204998
  0
ARC
  5
92EB
  8
0
 10
175.4272631003724996
 20
-0.9919251394462129
 30
0.0
 40
2.8601492730931879
 50
211.3995907625680104
 51
224.7536707689696129
  0
LINE
  5
92EC
  8
0
 10
174.2461543816957885
 20
-1.649072470242152
 30
0.0
 11
173.4527543817457911
 21
-1.649072470242152
 31
0.0
  0
LINE
  5
92ED
  8
0
 10
174.2461543816957885
 20
-2.949878819742151
 30
0.0
 11
173.4527543817958133
 21
-2.949878819742151
 31
0.0
  0
LINE
  5
92EE
  8
0
 10
174.6402094998958034
 20
-2.949878819742151
 30
0.0
 11
174.7842618595350928
 21
-2.9498788197421528
 31
0.0
  0
LINE
  5
92EF
  8
0
 10
174.8322094998958107
 20
-0.3041147698422675
 30
0.0
 11
174.8322094998958107
 21
-2.3940619642776371
 31
0.0
  0
LINE
  5
92F0
  8
0
 10
174.4762094998957878
 20
-0.3025653144421518
 30
0.0
 11
174.4762094998957878
 21
-1.6071974212421141
 31
0.0
  0
LINE
  5
92F1
  8
0
 10
174.5062094998957889
 20
-0.2725653144421516
 30
0.0
 11
174.8023665788107053
 21
-0.2741151810747295
 31
0.0
  0
ARC
  5
92F2
  8
0
 10
174.5062094998957889
 20
-0.302565314442151
 30
0.0
 40
0.03
 50
89.9999999999983658
 51
180.0000000000015916
  0
ARC
  5
92F3
  8
0
 10
174.8022094998956106
 20
-0.304114769842328
 30
0.0
 40
0.0300000000002001
 50
0.0000000001155602
 51
89.6999999996027952
  0
LINE
  5
92F4
  8
0
 10
174.2661543816957987
 20
-1.66907247024215
 30
0.0
 11
174.2661543816957987
 21
-2.929072470242152
 31
0.0
  0
LINE
  5
92F5
  8
0
 10
174.3252094998958057
 20
-1.656669404050354
 30
0.0
 11
174.3252094998958057
 21
-2.9414755364339502
 31
0.0
  0
LINE
  5
92F6
  8
0
 10
174.3352618459342978
 20
-1.646669541056681
 30
0.0
 11
174.4360000612958004
 21
-1.6471968729318041
 31
0.0
  0
ARC
  5
92F7
  8
0
 10
174.4362094998957957
 20
-1.6071974212421141
 30
0.0
 40
0.04
 50
269.7000779220501272
 51
0.0
  0
LINE
  5
92F8
  8
0
 10
174.285854381695799
 20
-1.6553716828421521
 30
0.0
 11
174.3055094998958054
 21
-1.6553716828421521
 31
0.0
  0
ARC
  5
92F9
  8
0
 10
174.3352094998957966
 20
-1.656669404050354
 30
0.0
 40
0.01
 50
89.7000779220534241
 51
180.0000000000050022
  0
ARC
  5
92FA
  8
0
 10
174.3055094998958054
 20
-1.675071682842151
 30
0.0
 40
0.0197
 50
359.9999999999986926
 51
90.0000000000032543
  0
ARC
  5
92FB
  8
0
 10
174.2461543816957885
 20
-1.66907247024215
 30
0.0
 40
0.02
 50
359.9999999999973852
 51
90.0
  0
ARC
  5
92FC
  8
0
 10
174.285854381695799
 20
-1.6750716828421519
 30
0.0
 40
0.0197
 50
89.9999999999967457
 51
179.9999999999986926
  0
ARC
  5
92FD
  8
0
 10
173.4527543817457911
 20
-1.5924724702421511
 30
0.0
 40
0.0566
 50
180.0
 51
270.0000000000017053
  0
LINE
  5
92FE
  8
0
 10
174.3352618459342978
 20
-2.949878819742151
 30
0.0
 11
174.4240971106202949
 21
-2.949878819742151
 31
0.0
  0
LINE
  5
92FF
  8
0
 10
174.285854381695799
 20
-2.942773257642151
 30
0.0
 11
174.3055094998958054
 21
-2.942773257642151
 31
0.0
  0
ARC
  5
9300
  8
0
 10
174.3354725185018026
 20
-2.9394126524189841
 30
0.0
 40
0.0104682874132895
 50
191.3651066577239988
 51
268.8468539851469927
  0
ARC
  5
9301
  8
0
 10
174.3055094998958054
 20
-2.9230732576421521
 30
0.0
 40
0.0197
 50
269.9999999999968168
 51
0.0000000000012722
  0
ARC
  5
9302
  8
0
 10
174.2447088990793134
 20
-2.9284737317382268
 30
0.0
 40
0.021453839107496
 50
273.8633105526087093
 51
358.4007690230308754
  0
ARC
  5
9303
  8
0
 10
174.285854381695799
 20
-2.9230732576421512
 30
0.0
 40
0.0197
 50
180.0000000000013074
 51
270.0000000000032969
  0
ARC
  5
9304
  8
0
 10
174.532153305258106
 20
-3.6365194702877628
 30
0.0
 40
0.6950910186308631
 50
81.0567458420687785
 51
98.9432541579312357
  0
LINE
  5
9305
  8
0
 10
174.7942094998957998
 20
-2.939124693519477
 30
0.0
 11
174.7942094998957998
 21
-1.67798311729855
 31
0.0
  0
ARC
  5
9306
  8
0
 10
174.7827888959743063
 20
-2.9385384375464212
 30
0.0
 40
0.0114356412149455
 50
277.4005220525929758
 51
357.0614045038619793
  0
LINE
  5
9307
  8
0
 10
174.7942094998957998
 20
-2.4255796260421518
 30
0.0
 11
174.8022094894722045
 21
-2.425579626042154
 31
0.0
  0
ARC
  5
9308
  8
0
 10
174.7994546105470874
 20
-2.3929208514662128
 30
0.0
 40
0.0327747603300726
 50
274.8216796487333227
 51
358.0047401157897866
  0
LINE
  5
9309
  8
0
 10
174.7842617624957882
 20
-1.6679067768421509
 30
0.0
 11
174.4969776309106919
 21
-1.6679067768421509
 31
0.0
  0
ARC
  5
930A
  8
0
 10
174.7838054759027955
 20
-1.6783057979794931
 30
0.0
 40
0.0104090267590154
 50
1.7764584599032249
 51
87.4875964334110563
  0
ARC
  5
930B
  8
0
 10
174.4964974730688994
 20
-1.569195396592131
 30
0.0
 40
0.0987125480494607
 50
232.2030889908618008
 51
270.2786993838806779
  0
LINE
  5
930C
  8
0
 10
173.3961543817958102
 20
-4.7400724702421524
 30
0.0
 11
173.3961559231912872
 21
-3.0056424729313789
 31
0.0
  0
ARC
  5
930D
  8
0
 10
173.4532211089201041
 20
-3.0069572412675192
 30
0.0
 40
0.0570803296945284
 50
90.4684940072559414
 51
178.6801523432820886
  0
ENDSEC
  0
EOF
