  0
SECTION
  2
HEADER
  9
$ACADVER
  1
AC1009
  9
$INSBASE
 10
4378.6616939144523712
 20
609.0272696358448457
 30
0.0
  9
$EXTMIN
 10
4355.6616939144523712
 20
586.027269635844732
 30
0.0
  9
$EXTMAX
 10
4401.6616939144523712
 20
632.0272696358448457
 30
0.0
  9
$LIMMIN
 10
0.0
 20
0.0
  9
$LIMMAX
 10
11.6929133858000007
 20
8.2677165353999982
  9
$ORTHOMODE
 70
     0
  9
$REGENMODE
 70
     1
  9
$FILLMODE
 70
     1
  9
$QTEXTMODE
 70
     0
  9
$MIRRTEXT
 70
     0
  9
$DRAGMODE
 70
     2
  9
$LTSCALE
 40
0.6431102362
  9
$OSMODE
 70
     7
  9
$ATTMODE
 70
     1
  9
$TEXTSIZE
 40
0.2
  9
$TRACEWID
 40
0.05
  9
$TEXTSTYLE
  7
STANDARD
  9
$CLAYER
  8
0
  9
$CELTYPE
  6
BYLAYER
  9
$CECOLOR
 62
   256
  9
$DIMSCALE
 40
1.0
  9
$DIMASZ
 40
0.1875
  9
$DIMEXO
 40
0.0625
  9
$DIMDLI
 40
0.4443307087
  9
$DIMRND
 40
0.0
  9
$DIMDLE
 40
0.0
  9
$DIMEXE
 40
0.125
  9
$DIMTP
 40
0.01
  9
$DIMTM
 40
0.01
  9
$DIMTXT
 40
2.0
  9
$DIMCEN
 40
0.1052362205
  9
$DIMTSZ
 40
0.0
  9
$DIMTOL
 70
     1
  9
$DIMLIM
 70
     0
  9
$DIMTIH
 70
     1
  9
$DIMTOH
 70
     1
  9
$DIMSE1
 70
     0
  9
$DIMSE2
 70
     0
  9
$DIMTAD
 70
     0
  9
$DIMZIN
 70
     0
  9
$DIMBLK
  1

  9
$DIMASO
 70
     1
  9
$DIMSHO
 70
     1
  9
$DIMPOST
  1
\X
  9
$DIMAPOST
  1

  9
$DIMALT
 70
     1
  9
$DIMALTD
 70
     2
  9
$DIMALTF
 40
25.3999999999999986
  9
$DIMLFAC
 40
1.0
  9
$DIMTOFL
 70
     0
  9
$DIMTVP
 40
0.0
  9
$DIMTIX
 70
     0
  9
$DIMSOXD
 70
     0
  9
$DIMSAH
 70
     0
  9
$DIMBLK1
  1

  9
$DIMBLK2
  1

  9
$DIMSTYLE
  2
STANDARD
  9
$DIMCLRD
 70
     0
  9
$DIMCLRE
 70
     0
  9
$DIMCLRT
 70
     0
  9
$DIMTFAC
 40
1.0
  9
$DIMGAP
 40
0.09
  9
$LUNITS
 70
     2
  9
$LUPREC
 70
     4
  9
$SKETCHINC
 40
0.1
  9
$FILLETRAD
 40
0.0
  9
$AUNITS
 70
     0
  9
$AUPREC
 70
     0
  9
$MENU
  1
.
  9
$ELEVATION
 40
0.0
  9
$PELEVATION
 40
0.0
  9
$THICKNESS
 40
0.0
  9
$LIMCHECK
 70
     0
  9
$BLIPMODE
 70
     0
  9
$CHAMFERA
 40
0.0
  9
$CHAMFERB
 40
0.0
  9
$SKPOLY
 70
     0
  9
$TDCREATE
 40
2458060.468368056230247
  9
$TDUPDATE
 40
2459648.6618171301670372
  9
$TDINDWG
 40
4.5841158565000004
  9
$TDUSRTIMER
 40
4.5841158565000004
  9
$USRTIMER
 70
     1
  9
$ANGBASE
 50
0.0
  9
$ANGDIR
 70
     0
  9
$PDMODE
 70
     0
  9
$PDSIZE
 40
0.3125
  9
$PLINEWID
 40
0.0
  9
$COORDS
 70
     1
  9
$SPLFRAME
 70
     0
  9
$SPLINETYPE
 70
     6
  9
$SPLINESEGS
 70
     8
  9
$ATTDIA
 70
     1
  9
$ATTREQ
 70
     1
  9
$HANDLING
 70
     1
  9
$HANDSEED
  5
22007
  9
$SURFTAB1
 70
     6
  9
$SURFTAB2
 70
     6
  9
$SURFTYPE
 70
     6
  9
$SURFU
 70
     6
  9
$SURFV
 70
     6
  9
$UCSNAME
  2

  9
$UCSORG
 10
0.0
 20
0.0
 30
0.0
  9
$UCSXDIR
 10
1.0
 20
0.0
 30
0.0
  9
$UCSYDIR
 10
0.0
 20
1.0
 30
0.0
  9
$PUCSNAME
  2

  9
$PUCSORG
 10
0.0
 20
0.0
 30
0.0
  9
$PUCSXDIR
 10
1.0
 20
0.0
 30
0.0
  9
$PUCSYDIR
 10
0.0
 20
1.0
 30
0.0
  9
$USERI1
 70
     0
  9
$USERI2
 70
     0
  9
$USERI3
 70
     0
  9
$USERI4
 70
     0
  9
$USERI5
 70
     0
  9
$USERR1
 40
0.0
  9
$USERR2
 40
0.0
  9
$USERR3
 40
0.0
  9
$USERR4
 40
0.0
  9
$USERR5
 40
0.0
  9
$WORLDVIEW
 70
     1
  9
$SHADEDGE
 70
     3
  9
$SHADEDIF
 70
    70
  9
$TILEMODE
 70
     1
  9
$MAXACTVP
 70
    64
  9
$PLIMCHECK
 70
     0
  9
$PEXTMIN
 10
1.0000000000000000E+20
 20
1.0000000000000000E+20
 30
1.0000000000000000E+20
  9
$PEXTMAX
 10
-1.0000000000000000E+20
 20
-1.0000000000000000E+20
 30
-1.0000000000000000E+20
  9
$PLIMMIN
 10
0.0
 20
0.0
  9
$PLIMMAX
 10
12.0
 20
9.0
  9
$UNITMODE
 70
     0
  9
$VISRETAIN
 70
     1
  9
$PLINEGEN
 70
     0
  9
$PSLTSCALE
 70
     1
  0
ENDSEC
  0
SECTION
  2
TABLES
  0
TABLE
  2
VPORT
 70
     1
  0
VPORT
  2
*ACTIVE
 70
     0
 10
0.0
 20
0.0
 11
1.0
 21
1.0
 12
142.3266840543155922
 22
10.2782086948139995
 13
0.0
 23
0.0
 14
1.0
 24
1.0
 15
0.0
 25
0.0
 16
0.0
 26
0.0
 36
98.7941898181710343
 17
4236.431396484375
 27
598.728610913283319
 37
0.0
 40
46.3833735583186666
 41
2.2831541218637992
 42
50.0
 43
0.0
 44
0.0
 50
0.0
 51
0.0
 71
     0
 72
   100
 73
     1
 74
     1
 75
     0
 76
     0
 77
     0
 78
     0
  0
ENDTAB
  0
TABLE
  2
LTYPE
 70
     2
  0
LTYPE
  2
CONTINUOUS
 70
     0
  3
Solid line
 72
    65
 73
     0
 40
0.0
  0
LTYPE
  2
PHANTOM2
 70
     0
  3
___ _ _ ___ _ _ ___ _ _ ___ _ _
 72
    65
 73
     6
 40
1.25
 49
0.625
 49
-0.125
 49
0.125
 49
-0.125
 49
0.125
 49
-0.125
  0
ENDTAB
  0
TABLE
  2
LAYER
 70
     2
  0
LAYER
  2
0
 70
     0
 62
   255
  6
CONTINUOUS
  0
LAYER
  2
DEFPOINTS
 70
     0
 62
     7
  6
CONTINUOUS
  0
ENDTAB
  0
TABLE
  2
STYLE
 70
     1
  0
STYLE
  2
STANDARD
 70
     0
 40
0.0
 41
0.8
 50
0.0
 71
     0
 42
0.2
  3
txt
  4

  0
ENDTAB
  0
TABLE
  2
VIEW
 70
     0
  0
ENDTAB
  0
TABLE
  2
UCS
 70
     0
  0
ENDTAB
  0
TABLE
  2
APPID
 70
    10
  0
APPID
  2
ACAD
 70
     0
  0
APPID
  2
ACAD_MLEADERVER
 70
     0
  0
APPID
  2
ACAD_EXEMPT_FROM_CAD_STANDARDS
 70
     0
  0
APPID
  2
ACAD_NAV_VCDISPLAY
 70
     0
  0
APPID
  2
ACAECLAYERSTANDARD
 70
     0
  0
APPID
  2
ACCMTRANSPARENCY
 70
     0
  0
APPID
  2
ACAD_DSTYLE_DIMJAG
 70
     0
  0
APPID
  2
ACAD_DSTYLE_DIMTALN
 70
     0
  0
APPID
  2
ACDBATTR
 70
     0
  0
APPID
  2
DCO15
 70
     0
  0
ENDTAB
  0
TABLE
  2
DIMSTYLE
 70
     1
  0
DIMSTYLE
  2
STANDARD
 70
     0
  3

  4

  5

  6

  7

 40
1.0
 41
0.1875
 42
0.0625
 43
0.38
 44
0.125
 45
0.0
 46
0.0
 47
0.01
 48
0.01
140
0.15625
141
0.09
142
0.0
143
25.3999999999999986
144
1.0
145
0.0
146
1.0
147
0.09
 71
     1
 72
     0
 73
     1
 74
     1
 75
     0
 76
     0
 77
     0
 78
     4
170
     0
171
     2
172
     0
173
     0
174
     0
175
     0
176
     0
177
     0
178
     0
  0
ENDTAB
  0
ENDSEC
  0
SECTION
  2
BLOCKS
  0
BLOCK
  8
0
  2
$MODEL_SPACE
 70
     0
 10
0.0
 20
0.0
 30
0.0
  3
$MODEL_SPACE
  1

  0
ENDBLK
  5
21
  8
0
  0
BLOCK
 67
     1
  8
0
  2
$PAPER_SPACE
 70
     0
 10
0.0
 20
0.0
 30
0.0
  3
$PAPER_SPACE
  1

  0
ENDBLK
  5
1D
 67
     1
  8
0
  0
ENDSEC
  0
SECTION
  2
ENTITIES
  0
ATTDEF
  5
3930
  8
DEFPOINTS
 10
4378.6618656214968723
 20
609.0308054582131945
 30
0.0
 40
0.001
  1
K-EX31414T
  3

  2
MODELNUMBER
 70
     0
1001
ACDBATTR
1070
     0
1070
     1
  0
ATTDEF
  5
3931
  8
DEFPOINTS
 10
4378.6618656214968723
 20
609.029138791546643
 30
0.0
 40
0.001
  1

  3

  2
TRADENAME
 70
     0
1001
ACDBATTR
1070
     0
1070
     1
  0
ATTDEF
  5
3932
  8
DEFPOINTS
 10
4378.6618656214968723
 20
609.0274721248799779
 30
0.0
 40
0.001
  1
BATH
  3

  2
PRODUCT
 70
     0
1001
ACDBATTR
1070
     0
1070
     1
  0
LINE
  5
21DC3
  8
0
 10
4355.6616939144523712
 20
586.2634901084154535
 30
0.0
 11
4355.6616939144523712
 21
631.7910491632741241
 31
0.0
  0
LINE
  5
21DC4
  8
0
 10
4401.6616939144523712
 20
586.2634901084154535
 30
0.0
 11
4401.6616939144523712
 21
631.7910491632741241
 31
0.0
  0
LINE
  5
21DC6
  8
0
 10
4355.8979143870228654
 20
586.0272696358448457
 30
0.0
 11
4401.4254734418809676
 21
586.0272696358448457
 31
0.0
  0
LINE
  5
21DC7
  8
0
 10
4355.8979143870228654
 20
632.0272696358448457
 30
0.0
 11
4401.4254734418809676
 21
632.0272696358448457
 31
0.0
  0
ARC
  5
21DC8
  8
0
 10
4355.8979143870228654
 20
631.7910491632741241
 30
0.0
 40
0.2362204725706931
 50
90.0000000414275974
 51
179.9999999585984085
  0
ARC
  5
21DC9
  8
0
 10
4355.8979143870228654
 20
586.2634901084154535
 30
0.0
 40
0.2362204725706931
 50
180.0000000414015915
 51
269.9999999585724026
  0
CIRCLE
  5
21DCA
  8
0
 10
4357.2364970640519459
 20
587.6020727854446477
 30
0.0
 40
0.5
  0
ARC
  5
21DCB
  8
0
 10
4378.6616939144523712
 20
609.0272696358448457
 30
0.0
 40
19.5419062940000003
 50
357.8894471940341759
 51
182.1105528059657104
  0
ARC
  5
21DCC
  8
0
 10
4378.6616939144523712
 20
609.0272696358448457
 30
0.0
 40
19.3708370210349088
 50
192.9620490243634094
 51
347.0379509756364769
  0
ARC
  5
21DCD
  8
0
 10
4383.8870998244956354
 20
608.9310169762779879
 30
0.0
 40
14.3168239431191999
 50
342.7600495263641278
 51
357.5042421564119763
  0
LINE
  5
21DCE
  8
0
 10
4397.5606966763507444
 20
604.6878817025448143
 30
0.0
 11
4397.5389397654871573
 21
604.6822821818830107
 31
0.0
  0
ARC
  5
21DCF
  8
0
 10
4373.4362880044072881
 20
608.9310169762779879
 30
0.0
 40
14.3168239431191999
 50
182.4957578435879952
 51
197.2399504736359006
  0
LINE
  5
21DD0
  8
0
 10
4359.7626911525521791
 20
604.6878817025448143
 30
0.0
 11
4359.7844480634166757
 21
604.6822821818830107
 31
0.0
  0
ARC
  5
21DD1
  8
0
 10
4361.3020751126823598
 20
605.0088743857370446
 30
0.0
 40
1.5523705512149411
 50
122.2382163863293982
 51
192.1447915491528988
  0
ARC
  5
21DD2
  8
0
 10
4378.6616720506062848
 20
574.7837637349800843
 30
0.0
 40
36.4067247276571919
 50
60.0283885915812832
 51
119.9715516138576987
  0
ARC
  5
21DD3
  8
0
 10
4396.1011240309080677
 20
605.0243735185574678
 30
0.0
 40
1.497858154021787
 50
347.0177814638360019
 51
60.0283885915812832
  0
ARC
  5
21DD4
  8
0
 10
4401.4254734418809676
 20
631.7910491632741241
 30
0.0
 40
0.2362204725706931
 50
0.0000000414015602
 51
89.9999999585723884
  0
ARC
  5
21DD5
  8
0
 10
4401.4254734418809676
 20
586.2634901084154535
 30
0.0
 40
0.2362204725706931
 50
270.0000000414275974
 51
359.9999999585984938
  0
ARC
  5
21DD6
  8
0
 10
4374.611123027199028
 20
610.2540241125263947
 30
0.0
 40
0.144663111897968
 50
94.9074529308729069
 51
176.0095866257265982
  0
LINE
  5
21DD7
  8
0
 10
4374.4668106209519465
 20
610.2640911551446834
 30
0.0
 11
4374.46681202675245
 21
609.9110184282448017
 31
0.0
  0
ARC
  5
21DD8
  8
0
 10
4374.5897038508428523
 20
609.9110189175528376
 30
0.0
 40
0.1228918240926074
 50
180.0002281297878142
 51
237.1566965630262871
  0
ARC
  5
21DD9
  8
0
 10
4374.6105047848841423
 20
609.9432421381253562
 30
0.0
 40
0.1612456348683527
 50
237.1566965630262871
 51
275.067315865202886
  0
ARC
  5
21DDA
  8
0
 10
4374.6030799132440734
 20
609.9904171566385003
 30
0.0
 40
0.1382145382797961
 50
189.6269982376248038
 51
279.0190536641500785
  0
ARC
  5
21DDB
  8
0
 10
4382.7122648017038955
 20
610.2540241125263947
 30
0.0
 40
0.144663111897968
 50
3.9904133742733792
 51
85.0925470691270789
  0
LINE
  5
21DDC
  8
0
 10
4382.856577207950977
 20
610.2640911551446834
 30
0.0
 11
4382.8565758021522925
 21
609.9110184282448017
 31
0.0
  0
ARC
  5
21DDD
  8
0
 10
4382.7336839780591617
 20
609.9110189175528376
 30
0.0
 40
0.1228918240926074
 50
302.8433034369735992
 51
359.9997718702122143
  0
ARC
  5
21DDE
  8
0
 10
4382.7128830440187812
 20
609.9432421381253562
 30
0.0
 40
0.1612456348683527
 50
264.932684134797114
 51
302.8433034369735992
  0
ARC
  5
21DDF
  8
0
 10
4382.7203079156597596
 20
609.9904171566385003
 30
0.0
 40
0.1382145382797961
 50
260.9809463358498078
 51
350.3730017623752246
  0
ARC
  5
21DE0
  8
0
 10
4378.6616939144523712
 20
576.1921562904593657
 30
0.0
 40
34.446451362628892
 50
83.226215167736882
 51
96.7737848322631322
  0
ARC
  5
21DE1
  8
0
 10
4378.6616939144523712
 20
575.6293374259762459
 30
0.0
 40
34.4618399108523192
 50
83.2727816653720083
 51
96.7272183346280201
  0
ARC
  5
21DE2
  8
0
 10
4378.6616939144523712
 20
575.6046087972109717
 30
0.0
 40
34.4156047343393325
 50
83.2637024912746568
 51
96.736297508725329
  0
LINE
  5
21DE3
  8
0
 10
4375.5366939144523712
 20
589.1094660241448082
 30
0.0
 11
4375.5366939144523712
 21
589.4394132808447466
 31
0.0
  0
LINE
  5
21DE4
  8
0
 10
4375.6666939144515709
 20
589.0981357775448259
 30
0.0
 11
4381.6566939144522621
 21
589.0981357775448259
 31
0.0
  0
LINE
  5
21DE5
  8
0
 10
4375.6666939144515709
 20
589.1021205563447438
 30
0.0
 11
4381.6566939144522621
 21
589.1021205563447438
 31
0.0
  0
LINE
  5
21DE6
  8
0
 10
4375.6666939144515709
 20
589.4507435273447982
 30
0.0
 11
4381.6566939144522621
 21
589.4507435273447982
 31
0.0
  0
ARC
  5
21DE7
  8
0
 10
4375.6665655681690623
 20
588.7007596478060805
 30
0.0
 40
0.7499838905207494
 50
89.9901948556362044
 51
99.971943881705684
  0
ARC
  5
21DE8
  8
0
 10
4375.6657107422388435
 20
589.8383116229981624
 30
0.0
 40
0.7401764984246614
 50
259.9617554962695181
 51
270.0761056788372798
  0
ARC
  5
21DE9
  8
0
 10
4375.6657107422388435
 20
589.8422964017980803
 30
0.0
 40
0.7401764984246614
 50
259.9617554962695181
 51
270.0761056788372798
  0
LINE
  5
21DEA
  8
0
 10
4381.7866939144523712
 20
589.1094660241448082
 30
0.0
 11
4381.7866939144523712
 21
589.4394132808447466
 31
0.0
  0
ARC
  5
21DEB
  8
0
 10
4381.6568222607329517
 20
588.7007596478060805
 30
0.0
 40
0.7499838905207494
 50
80.0280561182943302
 51
90.0098051443638099
  0
ARC
  5
21DEC
  8
0
 10
4381.6576770866649895
 20
589.8383116229981624
 30
0.0
 40
0.7401764984246614
 50
269.9238943211627202
 51
280.0382445037304819
  0
ARC
  5
21DED
  8
0
 10
4381.6576770866649895
 20
589.8422964017980803
 30
0.0
 40
0.7401764984246614
 50
269.9238943211627202
 51
280.0382445037304819
  0
VIEWPORT
  5
7BC8
 67
     1
  8
0
 10
8.4975296442687753
 20
4.5
 30
0.0
 40
16.9950592885375507
 41
9.0
 68
     1
 69
     1
1001
ACAD
1000
MVIEW
1002
{
1070
    16
1010
0.0
1020
0.0
1030
0.0
1010
0.0
1020
0.0
1030
1.0
1040
0.0
1040
9.0
1040
8.4975296442687753
1040
4.5
1040
50.0
1040
0.0
1040
0.0
1070
     0
1070
   100
1070
     1
1070
     1
1070
     0
1070
     0
1070
     0
1070
     0
1040
0.0
1040
0.0
1040
0.0
1040
1.0
1040
1.0
1040
0.0
1040
0.0
1070
     0
1002
{
1002
}
1002
}
  0
ENDSEC
  0
EOF
