  0
SECTION
  2
HEADER
  9
$ACADVER
  1
AC1009
  9
$INSBASE
 10
331.8922563581476766
 20
35.3536846422876465
 30
0.0
  9
$EXTMIN
 10
309.3870249969103838
 20
1.924229072583671
 30
0.0
  9
$EXTMAX
 10
331.8926073322514867
 20
62.1532980803983506
 30
0.0
  9
$LIMMIN
 10
0.0
 20
0.0
  9
$LIMMAX
 10
11.6929133858000007
 20
8.2677165353999982
  9
$ORTHOMODE
 70
     0
  9
$REGENMODE
 70
     1
  9
$FILLMODE
 70
     1
  9
$QTEXTMODE
 70
     0
  9
$MIRRTEXT
 70
     0
  9
$DRAGMODE
 70
     2
  9
$LTSCALE
 40
0.6431102362
  9
$OSMODE
 70
  4095
  9
$ATTMODE
 70
     1
  9
$TEXTSIZE
 40
0.2
  9
$TRACEWID
 40
0.05
  9
$TEXTSTYLE
  7
STANDARD
  9
$CLAYER
  8
0
  9
$CELTYPE
  6
BYLAYER
  9
$CECOLOR
 62
   256
  9
$DIMSCALE
 40
1.0
  9
$DIMASZ
 40
0.1875
  9
$DIMEXO
 40
0.0625
  9
$DIMDLI
 40
0.4443307087
  9
$DIMRND
 40
0.0
  9
$DIMDLE
 40
0.0
  9
$DIMEXE
 40
0.125
  9
$DIMTP
 40
0.01
  9
$DIMTM
 40
0.01
  9
$DIMTXT
 40
1.0
  9
$DIMCEN
 40
0.1052362205
  9
$DIMTSZ
 40
0.0
  9
$DIMTOL
 70
     1
  9
$DIMLIM
 70
     0
  9
$DIMTIH
 70
     1
  9
$DIMTOH
 70
     1
  9
$DIMSE1
 70
     0
  9
$DIMSE2
 70
     0
  9
$DIMTAD
 70
     0
  9
$DIMZIN
 70
     0
  9
$DIMBLK
  1

  9
$DIMASO
 70
     1
  9
$DIMSHO
 70
     1
  9
$DIMPOST
  1
\X
  9
$DIMAPOST
  1

  9
$DIMALT
 70
     1
  9
$DIMALTD
 70
     2
  9
$DIMALTF
 40
25.3999999999999986
  9
$DIMLFAC
 40
1.0
  9
$DIMTOFL
 70
     0
  9
$DIMTVP
 40
0.0
  9
$DIMTIX
 70
     0
  9
$DIMSOXD
 70
     0
  9
$DIMSAH
 70
     0
  9
$DIMBLK1
  1

  9
$DIMBLK2
  1

  9
$DIMSTYLE
  2
STANDARD
  9
$DIMCLRD
 70
     0
  9
$DIMCLRE
 70
     0
  9
$DIMCLRT
 70
     0
  9
$DIMTFAC
 40
1.0
  9
$DIMGAP
 40
0.09
  9
$LUNITS
 70
     2
  9
$LUPREC
 70
     4
  9
$SKETCHINC
 40
0.1
  9
$FILLETRAD
 40
0.0
  9
$AUNITS
 70
     0
  9
$AUPREC
 70
     0
  9
$MENU
  1
.
  9
$ELEVATION
 40
0.0
  9
$PELEVATION
 40
0.0
  9
$THICKNESS
 40
0.0
  9
$LIMCHECK
 70
     0
  9
$BLIPMODE
 70
     0
  9
$CHAMFERA
 40
0.0
  9
$CHAMFERB
 40
0.0
  9
$SKPOLY
 70
     0
  9
$TDCREATE
 40
2458172.4620254631154239
  9
$TDUPDATE
 40
2460398.6010995372198522
  9
$TDINDWG
 40
0.3391841782
  9
$TDUSRTIMER
 40
0.3391841782
  9
$USRTIMER
 70
     1
  9
$ANGBASE
 50
0.0
  9
$ANGDIR
 70
     0
  9
$PDMODE
 70
     0
  9
$PDSIZE
 40
0.3125
  9
$PLINEWID
 40
0.0
  9
$COORDS
 70
     1
  9
$SPLFRAME
 70
     0
  9
$SPLINETYPE
 70
     6
  9
$SPLINESEGS
 70
     8
  9
$ATTDIA
 70
     1
  9
$ATTREQ
 70
     1
  9
$HANDLING
 70
     1
  9
$HANDSEED
  5
7204
  9
$SURFTAB1
 70
     6
  9
$SURFTAB2
 70
     6
  9
$SURFTYPE
 70
     6
  9
$SURFU
 70
     6
  9
$SURFV
 70
     6
  9
$UCSNAME
  2

  9
$UCSORG
 10
0.0
 20
0.0
 30
0.0
  9
$UCSXDIR
 10
1.0
 20
0.0
 30
0.0
  9
$UCSYDIR
 10
0.0
 20
1.0
 30
0.0
  9
$PUCSNAME
  2

  9
$PUCSORG
 10
0.0
 20
0.0
 30
0.0
  9
$PUCSXDIR
 10
1.0
 20
0.0
 30
0.0
  9
$PUCSYDIR
 10
0.0
 20
1.0
 30
0.0
  9
$USERI1
 70
     0
  9
$USERI2
 70
     0
  9
$USERI3
 70
     0
  9
$USERI4
 70
     0
  9
$USERI5
 70
     0
  9
$USERR1
 40
0.0
  9
$USERR2
 40
0.0
  9
$USERR3
 40
0.0
  9
$USERR4
 40
0.0
  9
$USERR5
 40
0.0
  9
$WORLDVIEW
 70
     1
  9
$SHADEDGE
 70
     3
  9
$SHADEDIF
 70
    70
  9
$TILEMODE
 70
     1
  9
$MAXACTVP
 70
    64
  9
$PLIMCHECK
 70
     0
  9
$PEXTMIN
 10
1.0000000000000000E+20
 20
1.0000000000000000E+20
 30
1.0000000000000000E+20
  9
$PEXTMAX
 10
-1.0000000000000000E+20
 20
-1.0000000000000000E+20
 30
-1.0000000000000000E+20
  9
$PLIMMIN
 10
0.0
 20
0.0
  9
$PLIMMAX
 10
12.0
 20
9.0
  9
$UNITMODE
 70
     0
  9
$VISRETAIN
 70
     1
  9
$PLINEGEN
 70
     0
  9
$PSLTSCALE
 70
     1
  0
ENDSEC
  0
SECTION
  2
TABLES
  0
TABLE
  2
VPORT
 70
     1
  0
VPORT
  2
*ACTIVE
 70
     0
 10
0.0
 20
0.0
 11
1.0
 21
1.0
 12
196.0286575645083076
 22
26.7264894061131884
 13
0.0
 23
0.0
 14
1.0
 24
1.0
 15
0.0
 25
0.0
 16
0.0
 26
0.0
 36
30.6214257250603907
 17
124.6111586000725993
 27
5.3122741703778242
 37
0.0
 40
60.7039368317921912
 41
2.498684210526315
 42
50.0
 43
0.0
 44
0.0
 50
0.0
 51
0.0
 71
     0
 72
   100
 73
     1
 74
     1
 75
     0
 76
     0
 77
     0
 78
     0
  0
ENDTAB
  0
TABLE
  2
LTYPE
 70
     2
  0
LTYPE
  2
CONTINUOUS
 70
     0
  3
Solid line
 72
    65
 73
     0
 40
0.0
  0
LTYPE
  2
PHANTOM2
 70
     0
  3
___ _ _ ___ _ _ ___ _ _ ___ _ _
 72
    65
 73
     6
 40
1.25
 49
0.625
 49
-0.125
 49
0.125
 49
-0.125
 49
0.125
 49
-0.125
  0
ENDTAB
  0
TABLE
  2
LAYER
 70
     2
  0
LAYER
  2
0
 70
     0
 62
   255
  6
CONTINUOUS
  0
LAYER
  2
DEFPOINTS
 70
     0
 62
     7
  6
CONTINUOUS
  0
ENDTAB
  0
TABLE
  2
STYLE
 70
     1
  0
STYLE
  2
STANDARD
 70
     0
 40
0.0
 41
0.8
 50
0.0
 71
     0
 42
0.2
  3
txt
  4

  0
ENDTAB
  0
TABLE
  2
VIEW
 70
     0
  0
ENDTAB
  0
TABLE
  2
UCS
 70
     0
  0
ENDTAB
  0
TABLE
  2
APPID
 70
     9
  0
APPID
  2
ACAD
 70
     0
  0
APPID
  2
ACAD_MLEADERVER
 70
     0
  0
APPID
  2
ACAD_EXEMPT_FROM_CAD_STANDARDS
 70
     0
  0
APPID
  2
ACAD_DSTYLE_DIMJAG
 70
     0
  0
APPID
  2
ACAD_DSTYLE_DIMTALN
 70
     0
  0
APPID
  2
ACAD_NAV_VCDISPLAY
 70
     0
  0
APPID
  2
ACAECLAYERSTANDARD
 70
     0
  0
APPID
  2
ACCMTRANSPARENCY
 70
     0
  0
APPID
  2
ACDBATTR
 70
     0
  0
ENDTAB
  0
TABLE
  2
DIMSTYLE
 70
     1
  0
DIMSTYLE
  2
STANDARD
 70
     0
  3

  4

  5

  6

  7

 40
1.0
 41
0.1875
 42
0.0625
 43
0.38
 44
0.125
 45
0.0
 46
0.0
 47
0.01
 48
0.01
140
0.15625
141
0.09
142
0.0
143
25.3999999999999986
144
1.0
145
0.0
146
1.0
147
0.09
 71
     1
 72
     0
 73
     1
 74
     1
 75
     0
 76
     0
 77
     0
 78
     4
170
     0
171
     2
172
     0
173
     0
174
     0
175
     0
176
     0
177
     0
178
     0
  0
ENDTAB
  0
ENDSEC
  0
SECTION
  2
BLOCKS
  0
BLOCK
  8
0
  2
$MODEL_SPACE
 70
     0
 10
0.0
 20
0.0
 30
0.0
  3
$MODEL_SPACE
  1

  0
ENDBLK
  5
21
  8
0
  0
BLOCK
 67
     1
  8
0
  2
$PAPER_SPACE
 70
     0
 10
0.0
 20
0.0
 30
0.0
  3
$PAPER_SPACE
  1

  0
ENDBLK
  5
1D
 67
     1
  8
0
  0
BLOCK
  8
0
  2
_FILLED
 70
     0
 10
0.0
 20
0.0
 30
0.0
  3
_FILLED
  1

  0
SOLID
  5
572C
  8
0
  6
BYBLOCK
 62
     0
 10
0.0
 20
0.0
 30
0.0
 11
-1.0
 21
0.1666666667
 31
0.0
 12
-1.0
 22
-0.1666666667
 32
0.0
 13
-1.0
 23
-0.1666666667
 33
0.0
  0
ENDBLK
  5
572D
  8
0
  6
BYBLOCK
 62
     0
  0
ENDSEC
  0
SECTION
  2
ENTITIES
  0
ATTDEF
  5
4C62
  8
DEFPOINTS
 10
331.881940665584807
 20
35.3557336534618614
 30
0.0
 40
0.001
  1
K-EX31845T-9
  3

  2
MODELNUMBER
 70
     0
1001
ACDBATTR
1070
     0
1070
     1
  0
ATTDEF
  5
4C63
  8
DEFPOINTS
 10
331.881940665584807
 20
35.3540669867952033
 30
0.0
 40
0.001
  1
SPAVIVA
  3

  2
TRADENAME
 70
     0
1001
ACDBATTR
1070
     0
1070
     1
  0
ATTDEF
  5
4C64
  8
DEFPOINTS
 10
331.881940665584807
 20
35.3524003201285311
 30
0.0
 40
0.001
  1
SHOWER COLUMN
  3

  2
PRODUCT
 70
     0
1001
ACDBATTR
1070
     0
1070
     1
  0
LINE
  5
704E
  8
0
 10
331.8922563581476766
 20
62.1411023622618472
 30
0.0
 11
331.8922563581476766
 21
61.3536787392626479
 31
0.0
  0
LINE
  5
704F
  8
0
 10
312.9062547269476795
 20
61.1407685030627022
 30
0.0
 11
313.8589807112476251
 21
61.1407685030627022
 31
0.0
  0
LINE
  5
7050
  8
0
 10
312.5126874705476894
 20
60.1683275581626731
 30
0.0
 11
314.2525479676476152
 21
60.1683275581626731
 31
0.0
  0
LINE
  5
7051
  8
0
 10
309.3987249969105164
 20
57.3908472431626819
 30
0.0
 11
317.3665104412847882
 21
57.3908472431626819
 31
0.0
  0
LINE
  5
7052
  8
0
 10
329.6094850549711737
 20
44.0426664970104866
 30
0.0
 11
331.2819017564756905
 21
44.0426664970104866
 31
0.0
  0
LINE
  5
7053
  8
0
 10
329.594092932504509
 20
42.8615643066626717
 30
0.0
 11
331.2759237632758982
 21
42.8615643066626717
 31
0.0
  0
LINE
  5
7054
  8
0
 10
328.8211983372856935
 20
42.7080202961125792
 30
0.0
 11
329.5939260997602105
 21
42.7080202961125792
 31
0.0
  0
LINE
  5
7055
  8
0
 10
328.7528786971793124
 20
44.1253431307126789
 30
0.0
 11
329.6585480433413977
 21
44.1253431307126789
 31
0.0
  0
LINE
  5
7056
  8
0
 10
312.6857563017476878
 20
62.1529023622618411
 30
0.0
 11
329.2032893726478164
 21
62.1529023622618411
 31
0.0
  0
LINE
  5
7057
  8
0
 10
329.2268893726478041
 20
62.1529023622618411
 30
0.0
 11
331.8804563581475122
 21
62.1529023622618411
 31
0.0
  0
ARC
  5
7058
  8
0
 10
329.2268893726478041
 20
62.1411023622618472
 30
0.0
 40
0.0118
 50
90.0
 51
180.0
  0
LINE
  5
7059
  8
0
 10
313.0479409304916771
 20
60.2729891873010004
 30
0.0
 11
313.7172945077036275
 21
60.2729891873010004
 31
0.0
  0
LINE
  5
705A
  8
0
 10
313.0296478231218771
 20
60.3921724842626801
 30
0.0
 11
313.7355876150734275
 21
60.3921724842626801
 31
0.0
  0
LINE
  5
705B
  8
0
 10
312.6857563017476878
 20
61.341878739262647
 30
0.0
 11
313.067657089147815
 21
61.341878739262647
 31
0.0
  0
LINE
  5
705C
  8
0
 10
313.6975780840840002
 20
61.341878739262647
 30
0.0
 11
314.0794791364476168
 21
61.341878739262647
 31
0.0
  0
LINE
  5
705D
  8
0
 10
312.6739563017476939
 20
61.3536787392626479
 30
0.0
 11
312.6739563017476939
 21
62.1411023622618472
 31
0.0
  0
ARC
  5
705E
  8
0
 10
312.6857563017476878
 20
61.3536787392626977
 30
0.0
 40
0.0118
 50
180.0000000000358114
 51
269.9999999999673719
  0
ARC
  5
705F
  8
0
 10
312.6857563017476878
 20
62.1411023622618472
 30
0.0
 40
0.0118
 50
90.0
 51
180.0
  0
LINE
  5
7060
  8
0
 10
313.0735626009478096
 20
61.3464976204932668
 30
0.0
 11
313.0735626009478096
 21
61.1407685030627022
 31
0.0
  0
ARC
  5
7061
  8
0
 10
313.86022434050318
 20
60.3346195229704492
 30
0.0
 40
1.2816918415621501
 50
120.5196282132062038
 51
128.1976254588894903
  0
ARC
  5
7062
  8
0
 10
313.4243217588798984
 20
61.074055887629072
 30
0.0
 40
0.4233345744259876
 50
103.7190138145481058
 51
120.5196282131988994
  0
ARC
  5
7063
  8
0
 10
313.3833139441031221
 20
61.2420344234569711
 30
0.0
 40
0.2504229514168048
 50
72.7928189673564248
 51
103.7190138145545006
  0
ARC
  5
7064
  8
0
 10
313.3067292147724743
 20
60.9947388617908288
 30
0.0
 40
0.5093057735321138
 50
57.9486718828550593
 51
72.7928189673564248
  0
ARC
  5
7065
  8
0
 10
312.8263125943403793
 20
60.2274419708960025
 30
0.0
 40
1.4145928263305769
 50
51.9817297872480921
 51
57.9486718828550593
  0
LINE
  5
7066
  8
0
 10
312.8865547269476792
 20
61.0128157471626693
 30
0.0
 11
312.8865547269476792
 21
61.1210685030626522
 31
0.0
  0
LINE
  5
7067
  8
0
 10
312.9278933096475157
 20
60.9714771644626694
 30
0.0
 11
312.8865547269476792
 21
61.0128157471626693
 31
0.0
  0
LINE
  5
7068
  8
0
 10
312.9278933096475157
 20
60.9714771644626694
 30
0.0
 11
312.9278933096475157
 21
60.4729722972771171
 31
0.0
  0
ARC
  5
7069
  8
0
 10
312.9062547269476795
 20
61.1210685030626522
 30
0.0
 40
0.0197
 50
90.0000000000390656
 51
179.9999999999901945
  0
ARC
  5
706A
  8
0
 10
313.1149011836475893
 20
60.6040072519626278
 30
0.0
 40
0.2283464566999559
 50
215.0186282715054915
 51
248.0775735324324955
  0
ARC
  5
706B
  8
0
 10
313.0034838607365941
 20
60.3271611244781525
 30
0.0
 40
0.0700787402050347
 50
309.3745638240791891
 51
68.0775735324325524
  0
ARC
  5
706C
  8
0
 10
313.382617919456095
 20
59.8651777656137369
 30
0.0
 40
0.5275593261434735
 50
129.3745638240791038
 51
144.922936174233314
  0
LINE
  5
706D
  8
0
 10
312.4732874705478025
 20
60.1289275581626725
 30
0.0
 11
312.4732874705478025
 21
60.05276764342522
 31
0.0
  0
ARC
  5
706E
  8
0
 10
312.5126874705476894
 20
60.1289275581626725
 30
0.0
 40
0.0394
 50
89.9999999999869686
 51
180.0000000000260059
  0
ARC
  5
706F
  8
0
 10
313.2265254097806064
 20
17.7627459032196384
 30
0.0
 40
42.2680355189996533
 50
89.7884110118560557
 51
91.2509501951496702
  0
ARC
  5
7070
  8
0
 10
312.8036799070040956
 20
37.1267565942503666
 30
0.0
 40
22.8994086094437783
 50
91.2509501951496702
 51
93.7163459580042542
  0
ARC
  5
7071
  8
0
 10
311.8121874612519946
 20
52.3913858755004185
 30
0.0
 40
7.6026127239003074
 50
93.7163459580042542
 51
98.2495725442680055
  0
ARC
  5
7072
  8
0
 10
311.0701936003692936
 20
57.5090973173077984
 30
0.0
 40
2.431391853429397
 50
98.2495725442680055
 51
113.1891907181412051
  0
ARC
  5
7073
  8
0
 10
310.5443360232275154
 20
58.7366545110347715
 30
0.0
 40
1.0959432938404929
 50
113.1891907181412051
 51
145.270781136870113
  0
ARC
  5
7074
  8
0
 10
310.4371653886203148
 20
58.8109438627784016
 30
0.0
 40
0.9655421715117128
 50
145.270781136870113
 51
171.0312005566630944
  0
ARC
  5
7075
  8
0
 10
315.0902162564461833
 20
58.0765701744741705
 30
0.0
 40
5.6761883153700712
 50
171.0312005566630944
 51
178.0651128680848956
  0
ARC
  5
7076
  8
0
 10
-65.0287218227401809
 20
70.9181261253604021
 30
0.0
 40
374.6596010151740188
 50
357.9327269827801956
 51
358.0651128680848956
  0
ARC
  5
7077
  8
0
 10
309.3987249969105164
 20
57.4025472431626369
 30
0.0
 40
0.0117
 50
177.932711494557708
 51
270.0000000000326281
  0
ARC
  5
7078
  8
0
 10
312.5130109208967042
 20
60.0558521486991026
 30
0.0
 40
0.0398430254927903
 50
184.4400780726016933
 51
232.2703821717448136
  0
ARC
  5
7079
  8
0
 10
313.0078950186220936
 20
60.1414589676169271
 30
0.0
 40
0.027330353313815
 50
100.5472159657627031
 51
146.9834909649432859
  0
ARC
  5
707A
  8
0
 10
313.0257579303579973
 20
60.1298513381320205
 30
0.0
 40
0.0486334206503072
 50
146.9834909649405859
 51
181.0531280370888112
  0
ARC
  5
707B
  8
0
 10
313.0254448090997812
 20
60.0571011689795
 30
0.0
 40
0.0483159660621968
 50
179.264290377545791
 51
213.9852398246765972
  0
LINE
  5
707C
  8
0
 10
312.977132826147681
 20
60.0577215557626616
 30
0.0
 11
312.9771327247476052
 21
60.1289574793626684
 31
0.0
  0
LINE
  5
707D
  8
0
 10
331.8804563581475122
 20
61.341878739262647
 30
0.0
 11
331.3253162006477055
 21
61.341878739262647
 31
0.0
  0
LINE
  5
707E
  8
0
 10
331.2899383255467001
 20
61.341878739262647
 30
0.0
 11
331.026114625847697
 21
61.341878739262647
 31
0.0
  0
LINE
  5
707F
  8
0
 10
329.8450122636476749
 20
61.341878739262647
 30
0.0
 11
329.2268893726478041
 21
61.341878739262647
 31
0.0
  0
ARC
  5
7080
  8
0
 10
329.2268893726478041
 20
61.3536787392626479
 30
0.0
 40
0.0118
 50
180.0
 51
270.0
  0
LINE
  5
7081
  8
0
 10
329.2032893726478164
 20
61.341878739262647
 30
0.0
 11
313.6975783490474896
 21
61.341878739262647
 31
0.0
  0
LINE
  5
7082
  8
0
 10
313.691672837247495
 20
61.3464976204932668
 30
0.0
 11
313.691672837247495
 21
61.1407685030627022
 31
0.0
  0
LINE
  5
7083
  8
0
 10
313.8786807112476254
 20
61.0128157471626693
 30
0.0
 11
313.8786807112476254
 21
61.1210685030626522
 31
0.0
  0
LINE
  5
7084
  8
0
 10
313.8373421285477889
 20
60.9714771644626694
 30
0.0
 11
313.8786807112476254
 21
61.0128157471626693
 31
0.0
  0
LINE
  5
7085
  8
0
 10
313.8373421285477889
 20
60.9714771644626694
 30
0.0
 11
313.8373421285477889
 21
60.4729722972771171
 31
0.0
  0
ARC
  5
7086
  8
0
 10
313.8589807112476251
 20
61.1210685030626522
 30
0.0
 40
0.0197
 50
0.0000000000097707
 51
89.9999999999609201
  0
ARC
  5
7087
  8
0
 10
313.6503342545477153
 20
60.6040072519626278
 30
0.0
 40
0.2283464566999559
 50
291.9224264675673908
 51
324.9813717284944801
  0
ARC
  5
7088
  8
0
 10
313.7617515774587105
 20
60.3271611244781525
 30
0.0
 40
0.0700787402050347
 50
111.922426467567405
 51
230.6254361759208109
  0
ARC
  5
7089
  8
0
 10
313.3826175187392096
 20
59.8651777656137369
 30
0.0
 40
0.5275593261434735
 50
35.0770638257666221
 51
50.6254361759208322
  0
LINE
  5
708A
  8
0
 10
314.2919479676475021
 20
60.1289275581626725
 30
0.0
 11
314.2919479676475021
 21
60.05276764342522
 31
0.0
  0
ARC
  5
708B
  8
0
 10
314.2525479676476152
 20
60.1289275581626725
 30
0.0
 40
0.0394
 50
359.9999999999740226
 51
90.0000000000130314
  0
ARC
  5
708C
  8
0
 10
313.5387100284146982
 20
17.7627459032196384
 30
0.0
 40
42.2680355189996533
 50
88.7490498048503582
 51
90.2115889881439585
  0
ARC
  5
708D
  8
0
 10
313.961555531191209
 20
37.1267565942503666
 30
0.0
 40
22.8994086094437783
 50
86.2836540419957458
 51
88.7490498048503582
  0
ARC
  5
708E
  8
0
 10
314.95304797694331
 20
52.3913858755004185
 30
0.0
 40
7.6026127239003074
 50
81.7504274557319945
 51
86.2836540419957458
  0
ARC
  5
708F
  8
0
 10
315.695041837826011
 20
57.5090973173077984
 30
0.0
 40
2.431391853429397
 50
66.8108092818588233
 51
81.7504274557319945
  0
ARC
  5
7090
  8
0
 10
316.2208994149677892
 20
58.7366545110347715
 30
0.0
 40
1.0959432938404929
 50
34.7292188631299226
 51
66.8108092818588233
  0
ARC
  5
7091
  8
0
 10
316.3280700495747055
 20
58.8109438627784016
 30
0.0
 40
0.9655421715117128
 50
8.9687994433369056
 51
34.7292188631299226
  0
ARC
  5
7092
  8
0
 10
311.6750191817491213
 20
58.0765701744741705
 30
0.0
 40
5.6761883153700712
 50
1.934887131915102
 51
8.9687994433369056
  0
ARC
  5
7093
  8
0
 10
691.7939572609351444
 20
70.9181261253604021
 30
0.0
 40
374.6596010151740188
 50
181.9348871319151044
 51
182.0672730172198897
  0
ARC
  5
7094
  8
0
 10
317.3665104412847882
 20
57.4025472431626369
 30
0.0
 40
0.0117
 50
269.9999999999673719
 51
2.0672885054422472
  0
ARC
  5
7095
  8
0
 10
314.2522245172986004
 20
60.0558521486991026
 30
0.0
 40
0.0398430254927903
 50
307.7296178282550727
 51
355.5599219273983067
  0
ARC
  5
7096
  8
0
 10
313.757340419573211
 20
60.1414589676169271
 30
0.0
 40
0.027330353313815
 50
33.016509035056707
 51
79.4527840342372542
  0
ARC
  5
7097
  8
0
 10
313.7394775078373073
 20
60.1298513381320205
 30
0.0
 40
0.0486334206503072
 50
358.9468719629110751
 51
33.0165090350594426
  0
ARC
  5
7098
  8
0
 10
313.7397906290955234
 20
60.0571011689795
 30
0.0
 40
0.0483159660621968
 50
326.0147601753233744
 51
0.7357096224542105
  0
LINE
  5
7099
  8
0
 10
313.7881026120476236
 20
60.0577215557626616
 30
0.0
 11
313.7881027134476994
 21
60.1289574793626684
 31
0.0
  0
LINE
  5
709A
  8
0
 10
329.215089372647526
 20
62.1411023622618472
 30
0.0
 11
329.215089372647526
 21
61.3536787392626479
 31
0.0
  0
ARC
  5
709B
  8
0
 10
329.2032893726478164
 20
62.1411023622618472
 30
0.0
 40
0.0118
 50
359.9999999999316174
 51
90.0000000000716369
  0
ARC
  5
709C
  8
0
 10
329.2032893726478164
 20
61.3536787392626479
 30
0.0
 40
0.0118
 50
270.0
 51
0.0000000000162844
  0
LINE
  5
709D
  8
0
 10
331.3017051770476087
 20
62.1411023622618472
 30
0.0
 11
331.3017051770476087
 21
61.3536787392626479
 31
0.0
  0
ARC
  5
709E
  8
0
 10
331.2899051770477854
 20
62.1411023622618472
 30
0.0
 40
0.0118
 50
359.9999999999316174
 51
90.0000000000716369
  0
ARC
  5
709F
  8
0
 10
331.2899051770477854
 20
61.3536787392626479
 30
0.0
 40
0.0118
 50
269.9999999999283204
 51
0.0000000000162844
  0
ARC
  5
70A0
  8
0
 10
331.8804563581475122
 20
62.1411023622618472
 30
0.0
 40
0.0118
 50
359.9999999999316174
 51
90.0
  0
ARC
  5
70A1
  8
0
 10
331.8804563581475122
 20
61.3536787392626479
 30
0.0
 40
0.0118
 50
270.0
 51
359.9999999999836859
  0
LINE
  5
70A2
  8
0
 10
331.3135162006477117
 20
62.152902282601481
 30
0.0
 11
331.3135162006477117
 21
61.3536787392626479
 31
0.0
  0
ARC
  5
70A3
  8
0
 10
331.3253162006477055
 20
62.1411023622618472
 30
0.0
 40
0.0118
 50
90.0
 51
180.0000000000358114
  0
ARC
  5
70A4
  8
0
 10
331.3253162006477055
 20
61.3536787392626479
 30
0.0
 40
0.0118
 50
179.999999999947903
 51
269.9999999999283204
  0
LINE
  5
70A5
  8
0
 10
331.3017051770476087
 20
61.8103825959626718
 30
0.0
 11
331.3135162006477117
 21
61.8103825959626718
 31
0.0
  0
ARC
  5
70A6
  8
0
 10
331.3135162006477117
 20
61.7867605527627006
 30
0.0
 40
0.0118110236000035
 50
90.0
 51
180.0000092528904077
  0
LINE
  5
70A7
  8
0
 10
329.8450122636476749
 20
61.7473904034627026
 30
0.0
 11
329.8450122636476749
 21
52.460014462962647
 31
0.0
  0
LINE
  5
70A8
  8
0
 10
329.8450122636476749
 20
52.444214462962691
 30
0.0
 11
329.8450122636476749
 21
48.9634382692361214
 31
0.0
  0
LINE
  5
70A9
  8
0
 10
329.8450122636476749
 20
48.1887229124046073
 30
0.0
 11
329.8450122636476749
 21
44.0426664970104866
 31
0.0
  0
LINE
  5
70AA
  8
0
 10
329.8450122636476749
 20
42.8615643066626717
 30
0.0
 11
329.8450122636476749
 21
17.4088333102626507
 31
0.0
  0
LINE
  5
70AB
  8
0
 10
329.8450122636476749
 20
17.3950333102626509
 30
0.0
 11
329.8450122636476749
 21
15.6410807850626803
 31
0.0
  0
LINE
  5
70AC
  8
0
 10
331.026114625847697
 20
61.7556314096049732
 30
0.0
 11
331.026114625847697
 21
55.9954215495626499
 31
0.0
  0
LINE
  5
70AD
  8
0
 10
331.026114625847697
 20
52.444214462962691
 30
0.0
 11
331.026114625847697
 21
52.2710121282626119
 31
0.0
  0
LINE
  5
70AE
  8
0
 10
331.026114625847697
 20
52.0032961591373919
 30
0.0
 11
331.026114625847697
 21
51.6804609471626009
 31
0.0
  0
LINE
  5
70AF
  8
0
 10
331.026114625847697
 20
51.4127449780373809
 30
0.0
 11
331.026114625847697
 21
44.0426664970104866
 31
0.0
  0
LINE
  5
70B0
  8
0
 10
331.026114625847697
 20
42.8615643066626717
 30
0.0
 11
331.026114625847697
 21
17.4088333102626507
 31
0.0
  0
LINE
  5
70B1
  8
0
 10
331.026114625847697
 20
17.3950333102626509
 30
0.0
 11
331.026114625847697
 21
15.6410807850626803
 31
0.0
  0
ARC
  5
70B2
  8
0
 10
330.2505240747477728
 20
61.7473904034627026
 30
0.0
 40
0.4055118109999825
 50
114.2475340997127944
 51
180.0000000000032117
  0
ARC
  5
70B3
  8
0
 10
330.2422396498182025
 20
61.7657832586729114
 30
0.0
 40
0.3853393342259787
 50
93.0888750157500908
 51
114.2475340997127944
  0
ARC
  5
70B4
  8
0
 10
330.3595253305986716
 20
59.5923502455569292
 30
0.0
 40
2.5619346097465909
 50
91.8823338755503869
 51
93.0888750157500908
  0
ARC
  5
70B5
  8
0
 10
330.6108847217009838
 20
61.7213451959639201
 30
0.0
 40
0.4319528844344331
 50
52.133058267065131
 51
92.4529649683206998
  0
ARC
  5
70B6
  8
0
 10
330.6435150380576147
 20
61.7633106128637266
 30
0.0
 40
0.3787943125847218
 50
17.4527748327380188
 51
52.133058267065131
  0
ARC
  5
70B7
  8
0
 10
330.5559915302732747
 20
61.7357938478496067
 30
0.0
 40
0.4705414475355343
 50
2.4162494885718742
 51
17.4527748327380188
  0
LINE
  5
70B8
  8
0
 10
331.0102914958492875
 20
61.8583532013336708
 30
0.0
 11
331.0138259631476103
 21
61.8620412918232816
 31
0.0
  0
ARC
  5
70B9
  8
0
 10
331.0222807677697006
 20
61.8539386624182086
 30
0.0
 40
0.0117105219555387
 50
358.7815070114248215
 51
136.2184926384898063
  0
LINE
  5
70BA
  8
0
 10
331.0339886416476816
 20
61.8536896368626685
 30
0.0
 11
331.0339886416476816
 21
61.6410912117626708
 31
0.0
  0
ARC
  5
70BB
  8
0
 10
331.0221776180476922
 20
61.6410912117626708
 30
0.0
 40
0.0118110236000312
 50
289.4712203092357754
 51
359.999999999879492
  0
LINE
  5
70BC
  8
0
 10
331.8922563581476766
 20
52.4521144629626974
 30
0.0
 11
329.852912263647795
 21
52.4521144629626974
 31
0.0
  0
ARC
  5
70BD
  8
0
 10
329.852912263647795
 20
52.460014462962647
 30
0.0
 40
0.0079
 50
180.0
 51
270.0
  0
ARC
  5
70BE
  8
0
 10
331.0182146258475768
 20
52.444214462962691
 30
0.0
 40
0.0079
 50
0.0000000000260551
 51
90.0
  0
LINE
  5
70BF
  8
0
 10
331.8922563581476766
 20
52.4521144629626974
 30
0.0
 11
331.8922563581476766
 21
55.995421566662678
 31
0.0
  0
LINE
  5
70C0
  8
0
 10
330.829264232247624
 20
52.4639144629626912
 30
0.0
 11
330.829264232247624
 21
55.9836215666626913
 31
0.0
  0
ARC
  5
70C1
  8
0
 10
330.8410642322476178
 20
52.4639144629626912
 30
0.0
 40
0.0118
 50
179.999999999947903
 51
269.9999999999283204
  0
LINE
  5
70C2
  8
0
 10
330.8410642322476178
 20
55.995421566662678
 30
0.0
 11
331.8922563581476766
 21
55.995421566662678
 31
0.0
  0
ARC
  5
70C3
  8
0
 10
330.8410642322476178
 20
55.9836215666626913
 30
0.0
 40
0.0118
 50
90.0000000000716369
 51
180.000000000052097
  0
ARC
  5
70C4
  8
0
 10
329.852912263647795
 20
52.444214462962691
 30
0.0
 40
0.0079
 50
90.0
 51
180.0
  0
ARC
  5
70C5
  8
0
 10
331.5397521274231281
 20
52.1371541437000019
 30
0.0
 40
0.5307932206195034
 50
165.3931645939885016
 51
194.6069189612352943
  0
ARC
  5
70C6
  8
0
 10
331.0221776180476922
 20
52.030854647462661
 30
0.0
 40
0.0118110235999994
 50
270.4309282204650913
 51
0.0
  0
LINE
  5
70C7
  8
0
 10
331.0339886416476816
 20
52.030854647462661
 30
0.0
 11
331.0339886416476816
 21
52.2434530725626587
 31
0.0
  0
ARC
  5
70C8
  8
0
 10
331.0221776179456015
 20
52.2434530725626587
 30
0.0
 40
0.0118110237019664
 50
359.9999999999772058
 51
89.5696983114978877
  0
ARC
  5
70C9
  8
0
 10
331.5397521274231281
 20
51.5466029625999909
 30
0.0
 40
0.5307932206195034
 50
165.3931645939885016
 51
194.6069189612352943
  0
ARC
  5
70CA
  8
0
 10
331.0221776180476922
 20
51.4403034663626499
 30
0.0
 40
0.0118110235999994
 50
270.4309282204650913
 51
0.0
  0
LINE
  5
70CB
  8
0
 10
331.0339886416476816
 20
51.4403034663626499
 30
0.0
 11
331.0339886416476816
 21
51.6529018914626974
 31
0.0
  0
ARC
  5
70CC
  8
0
 10
331.0221776179456015
 20
51.6529018914626974
 30
0.0
 40
0.0118110237019664
 50
359.9999999999772058
 51
89.5696983114978877
  0
LINE
  5
70CD
  8
0
 10
331.2956234932331085
 20
42.8811611581772283
 30
0.0
 11
331.3016014864331282
 21
44.0228633485250427
 31
0.0
  0
ARC
  5
70CE
  8
0
 10
331.2759237632758982
 20
42.8812643066627288
 30
0.0
 40
0.0197
 50
270.0
 51
359.7000000059184117
  0
ARC
  5
70CF
  8
0
 10
331.2819017564756905
 20
44.0229664970104224
 30
0.0
 40
0.0197
 50
359.7000000060226057
 51
90.0000000000390656
  0
LINE
  5
70D0
  8
0
 10
329.5546967730983852
 20
42.9015144194317486
 30
0.0
 11
329.5700888955652772
 21
44.0038166097795624
 31
0.0
  0
ARC
  5
70D1
  8
0
 10
329.594092932504509
 20
42.9009643066626722
 30
0.0
 40
0.0394
 50
179.1999958351609052
 51
270.0
  0
ARC
  5
70D2
  8
0
 10
329.6094850549711737
 20
44.0032664970104221
 30
0.0
 40
0.0394
 50
90.0
 51
179.1999958351445912
  0
LINE
  5
70D3
  8
0
 10
329.6637886458474895
 20
44.0240664970104376
 30
0.0
 11
329.6637886458474895
 21
42.8801643066626568
 31
0.0
  0
LINE
  5
70D4
  8
0
 10
329.7868240372476976
 20
42.881264306662672
 30
0.0
 11
329.7868240372476976
 21
44.0229664970104935
 31
0.0
  0
ARC
  5
70D5
  8
0
 10
329.645188645847611
 20
44.0240664970104376
 30
0.0
 40
0.0186
 50
0.0000000000423395
 51
90.0
  0
ARC
  5
70D6
  8
0
 10
329.645188645847611
 20
42.8801643066626568
 30
0.0
 40
0.0186
 50
270.0
 51
359.9999999999740226
  0
ARC
  5
70D7
  8
0
 10
329.7671240372475836
 20
42.881264306662672
 30
0.0
 40
0.0197
 50
270.0
 51
0.0000000000325689
  0
ARC
  5
70D8
  8
0
 10
329.7671240372475836
 20
44.0229664970104935
 30
0.0
 40
0.0197
 50
359.9999999999674856
 51
90.0000000000390656
  0
LINE
  5
70D9
  8
0
 10
329.6582373838477906
 20
44.1253431297626477
 30
0.0
 11
329.655598988472093
 21
44.0426664970104866
 31
0.0
  0
LINE
  5
70DA
  8
0
 10
329.6179073886416973
 20
42.8615643066626717
 30
0.0
 11
329.6136160762720806
 21
42.7270919451354416
 31
0.0
  0
LINE
  5
70DB
  8
0
 10
328.7528786971793124
 20
44.1253431307126789
 30
0.0
 11
328.7557541150271732
 21
44.0426659580039086
 31
0.0
  0
LINE
  5
70DC
  8
0
 10
328.7968314967566243
 20
42.8615639534765478
 30
0.0
 11
328.8015102356699231
 21
42.727035712469501
 31
0.0
  0
ARC
  5
70DD
  8
0
 10
328.8211983372856935
 20
42.7277202961125226
 30
0.0
 40
0.0197
 50
181.9914544237992118
 51
270.0000000000391083
  0
ARC
  5
70DE
  8
0
 10
329.5939260997602105
 20
42.7277202961125226
 30
0.0
 40
0.0197
 50
270.0
 51
358.1721844529428722
  0
LINE
  5
70DF
  8
0
 10
328.6442865079475268
 20
44.0426660316626908
 30
0.0
 11
328.8019720612476249
 21
44.0426659274626715
 31
0.0
  0
ARC
  5
70E0
  8
0
 10
328.8019720352314721
 20
44.0032958222433166
 30
0.0
 40
0.0393701052193262
 50
0.8000378567474811
 51
89.9999621384490922
  0
LINE
  5
70E1
  8
0
 10
328.841338302447582
 20
44.0038455407626472
 30
0.0
 11
328.8567319111415941
 21
42.9014833463338618
 31
0.0
  0
ARC
  5
70E2
  8
0
 10
328.8173656859945027
 20
42.9009336284020222
 30
0.0
 40
0.0393700631463888
 50
269.9989167421368847
 51
0.8000378567572509
  0
LINE
  5
70E3
  8
0
 10
328.817364941647611
 20
42.8615635652626494
 30
0.0
 11
328.6442865079785065
 21
42.8615668375555785
 31
0.0
  0
ARC
  5
70E4
  8
0
 10
328.64428688011958
 20
42.8812501602825975
 30
0.0
 40
0.0196833227305156
 50
180.0044178997499102
 51
269.9989167421368847
  0
LINE
  5
70E5
  8
0
 10
328.6246035574476991
 20
42.8812486425626886
 30
0.0
 11
328.6245155220145193
 21
44.0229809225685926
 31
0.0
  0
ARC
  5
70E6
  8
0
 10
328.6441993064519806
 20
44.0229824403241423
 30
0.0
 40
0.0196837844959618
 50
89.7461720833392889
 51
180.0044178997694075
  0
ARC
  5
70E7
  8
0
 10
330.3545230989706738
 20
44.7720441701179013
 30
0.0
 40
1.680628701665549
 50
181.1170652781902106
 51
190.2634360480354871
  0
ARC
  5
70E8
  8
0
 10
326.0819866054961835
 20
43.9984089841213901
 30
0.0
 40
2.6613845973793131
 50
5.3602905613301521
 51
10.2634360480355902
  0
ARC
  5
70E9
  8
0
 10
326.5233603409953957
 20
44.0042941907665295
 30
0.0
 40
2.2216728432212132
 50
3.4100164149534149
 51
6.2725781041711244
  0
ARC
  5
70EA
  8
0
 10
328.7528786971793124
 20
44.1371431307125519
 30
0.0
 40
0.0118
 50
183.4100164143337111
 51
270.000000000208388
  0
LINE
  5
70EB
  8
0
 10
328.7476056388478014
 20
44.0229808877626922
 30
0.0
 11
328.747605406664718
 21
42.8812486174489891
 31
0.0
  0
ARC
  5
70EC
  8
0
 10
328.7675342083247756
 20
42.8812486133962665
 30
0.0
 40
0.0199288016600723
 50
179.9999883483365863
 51
261.0292966120999267
  0
ARC
  5
70ED
  8
0
 10
328.7670895644444045
 20
44.0234257143350689
 30
0.0
 40
0.0194891178032413
 50
99.1664130006983555
 51
181.3079307956517141
  0
ARC
  5
70EE
  8
0
 10
327.8350604027245936
 20
44.7873821199184974
 30
0.0
 40
1.9027615120257899
 50
349.41253140964659
 51
358.5513967712619205
  0
ARC
  5
70EF
  8
0
 10
332.9361000959092962
 20
43.9087417245470988
 30
0.0
 40
3.2737006710744301
 50
170.7001529509595059
 51
176.013697305140397
  0
ARC
  5
70F0
  8
0
 10
329.6585480433413977
 20
44.1371431307125519
 30
0.0
 40
0.0118
 50
269.999999999791612
 51
356.0136973055678027
  0
LINE
  5
70F1
  8
0
 10
328.6742138009477117
 20
44.7392799237626875
 30
0.0
 11
328.6742138009477117
 21
47.4088028054060828
 31
0.0
  0
LINE
  5
70F2
  8
0
 10
329.7372138009478135
 20
44.7392799237626875
 30
0.0
 11
329.7372145436474966
 21
47.7541928820626822
 31
0.0
  0
ARC
  5
70F3
  8
0
 10
324.0041556910809959
 20
47.4369963266177024
 30
0.0
 40
4.6701432123833344
 50
359.6541049141823123
 51
1.5805634439044629
  0
ARC
  5
70F4
  8
0
 10
328.562499887688773
 20
47.56277488133167
 30
0.0
 40
0.1100640398716802
 50
1.5805634439044629
 51
107.8067311820820038
  0
ARC
  5
70F5
  8
0
 10
328.5252635724356765
 20
47.6787056289030602
 30
0.0
 40
0.0117
 50
197.9999925133305112
 51
287.80673118210251
  0
ARC
  5
70F6
  8
0
 10
331.194934404038122
 20
47.782115328738989
 30
0.0
 40
1.4579872614001519
 50
171.5812116256174988
 51
181.0973594924070937
  0
ARC
  5
70F7
  8
0
 10
330.1185431392565874
 20
47.9414236452199134
 30
0.0
 40
0.3698708638590641
 50
144.8764206403241985
 51
171.5812116256174988
  0
ARC
  5
70F8
  8
0
 10
330.0308859698216111
 20
48.0030840441897908
 30
0.0
 40
0.2626991131291577
 50
104.7852293115368951
 51
144.8764206403241985
  0
ARC
  5
70F9
  8
0
 10
329.9599999579641008
 20
48.2682397515313184
 30
0.0
 40
0.0117992157521075
 50
289.0239720143143245
 51
18.0277717951938001
  0
LINE
  5
70FA
  8
0
 10
329.971219910347827
 20
48.2718913485626828
 30
0.0
 11
329.4913761998603263
 21
49.7486984367409377
 31
0.0
  0
ARC
  5
70FB
  8
0
 10
329.4801537329681196
 20
49.7450520362073121
 30
0.0
 40
0.0118
 50
18.0000000000674802
 51
106.9949557390943937
  0
LINE
  5
70FC
  8
0
 10
329.4767047403320248
 20
49.7563367360171469
 30
0.0
 11
329.3775017756477155
 21
49.7260168958426334
 31
0.0
  0
ARC
  5
70FD
  8
0
 10
329.3407307066680119
 20
49.8463275253319011
 30
0.0
 40
0.1258044477831076
 50
197.5973355550273993
 51
286.9949557390945074
  0
LINE
  5
70FE
  8
0
 10
326.9398689658476087
 20
52.5201886683626569
 30
0.0
 11
328.514136210722711
 21
47.6750901315228433
 31
0.0
  0
ARC
  5
70FF
  8
0
 10
338.6504537978761959
 20
16.1869009208950807
 30
0.0
 40
38.1857270155251669
 50
106.9274439514638004
 51
107.8469738075991984
  0
ARC
  5
7100
  8
0
 10
327.8669707918512017
 20
51.6184985196828805
 30
0.0
 40
1.1495067150725891
 50
93.1538381644998879
 51
106.9274439514638004
  0
ARC
  5
7101
  8
0
 10
327.8305494870095913
 20
52.279495979402661
 30
0.0
 40
0.4875065993607941
 50
37.8496222713627475
 51
93.1538381644998879
  0
ARC
  5
7102
  8
0
 10
327.1432898425337044
 20
51.7454487679432305
 30
0.0
 40
1.357869881555503
 50
19.7364455796471709
 51
37.8496222713627475
  0
ARC
  5
7103
  8
0
 10
269.009710026844914
 20
31.0476959795907987
 30
0.0
 40
63.0661318208672768
 50
17.3060087937324809
 51
19.6006407922967014
  0
ARC
  5
7104
  8
0
 10
298.2843332378301966
 20
40.1666965293841827
 30
0.0
 40
32.4041076708366518
 50
15.9116803678073495
 51
17.3100556989643302
  0
ARC
  5
7105
  8
0
 10
327.1798171580650774
 20
48.4041167121397393
 30
0.0
 40
2.3574093126599589
 50
4.7109437408780304
 51
15.9127077423085499
  0
ARC
  5
7106
  8
0
 10
328.5230613695443935
 20
48.5148097926877995
 30
0.0
 40
1.0096118613515319
 50
347.0341573320217208
 51
4.7109437408780304
  0
ARC
  5
7107
  8
0
 10
329.109885090170792
 20
48.4263212264453884
 30
0.0
 40
0.4203580852673661
 50
296.7668848475324808
 51
340.8293786732762101
  0
ARC
  5
7108
  8
0
 10
330.7697627038783139
 20
44.1309736277523825
 30
0.0
 40
4.1867904573294981
 50
110.5631223135685985
 51
122.3599211756979059
  0
LINE
  5
7109
  8
0
 10
329.6284224279474984
 20
49.3269134674627026
 30
0.0
 11
329.6992306580477816
 21
49.3492316851626924
 31
0.0
  0
ARC
  5
710A
  8
0
 10
329.7051494121196811
 20
49.3304534607601681
 30
0.0
 40
0.0196889146850666
 50
17.1962270086058417
 51
107.4944566508845014
  0
LINE
  5
710B
  8
0
 10
329.7239581896477034
 20
49.3362743927626823
 30
0.0
 11
330.0278591513566084
 21
48.4002856006833895
 31
0.0
  0
LINE
  5
710C
  8
0
 10
329.946081642347508
 20
48.349258957762693
 30
0.0
 11
330.0162874329475926
 21
48.3727344091626605
 31
0.0
  0
ARC
  5
710D
  8
0
 10
330.0099831756122057
 20
48.3915879495202716
 30
0.0
 40
0.0198796288840526
 50
288.4889332188571984
 51
25.9454846774745391
  0
LINE
  5
710E
  8
0
 10
328.9143752183476863
 20
42.7080202783626532
 30
0.0
 11
328.9143752183476863
 21
4.5072328945626623
 31
0.0
  0
LINE
  5
710F
  8
0
 10
329.4970523836478264
 20
42.7080202783626532
 30
0.0
 11
329.497052128247617
 21
4.5072328945626623
 31
0.0
  0
ARC
  5
7110
  8
0
 10
335.4096853996206846
 20
4.5072328550324414
 30
0.0
 40
5.9126332713730534
 50
179.9999996169345877
 51
190.3587186489330918
  0
ARC
  5
7111
  8
0
 10
331.8113788480471271
 20
3.8494995603934958
 30
0.0
 40
2.254707202413412
 50
190.3587186489330918
 51
207.2219462450906065
  0
ARC
  5
7112
  8
0
 10
330.6092085784276264
 20
3.2310857545757008
 30
0.0
 40
0.90280151325362
 50
207.2219462450906065
 51
227.7079016990606135
  0
ARC
  5
7113
  8
0
 10
330.1630122937673946
 20
2.7405865642234062
 30
0.0
 40
0.2397173706435943
 50
227.7079016990535933
 51
257.2538626503921932
  0
ARC
  5
7114
  8
0
 10
330.1280885742272062
 20
2.5861975795651229
 30
0.0
 40
0.0814276844023311
 50
257.2538626503921932
 51
319.9973453005222268
  0
ARC
  5
7115
  8
0
 10
417.368648488439419
 20
14.3074479103955792
 30
0.0
 40
87.2243263118421339
 50
180.0627253085716859
 51
183.1026431557021965
  0
ARC
  5
7116
  8
0
 10
-2691.0052579534749384
 20
-154.1798810601623018
 30
0.0
 40
3025.7126024216331643
 50
3.0551787966606421
 51
3.102643155702244
  0
ARC
  5
7117
  8
0
 10
262.0116872275024775
 20
3.433042975707735
 30
0.0
 40
68.4924698733086927
 50
0.6912560676235869
 51
3.0551787966606421
  0
ARC
  5
7118
  8
0
 10
324.4007339329592128
 20
4.185784277844788
 30
0.0
 40
6.098882315903511
 50
347.0235007543727761
 51
0.6912560676235869
  0
ARC
  5
7119
  8
0
 10
329.7569989929684198
 20
2.9521696421099359
 30
0.0
 40
0.6023946883611777
 50
316.0188855097107989
 51
346.9620736649126229
  0
LINE
  5
711A
  8
0
 10
325.5930437597476157
 20
17.6174697614627007
 30
0.0
 11
328.9143752183476863
 21
17.6174697614627007
 31
0.0
  0
LINE
  5
711B
  8
0
 10
329.4970522158992026
 20
17.6174697614627007
 30
0.0
 11
329.8450122636476749
 21
17.6174697614627007
 31
0.0
  0
LINE
  5
711C
  8
0
 10
331.026114625847697
 20
17.6174697614627007
 30
0.0
 11
331.8922563581476766
 21
17.6174697614627007
 31
0.0
  0
LINE
  5
711D
  8
0
 10
325.5536736810477123
 20
17.578099682662689
 30
0.0
 11
328.9143752183476863
 21
17.578099682662689
 31
0.0
  0
LINE
  5
711E
  8
0
 10
329.4970522156359038
 20
17.578099682662689
 30
0.0
 11
329.8450122636476749
 21
17.578099682662689
 31
0.0
  0
LINE
  5
711F
  8
0
 10
331.026114625847697
 20
17.578099682662689
 30
0.0
 11
331.8922563581476766
 21
17.578099682662689
 31
0.0
  0
LINE
  5
7120
  8
0
 10
325.5536736810477123
 20
17.4599894464626608
 30
0.0
 11
327.4510087786698023
 21
17.4599894464626608
 31
0.0
  0
LINE
  5
7121
  8
0
 10
328.0657874022253964
 20
17.4599894464626608
 30
0.0
 11
328.9143752183476863
 21
17.4599894464626608
 31
0.0
  0
LINE
  5
7122
  8
0
 10
329.4970522148461782
 20
17.4599894464626608
 30
0.0
 11
329.8450122636476749
 21
17.4599894464626608
 31
0.0
  0
LINE
  5
7123
  8
0
 10
331.026114625847697
 20
17.4599894464626608
 30
0.0
 11
331.8922563581476766
 21
17.4599894464626608
 31
0.0
  0
LINE
  5
7124
  8
0
 10
325.5536736810477123
 20
17.578099682662689
 30
0.0
 11
325.5536736810477123
 21
17.4599894464626608
 31
0.0
  0
LINE
  5
7125
  8
0
 10
325.5930437597476157
 20
17.6174697614627007
 30
0.0
 11
325.5536736810477123
 21
17.578099682662689
 31
0.0
  0
LINE
  5
7126
  8
0
 10
325.5930437597476157
 20
17.4599894464626608
 30
0.0
 11
325.6176804570694117
 21
15.5464959539584697
 31
0.0
  0
ARC
  5
7127
  8
0
 10
325.6255474469646742
 20
15.5465972433800008
 30
0.0
 40
0.0078676419314086
 50
180.7376564335951059
 51
270.0458043628141809
  0
CIRCLE
  5
7128
  8
0
 10
327.7583980904478267
 20
16.4836114937626803
 30
0.0
 40
1.0236220471999991
  0
LINE
  5
7129
  8
0
 10
325.6255537366478165
 20
15.5387296039626808
 30
0.0
 11
327.3646973032477945
 21
15.5387296039626808
 31
0.0
  0
LINE
  5
712A
  8
0
 10
328.1520988776475747
 20
15.5387296039626808
 30
0.0
 11
328.9143752183476863
 21
15.5387296039626808
 31
0.0
  0
LINE
  5
712B
  8
0
 10
327.6009177754477264
 20
15.4724324381626808
 30
0.0
 11
327.600917775547714
 21
15.3812492889626906
 31
0.0
  0
ARC
  5
712C
  8
0
 10
327.6402878542908184
 20
15.3812492890058401
 30
0.0
 40
0.0393700787431612
 50
180.0000000628415933
 51
269.9999999371942181
  0
LINE
  5
712D
  8
0
 10
327.6402878542476174
 20
15.34187921026267
 30
0.0
 11
327.8764614806477766
 21
15.34187921000375
 31
0.0
  0
ARC
  5
712E
  8
0
 10
327.8764614806906934
 20
15.3812336763575104
 30
0.0
 40
0.0393544663537551
 50
269.9999999371942181
 51
0.0227302384773526
  0
LINE
  5
712F
  8
0
 10
327.9158159439476208
 20
15.3812492889626906
 30
0.0
 11
327.9157798691969106
 21
15.47218238045917
 31
0.0
  0
ARC
  5
7130
  8
0
 10
325.955248484147603
 20
15.5308555882626802
 30
0.0
 40
0.0078740157000006
 50
90.0000000002084306
 51
180.0
  0
LINE
  5
7131
  8
0
 10
325.9473744684477765
 20
15.5308555882626802
 30
0.0
 11
325.9473744684477765
 21
15.5272296933627008
 31
0.0
  0
ARC
  5
7132
  8
0
 10
325.9553403210488796
 20
15.5272296933627008
 30
0.0
 40
0.0079658526011315
 50
179.9999999999641034
 51
240.2046458911204923
  0
LINE
  5
7133
  8
0
 10
325.9513820602488181
 20
15.5203168806861491
 30
0.0
 11
327.5824009243884234
 21
14.8279904425545492
 31
0.0
  0
ARC
  5
7134
  8
0
 10
327.5900924819858915
 20
14.8461106165721599
 30
0.0
 40
0.0196850391084709
 50
246.9999998350230044
 51
269.000000167115104
  0
LINE
  5
7135
  8
0
 10
327.5897489307399155
 20
14.8264285755894907
 30
0.0
 11
328.9143752184127152
 21
14.8033071415972604
 31
0.0
  0
ARC
  5
7136
  8
0
 10
328.3229616993817217
 20
14.7938319827499001
 30
0.0
 40
0.019836069446604
 50
31.1029993684627399
 51
85.3260350220178196
  0
ARC
  5
7137
  8
0
 10
311.4250917393451914
 20
4.599178607424391
 30
0.0
 40
19.7548041877221401
 50
30.8970006860604194
 51
31.1029993684627399
  0
ARC
  5
7138
  8
0
 10
328.393363961244404
 20
14.7532736581083501
 30
0.0
 40
0.0196214295949752
 50
210.8970006860459137
 51
269.1030112913646235
  0
LINE
  5
7139
  8
0
 10
328.3930567923475792
 20
14.7336546329626703
 30
0.0
 11
328.9143752183476863
 21
14.7245549859626994
 31
0.0
  0
LINE
  5
713A
  8
0
 10
331.8922563581476766
 20
17.6174697614627007
 30
0.0
 11
331.8922563581476766
 21
14.7519900255912209
 31
0.0
  0
LINE
  5
713B
  8
0
 10
329.850912263647615
 20
17.4009333102627011
 30
0.0
 11
331.0202146258474727
 21
17.4009333102627011
 31
0.0
  0
ARC
  5
713C
  8
0
 10
331.0182146258475768
 20
17.4088333102626507
 30
0.0
 40
0.0079
 50
270.0
 51
0.0
  0
ARC
  5
713D
  8
0
 10
329.852912263647795
 20
17.4088333102626507
 30
0.0
 40
0.0079
 50
180.0
 51
270.0
  0
ARC
  5
713E
  8
0
 10
331.0202146258474727
 20
17.3950333102626509
 30
0.0
 40
0.0059
 50
0.0000000000846791
 51
89.9999999998632063
  0
ARC
  5
713F
  8
0
 10
329.8509122636477855
 20
17.3950333102626509
 30
0.0
 40
0.0059
 50
90.0000000001367937
 51
179.999999999879492
  0
LINE
  5
7140
  8
0
 10
329.8568122636474982
 20
15.62928078506269
 30
0.0
 11
331.0143146258475895
 21
15.62928078506269
 31
0.0
  0
ARC
  5
7141
  8
0
 10
329.8568122636474982
 20
15.6410807850626803
 30
0.0
 40
0.0118
 50
179.9999999999575948
 51
270.0000000000716227
  0
ARC
  5
7142
  8
0
 10
331.0143146258475895
 20
15.6410807850626803
 30
0.0
 40
0.0118
 50
269.9999999998631779
 51
0.0000000000618809
  0
LINE
  5
7143
  8
0
 10
329.4970523836478264
 20
15.5387296039626808
 30
0.0
 11
329.9859516774799886
 21
15.5387296039626808
 31
0.0
  0
LINE
  5
7144
  8
0
 10
330.8851756359712795
 20
15.5387296039626808
 30
0.0
 11
331.8922563581476766
 21
15.5387296039626808
 31
0.0
  0
ARC
  5
7145
  8
0
 10
331.848074194410799
 20
15.5584296039626793
 30
0.0
 40
0.0197
 50
270.0
 51
359.2500000006913865
  0
LINE
  5
7146
  8
0
 10
331.867772506664096
 20
15.5581717389301293
 30
0.0
 11
331.8922563581476766
 21
17.4284933834626905
 31
0.0
  0
LINE
  5
7147
  8
0
 10
329.4970523836478264
 20
14.7931364700626702
 30
0.0
 11
330.012152519186202
 21
14.7841453637619793
 31
0.0
  0
LINE
  5
7148
  8
0
 10
330.8584614406477158
 20
14.7693729865627006
 30
0.0
 11
331.8922563581476766
 21
14.7519900255912209
 31
0.0
  0
LINE
  5
7149
  8
0
 10
329.9828075392476876
 20
15.62928078506269
 30
0.0
 11
330.0313603479903009
 21
14.2309598931626606
 31
0.0
  0
ARC
  5
714A
  8
0
 10
330.0510335315988755
 20
14.2316429898156702
 30
0.0
 40
0.0196850393530249
 50
181.9886378562991922
 51
270.0000004331922128
  0
LINE
  5
714B
  8
0
 10
330.0510335317475779
 20
14.2119579504626508
 30
0.0
 11
330.8200933578477816
 21
14.2119579562772191
 31
0.0
  0
ARC
  5
714C
  8
0
 10
330.820093357698795
 20
14.2316429961474604
 30
0.0
 40
0.0196850398702377
 50
270.0000004331856189
 51
358.0113435961309278
  0
LINE
  5
714D
  8
0
 10
330.8397665416031828
 20
14.2309598931079808
 30
0.0
 11
330.8883198030061976
 21
15.6292807693418396
 31
0.0
  0
LINE
  5
714E
  8
0
 10
329.813516200647598
 20
14.7876125735626793
 30
0.0
 11
329.8135162007476993
 21
14.7513280291626607
 31
0.0
  0
ARC
  5
714F
  8
0
 10
329.852886279556003
 20
14.7513280292711801
 30
0.0
 40
0.0393700788085028
 50
180.000000157913405
 51
269.9999998420996121
  0
LINE
  5
7150
  8
0
 10
329.8528862794477732
 20
14.7119579504626508
 30
0.0
 11
330.0146590265953819
 21
14.7119579500168207
 31
0.0
  0
LINE
  5
7151
  8
0
 10
330.8564680189319915
 20
14.7119579504626508
 30
0.0
 11
331.0182406101475863
 21
14.7119579504626508
 31
0.0
  0
ARC
  5
7152
  8
0
 10
331.0182406101475863
 20
14.7513280291626607
 30
0.0
 40
0.0393700786999887
 50
270.0
 51
0.0000000000162844
  0
LINE
  5
7153
  8
0
 10
331.0576106888474897
 20
14.7513280291626607
 30
0.0
 11
331.0576106888474897
 21
14.7660240223396499
 31
0.0
  0
LINE
  5
7154
  8
0
 10
329.4970523836478264
 20
14.7143843182626597
 30
0.0
 11
330.01488862720322
 21
14.7053454529616907
 31
0.0
  0
ARC
  5
7155
  8
0
 10
420.5276989578819098
 20
14.3178564615387796
 30
0.0
 40
89.8005578357749386
 50
180.0675668313652125
 51
183.481978238400103
  0
ARC
  5
7156
  8
0
 10
193.3177330433406098
 20
0.4928320035107277
 30
0.0
 40
137.8296245042479882
 50
1.7660901812912519
 51
3.4819782384001159
  0
ARC
  5
7157
  8
0
 10
320.4182699468719875
 20
4.4118314655362951
 30
0.0
 40
10.6686830247617195
 50
353.7725346047128028
 51
1.7660901812912519
  0
ARC
  5
7158
  8
0
 10
328.0830978329818208
 20
3.5754469150154469
 30
0.0
 40
2.9583571146568768
 50
335.3682998749684998
 51
353.7725346047128028
  0
ARC
  5
7159
  8
0
 10
330.1200329476624233
 20
2.6415016535339069
 30
0.0
 40
0.7175183402550129
 50
286.1392423738608954
 51
335.3682998749684998
  0
ARC
  5
715A
  8
0
 10
330.121766330481023
 20
2.6355116090010142
 30
0.0
 40
0.7112825364173427
 50
235.1271362871067083
 51
286.1392423738608954
  0
ARC
  5
715B
  8
0
 10
330.5141221776926272
 20
3.198508579894848
 30
0.0
 40
1.3975104140765611
 50
196.3423384674304089
 51
235.1271362871067083
  0
ARC
  5
715C
  8
0
 10
335.3381409722962871
 20
4.6130197417031686
 30
0.0
 40
6.424636746044956
 50
180.9434640475091101
 51
196.3423299682353047
  0
LINE
  5
715D
  8
0
 10
325.5958850410447099
 20
17.2114478790626286
 30
0.0
 11
325.0891061938477833
 21
17.2098022067626708
 31
0.0
  0
LINE
  5
715E
  8
0
 10
325.0891061938477833
 20
17.2098022067626708
 30
0.0
 11
325.0812327361476832
 21
17.2016339012626496
 31
0.0
  0
LINE
  5
715F
  8
0
 10
325.0812327361476832
 20
17.2016339012626496
 30
0.0
 11
325.0812327361476832
 21
15.7655686382626605
 31
0.0
  0
LINE
  5
7160
  8
0
 10
325.0812327361476832
 20
15.7655686382626605
 30
0.0
 11
325.0891059843474977
 21
15.7573540510338095
 31
0.0
  0
LINE
  5
7161
  8
0
 10
325.0891059843474977
 20
15.7573540510338095
 30
0.0
 11
325.6149443253826234
 21
15.7555089733621703
 31
0.0
  0
LINE
  5
7162
  8
0
 10
325.2388852111994879
 20
17.2102885869289786
 30
0.0
 11
325.2388852111994879
 21
15.7568285010965496
 31
0.0
  0
LINE
  5
7163
  8
0
 10
325.4828068109476931
 20
17.2110806780398811
 30
0.0
 11
325.4828068109476931
 21
15.7559726215187599
 31
0.0
  0
LINE
  5
7164
  8
0
 10
327.6048547924477248
 20
21.3893116789626596
 30
0.0
 11
327.6048547924477248
 21
23.5936593399626986
 31
0.0
  0
ARC
  5
7165
  8
0
 10
327.624554792447725
 20
21.3893116789626596
 30
0.0
 40
0.0197
 50
179.9999999999641034
 51
270.0000000000391083
  0
ARC
  5
7166
  8
0
 10
327.624555846264002
 20
23.5936589034576514
 30
0.0
 40
0.0197010538211973
 50
89.5464786875190697
 51
179.9987305300803939
  0
LINE
  5
7167
  8
0
 10
327.6247117872247259
 20
23.61335934010458
 30
0.0
 11
328.2277299977477014
 21
23.6080867874795217
 31
0.0
  0
ARC
  5
7168
  8
0
 10
327.7590663204305201
 20
-29.9926550406205799
 30
0.0
 40
53.6027906938161891
 50
89.1605758600855154
 51
89.4990411411979352
  0
ARC
  5
7169
  8
0
 10
328.5239043280269016
 20
22.2084341947444308
 30
0.0
 40
1.3960986463746059
 50
81.6203215427367468
 51
89.1605758600855154
  0
ARC
  5
716A
  8
0
 10
328.6266128312568071
 20
22.9056859561973205
 30
0.0
 40
0.6913227561195019
 50
65.395541955004191
 51
81.6203215427367468
  0
ARC
  5
716B
  8
0
 10
327.624555846264002
 20
21.3893121154676997
 30
0.0
 40
0.0197010538211973
 50
180.0012694699196061
 51
270.4535213124809161
  0
LINE
  5
716C
  8
0
 10
327.6247117872247259
 20
21.3696116788207711
 30
0.0
 11
328.2277299977477014
 21
21.3748842314458294
 31
0.0
  0
ARC
  5
716D
  8
0
 10
327.7590663204305201
 20
74.9756260595459025
 30
0.0
 40
53.6027906938161891
 50
270.5009588588019938
 51
270.839424139914513
  0
ARC
  5
716E
  8
0
 10
328.5239043280269016
 20
22.7745368241809309
 30
0.0
 40
1.3960986463746059
 50
270.839424139914513
 51
278.3796784572633101
  0
ARC
  5
716F
  8
0
 10
328.6266128312568071
 20
22.0772850627280413
 30
0.0
 40
0.6913227561195019
 50
278.3796784572633101
 51
294.6044580449957948
  0
LINE
  5
7170
  8
0
 10
329.4970523836478264
 20
23.0275581269626706
 30
0.0
 11
329.548742161647624
 21
23.0127896189246712
 31
0.0
  0
ARC
  5
7171
  8
0
 10
329.5379266417351118
 20
22.9749352993283615
 30
0.0
 40
0.0393690866426189
 50
359.9953417673061153
 51
74.0546040601122968
  0
LINE
  5
7172
  8
0
 10
329.5772957282476909
 20
22.9749320985626504
 30
0.0
 11
329.577217118383885
 21
22.008038923558221
 31
0.0
  0
ARC
  5
7173
  8
0
 10
329.5378095460084751
 20
22.0080421274528817
 30
0.0
 40
0.0394075725058212
 50
286.106534954605479
 51
359.9953417673061153
  0
LINE
  5
7174
  8
0
 10
329.548742161647624
 20
21.9701813999626587
 30
0.0
 11
329.4970939844379245
 21
21.9552675378336097
 31
0.0
  0
ARC
  5
7175
  8
0
 10
329.3489492623033925
 20
22.4914854991556012
 30
0.0
 40
0.3543466101388288
 50
41.808017455976433
 51
49.8605008436710833
  0
ARC
  5
7176
  8
0
 10
329.3489492715489177
 20
22.4914855094614303
 30
0.0
 40
0.3543465962982444
 50
310.1394989509763036
 51
318.1919831816082933
  0
LINE
  5
7177
  8
0
 10
329.6130731037476949
 20
22.7277059819632008
 30
0.0
 11
329.6130731053049203
 21
22.2552650388199211
 31
0.0
  0
LINE
  5
7178
  8
0
 10
329.8450122636476749
 20
22.8261311787627008
 30
0.0
 11
329.7465870668474963
 21
22.8261311787627008
 31
0.0
  0
ARC
  5
7179
  8
0
 10
329.7465870668474963
 20
22.8064461393626594
 30
0.0
 40
0.0196850394000023
 50
90.0
 51
179.9999999999901945
  0
LINE
  5
717A
  8
0
 10
329.7269020274475224
 20
22.8064461393626594
 30
0.0
 11
329.7269020274475224
 21
22.1765248795626917
 31
0.0
  0
ARC
  5
717B
  8
0
 10
329.7465870668474963
 20
22.1765248795626917
 30
0.0
 40
0.0196850394000023
 50
179.9999999999706972
 51
270.0000000003321929
  0
LINE
  5
717C
  8
0
 10
329.7465870668474963
 20
22.1568398401626609
 30
0.0
 11
329.8450122636476749
 21
22.1568398401632294
 31
0.0
  0
LINE
  5
717D
  8
0
 10
329.6130731037476949
 20
22.688335903162681
 30
0.0
 11
329.7269020274475224
 21
22.688335903162681
 31
0.0
  0
LINE
  5
717E
  8
0
 10
329.6130731051753173
 20
22.2946351157626701
 30
0.0
 11
329.7269020274475224
 21
22.2946351157626701
 31
0.0
  0
ENDSEC
  0
EOF
