  0
SECTION
  2
HEADER
  9
$ACADVER
  1
AC1009
  9
$INSBASE
 10
527.8294848259730543
 20
40.6091218543713879
 30
0.0
  9
$EXTMIN
 10
505.3194620299856865
 20
2.3369465814063228
 30
-0.0000000349181948
  9
$EXTMAX
 10
527.8316213972898368
 20
79.2337264047567231
 30
0.0000000814935746
  9
$LIMMIN
 10
0.0
 20
0.0
  9
$LIMMAX
 10
11.6929133858000007
 20
8.2677165353999982
  9
$ORTHOMODE
 70
     0
  9
$REGENMODE
 70
     1
  9
$FILLMODE
 70
     1
  9
$QTEXTMODE
 70
     0
  9
$MIRRTEXT
 70
     0
  9
$DRAGMODE
 70
     2
  9
$LTSCALE
 40
0.6431102362
  9
$OSMODE
 70
  4095
  9
$ATTMODE
 70
     1
  9
$TEXTSIZE
 40
0.2
  9
$TRACEWID
 40
0.05
  9
$TEXTSTYLE
  7
STANDARD
  9
$CLAYER
  8
0
  9
$CELTYPE
  6
BYLAYER
  9
$CECOLOR
 62
   256
  9
$DIMSCALE
 40
1.0
  9
$DIMASZ
 40
0.1875
  9
$DIMEXO
 40
0.0625
  9
$DIMDLI
 40
0.4443307087
  9
$DIMRND
 40
0.0
  9
$DIMDLE
 40
0.0
  9
$DIMEXE
 40
0.125
  9
$DIMTP
 40
0.01
  9
$DIMTM
 40
0.01
  9
$DIMTXT
 40
1.0
  9
$DIMCEN
 40
0.1052362205
  9
$DIMTSZ
 40
0.0
  9
$DIMTOL
 70
     1
  9
$DIMLIM
 70
     0
  9
$DIMTIH
 70
     1
  9
$DIMTOH
 70
     1
  9
$DIMSE1
 70
     0
  9
$DIMSE2
 70
     0
  9
$DIMTAD
 70
     0
  9
$DIMZIN
 70
     0
  9
$DIMBLK
  1

  9
$DIMASO
 70
     1
  9
$DIMSHO
 70
     1
  9
$DIMPOST
  1
\X
  9
$DIMAPOST
  1

  9
$DIMALT
 70
     1
  9
$DIMALTD
 70
     2
  9
$DIMALTF
 40
25.3999999999999986
  9
$DIMLFAC
 40
1.0
  9
$DIMTOFL
 70
     0
  9
$DIMTVP
 40
0.0
  9
$DIMTIX
 70
     0
  9
$DIMSOXD
 70
     0
  9
$DIMSAH
 70
     0
  9
$DIMBLK1
  1

  9
$DIMBLK2
  1

  9
$DIMSTYLE
  2
STANDARD
  9
$DIMCLRD
 70
     0
  9
$DIMCLRE
 70
     0
  9
$DIMCLRT
 70
     0
  9
$DIMTFAC
 40
1.0
  9
$DIMGAP
 40
0.09
  9
$LUNITS
 70
     2
  9
$LUPREC
 70
     4
  9
$SKETCHINC
 40
0.1
  9
$FILLETRAD
 40
0.0
  9
$AUNITS
 70
     0
  9
$AUPREC
 70
     0
  9
$MENU
  1
.
  9
$ELEVATION
 40
0.0
  9
$PELEVATION
 40
0.0
  9
$THICKNESS
 40
0.0
  9
$LIMCHECK
 70
     0
  9
$BLIPMODE
 70
     0
  9
$CHAMFERA
 40
0.0
  9
$CHAMFERB
 40
0.0
  9
$SKPOLY
 70
     0
  9
$TDCREATE
 40
2458172.4620254631154239
  9
$TDUPDATE
 40
2460398.6029976857826114
  9
$TDINDWG
 40
0.342586956
  9
$TDUSRTIMER
 40
0.342586956
  9
$USRTIMER
 70
     1
  9
$ANGBASE
 50
0.0
  9
$ANGDIR
 70
     0
  9
$PDMODE
 70
     0
  9
$PDSIZE
 40
0.3125
  9
$PLINEWID
 40
0.0
  9
$COORDS
 70
     1
  9
$SPLFRAME
 70
     0
  9
$SPLINETYPE
 70
     6
  9
$SPLINESEGS
 70
     8
  9
$ATTDIA
 70
     1
  9
$ATTREQ
 70
     1
  9
$HANDLING
 70
     1
  9
$HANDSEED
  5
85EB
  9
$SURFTAB1
 70
     6
  9
$SURFTAB2
 70
     6
  9
$SURFTYPE
 70
     6
  9
$SURFU
 70
     6
  9
$SURFV
 70
     6
  9
$UCSNAME
  2

  9
$UCSORG
 10
0.0
 20
0.0
 30
0.0
  9
$UCSXDIR
 10
1.0
 20
0.0
 30
0.0
  9
$UCSYDIR
 10
0.0
 20
1.0
 30
0.0
  9
$PUCSNAME
  2

  9
$PUCSORG
 10
0.0
 20
0.0
 30
0.0
  9
$PUCSXDIR
 10
1.0
 20
0.0
 30
0.0
  9
$PUCSYDIR
 10
0.0
 20
1.0
 30
0.0
  9
$USERI1
 70
     0
  9
$USERI2
 70
     0
  9
$USERI3
 70
     0
  9
$USERI4
 70
     0
  9
$USERI5
 70
     0
  9
$USERR1
 40
0.0
  9
$USERR2
 40
0.0
  9
$USERR3
 40
0.0
  9
$USERR4
 40
0.0
  9
$USERR5
 40
0.0
  9
$WORLDVIEW
 70
     1
  9
$SHADEDGE
 70
     3
  9
$SHADEDIF
 70
    70
  9
$TILEMODE
 70
     1
  9
$MAXACTVP
 70
    64
  9
$PLIMCHECK
 70
     0
  9
$PEXTMIN
 10
1.0000000000000000E+20
 20
1.0000000000000000E+20
 30
1.0000000000000000E+20
  9
$PEXTMAX
 10
-1.0000000000000000E+20
 20
-1.0000000000000000E+20
 30
-1.0000000000000000E+20
  9
$PLIMMIN
 10
0.0
 20
0.0
  9
$PLIMMAX
 10
12.0
 20
9.0
  9
$UNITMODE
 70
     0
  9
$VISRETAIN
 70
     1
  9
$PLINEGEN
 70
     0
  9
$PSLTSCALE
 70
     1
  0
ENDSEC
  0
SECTION
  2
TABLES
  0
TABLE
  2
VPORT
 70
     1
  0
VPORT
  2
*ACTIVE
 70
     0
 10
0.0
 20
0.0
 11
1.0
 21
1.0
 12
391.9643831135650771
 22
35.4730623227037114
 13
0.0
 23
0.0
 14
1.0
 24
1.0
 15
0.0
 25
0.0
 16
0.0
 26
0.0
 36
30.6214257250603907
 17
124.6111586000725993
 27
5.3122741703778242
 37
0.0
 40
77.5030619244543431
 41
2.498684210526315
 42
50.0
 43
0.0
 44
0.0
 50
0.0
 51
0.0
 71
     0
 72
   100
 73
     1
 74
     1
 75
     0
 76
     0
 77
     0
 78
     0
  0
ENDTAB
  0
TABLE
  2
LTYPE
 70
     2
  0
LTYPE
  2
CONTINUOUS
 70
     0
  3
Solid line
 72
    65
 73
     0
 40
0.0
  0
LTYPE
  2
PHANTOM2
 70
     0
  3
___ _ _ ___ _ _ ___ _ _ ___ _ _
 72
    65
 73
     6
 40
1.25
 49
0.625
 49
-0.125
 49
0.125
 49
-0.125
 49
0.125
 49
-0.125
  0
ENDTAB
  0
TABLE
  2
LAYER
 70
     2
  0
LAYER
  2
0
 70
     0
 62
   255
  6
CONTINUOUS
  0
LAYER
  2
DEFPOINTS
 70
     0
 62
     7
  6
CONTINUOUS
  0
ENDTAB
  0
TABLE
  2
STYLE
 70
     1
  0
STYLE
  2
STANDARD
 70
     0
 40
0.0
 41
0.8
 50
0.0
 71
     0
 42
0.2
  3
txt
  4

  0
ENDTAB
  0
TABLE
  2
VIEW
 70
     0
  0
ENDTAB
  0
TABLE
  2
UCS
 70
     0
  0
ENDTAB
  0
TABLE
  2
APPID
 70
     9
  0
APPID
  2
ACAD
 70
     0
  0
APPID
  2
ACAD_MLEADERVER
 70
     0
  0
APPID
  2
ACAD_EXEMPT_FROM_CAD_STANDARDS
 70
     0
  0
APPID
  2
ACAD_DSTYLE_DIMJAG
 70
     0
  0
APPID
  2
ACAD_DSTYLE_DIMTALN
 70
     0
  0
APPID
  2
ACAD_NAV_VCDISPLAY
 70
     0
  0
APPID
  2
ACAECLAYERSTANDARD
 70
     0
  0
APPID
  2
ACCMTRANSPARENCY
 70
     0
  0
APPID
  2
ACDBATTR
 70
     0
  0
ENDTAB
  0
TABLE
  2
DIMSTYLE
 70
     1
  0
DIMSTYLE
  2
STANDARD
 70
     0
  3

  4

  5

  6

  7

 40
1.0
 41
0.1875
 42
0.0625
 43
0.38
 44
0.125
 45
0.0
 46
0.0
 47
0.01
 48
0.01
140
0.15625
141
0.09
142
0.0
143
25.3999999999999986
144
1.0
145
0.0
146
1.0
147
0.09
 71
     1
 72
     0
 73
     1
 74
     1
 75
     0
 76
     0
 77
     0
 78
     4
170
     0
171
     2
172
     0
173
     0
174
     0
175
     0
176
     0
177
     0
178
     0
  0
ENDTAB
  0
ENDSEC
  0
SECTION
  2
BLOCKS
  0
BLOCK
  8
0
  2
$MODEL_SPACE
 70
     0
 10
0.0
 20
0.0
 30
0.0
  3
$MODEL_SPACE
  1

  0
ENDBLK
  5
21
  8
0
  0
BLOCK
 67
     1
  8
0
  2
$PAPER_SPACE
 70
     0
 10
0.0
 20
0.0
 30
0.0
  3
$PAPER_SPACE
  1

  0
ENDBLK
  5
1D
 67
     1
  8
0
  0
BLOCK
  8
0
  2
_FILLED
 70
     0
 10
0.0
 20
0.0
 30
0.0
  3
_FILLED
  1

  0
SOLID
  5
572C
  8
0
  6
BYBLOCK
 62
     0
 10
0.0
 20
0.0
 30
0.0
 11
-1.0
 21
0.1666666667
 31
0.0
 12
-1.0
 22
-0.1666666667
 32
0.0
 13
-1.0
 23
-0.1666666667
 33
0.0
  0
ENDBLK
  5
572D
  8
0
  6
BYBLOCK
 62
     0
  0
ENDSEC
  0
SECTION
  2
ENTITIES
  0
ATTDEF
  5
4C62
  8
DEFPOINTS
 10
527.8183360461634948
 20
40.6099187025852686
 30
0.0
 40
0.001
  1
K-EX31846T-9
  3

  2
MODELNUMBER
 70
     0
1001
ACDBATTR
1070
     0
1070
     1
  0
ATTDEF
  5
4C63
  8
DEFPOINTS
 10
527.8183360461634948
 20
40.6082520359186034
 30
0.0
 40
0.001
  1
SPAVIVA
  3

  2
TRADENAME
 70
     0
1001
ACDBATTR
1070
     0
1070
     1
  0
ATTDEF
  5
4C64
  8
DEFPOINTS
 10
527.8183360461634948
 20
40.6065853692519383
 30
0.0
 40
0.001
  1
SHOWER COLUMN
  3

  2
PRODUCT
 70
     0
1001
ACDBATTR
1070
     0
1070
     1
  0
LINE
  5
83B1
  8
0
 10
527.8294848259730543
 20
79.2174024063705531
 30
0.0
 11
527.8294848259730543
 21
78.4299787833713964
 31
0.0
  0
LINE
  5
83B2
  8
0
 10
508.8491831947731043
 20
78.2170685471713938
 30
0.0
 11
509.8019091790731068
 21
78.2170685471713938
 31
0.0
  0
LINE
  5
83B3
  8
0
 10
508.4556159383731142
 20
77.2446276022713931
 30
0.0
 11
510.1954764354730969
 21
77.2446276022713931
 31
0.0
  0
LINE
  5
83B4
  8
0
 10
505.3416534647358276
 20
74.467147287271402
 30
0.0
 11
513.3094389091104404
 21
74.467147287271402
 31
0.0
  0
LINE
  5
83B5
  8
0
 10
525.5467135227966082
 20
61.1189665411191783
 30
0.0
 11
527.2191302243013524
 21
61.1189665411191783
 31
0.0
  0
LINE
  5
83B6
  8
0
 10
525.5313214003299436
 20
59.9378643507713917
 30
0.0
 11
527.2131522311012759
 21
59.9378643507713917
 31
0.0
  0
LINE
  5
83B7
  8
0
 10
524.7584268051110712
 20
59.7843203402212708
 30
0.0
 11
525.5311545675856451
 21
59.7843203402212708
 31
0.0
  0
LINE
  5
83B8
  8
0
 10
524.6901071650048607
 20
61.2016431748213989
 30
0.0
 11
525.5957765111668323
 21
61.2016431748213989
 31
0.0
  0
LINE
  5
83B9
  8
0
 10
508.6286847695729989
 20
79.2292024063705611
 30
0.0
 11
525.1405178404730805
 21
79.2292024063705611
 31
0.0
  0
LINE
  5
83BA
  8
0
 10
525.1641178404731818
 20
79.2292024063705611
 30
0.0
 11
527.8176848259730605
 21
79.2292024063705611
 31
0.0
  0
ARC
  5
83BB
  8
0
 10
525.1641178404731818
 20
79.2174024063705531
 30
0.0
 40
0.0118
 50
90.0
 51
180.0
  0
LINE
  5
83BC
  8
0
 10
508.9908693983172157
 20
77.3492892314097134
 30
0.0
 11
509.6602229755289954
 21
77.3492892314097134
 31
0.0
  0
LINE
  5
83BD
  8
0
 10
508.9725762909473019
 20
77.4684725283714073
 30
0.0
 11
509.6785160828987955
 21
77.4684725283714073
 31
0.0
  0
LINE
  5
83BE
  8
0
 10
508.6286847695729989
 20
78.4181787833714026
 30
0.0
 11
509.0105855569730124
 21
78.4181787833714026
 31
0.0
  0
LINE
  5
83BF
  8
0
 10
509.6405065519094819
 20
78.4181787833714026
 30
0.0
 11
510.0224076042730985
 21
78.4181787833714026
 31
0.0
  0
LINE
  5
83C0
  8
0
 10
508.6168847695731188
 20
78.4299787833713964
 30
0.0
 11
508.6168847695731188
 21
79.2174024063705531
 31
0.0
  0
ARC
  5
83C1
  8
0
 10
508.6286847695731126
 20
78.4299787833713964
 30
0.0
 40
0.0118
 50
180.0000000000341913
 51
269.9999999999641886
  0
ARC
  5
83C2
  8
0
 10
508.6286847695729989
 20
79.2174024063705531
 30
0.0
 40
0.0118
 50
90.0
 51
180.0
  0
LINE
  5
83C3
  8
0
 10
509.0164910687731208
 20
78.4227976646019584
 30
0.0
 11
509.0164910687731208
 21
78.2170685471713938
 31
0.0
  0
ARC
  5
83C4
  8
0
 10
509.8031528083287185
 20
77.4109195670791479
 30
0.0
 40
1.2816918415621501
 50
120.5196282132030063
 51
128.1976254588865061
  0
ARC
  5
83C5
  8
0
 10
509.3672502267053233
 20
78.1503559317377636
 30
0.0
 40
0.4233345744259876
 50
103.7190138145511042
 51
120.5196282132030063
  0
ARC
  5
83C6
  8
0
 10
509.3262424119284901
 20
78.3183344675656912
 30
0.0
 40
0.2504229514168048
 50
72.7928189673564248
 51
103.7190138145511042
  0
ARC
  5
83C7
  8
0
 10
509.2496576825981265
 20
78.071038905899556
 30
0.0
 40
0.5093057735321138
 50
57.9486718828554785
 51
72.7928189673597785
  0
ARC
  5
83C8
  8
0
 10
508.7692410621656904
 20
77.3037420150047438
 30
0.0
 40
1.4145928263305769
 50
51.981729787252668
 51
57.9486718828554785
  0
LINE
  5
83C9
  8
0
 10
508.8294831947731041
 20
78.0891157912713965
 30
0.0
 11
508.8294831947731041
 21
78.1973685471713935
 31
0.0
  0
LINE
  5
83CA
  8
0
 10
508.8708217774732248
 20
78.0477772085713752
 30
0.0
 11
508.8294831947731041
 21
78.0891157912713965
 31
0.0
  0
LINE
  5
83CB
  8
0
 10
508.8708217774732248
 20
78.0477772085713752
 30
0.0
 11
508.8708217774732248
 21
77.5492723413858442
 31
0.0
  0
ARC
  5
83CC
  8
0
 10
508.8491831947731043
 20
78.1973685471713935
 30
0.0
 40
0.0197
 50
90.0000000000423341
 51
179.9999999999901945
  0
ARC
  5
83CD
  8
0
 10
509.0578296514731278
 20
77.6803072960713479
 30
0.0
 40
0.2283464566999559
 50
215.0186282715002903
 51
248.0775735324330924
  0
ARC
  5
83CE
  8
0
 10
508.9464123285621895
 20
77.4034611685868725
 30
0.0
 40
0.0700787402050347
 50
309.3745638240791891
 51
68.0775735324331492
  0
ARC
  5
83CF
  8
0
 10
509.3255463872818041
 20
76.9414778097224854
 30
0.0
 40
0.5275593261434735
 50
129.3745638240746132
 51
144.922936174231495
  0
LINE
  5
83D0
  8
0
 10
508.4162159383731137
 20
77.2052276022713926
 30
0.0
 11
508.4162159383731137
 21
77.1290676875339472
 31
0.0
  0
ARC
  5
83D1
  8
0
 10
508.4556159383731142
 20
77.205227602271421
 30
0.0
 40
0.0394
 50
89.9999999999902229
 51
180.0000000000260059
  0
ARC
  5
83D2
  8
0
 10
509.1694538776059744
 20
34.83904594732833
 30
0.0
 40
42.2680355189996533
 50
89.7884110118560557
 51
91.2509501951463733
  0
ARC
  5
83D3
  8
0
 10
508.746608374829691
 20
54.2030566383590795
 30
0.0
 40
22.8994086094437783
 50
91.2509501951463733
 51
93.716345958000943
  0
ARC
  5
83D4
  8
0
 10
507.7551159290774194
 20
69.4676859196091101
 30
0.0
 40
7.6026127239003074
 50
93.716345958000943
 51
98.2495725442644243
  0
ARC
  5
83D5
  8
0
 10
507.0131220681947184
 20
74.5853973614165255
 30
0.0
 40
2.431391853429397
 50
98.2495725442644243
 51
113.1891907181412051
  0
ARC
  5
83D6
  8
0
 10
506.4872644910529971
 20
75.8129545551434916
 30
0.0
 40
1.0959432938404929
 50
113.1891907181412051
 51
145.2707811368682087
  0
ARC
  5
83D7
  8
0
 10
506.3800938564457965
 20
75.8872439068871216
 30
0.0
 40
0.9655421715117128
 50
145.2707811368682087
 51
171.0312005566628102
  0
ARC
  5
83D8
  8
0
 10
511.0331447242716081
 20
75.1528702185828621
 30
0.0
 40
5.6761883153700712
 50
171.0312005566628102
 51
178.0651128680848103
  0
ARC
  5
83D9
  8
0
 10
130.9142066450853008
 20
87.9944261694691221
 30
0.0
 40
374.6596010151740188
 50
357.9327269827816735
 51
358.0651128680847819
  0
ARC
  5
83DA
  8
0
 10
505.3416534647358276
 20
74.4788472872713641
 30
0.0
 40
0.0117
 50
177.9327114945591859
 51
270.0000000000358114
  0
ARC
  5
83DB
  8
0
 10
508.4559393887221859
 20
77.1321521928078226
 30
0.0
 40
0.0398430254927903
 50
184.4400780726033133
 51
232.2703821717452968
  0
ARC
  5
83DC
  8
0
 10
508.9508234864475753
 20
77.2177590117256472
 30
0.0
 40
0.027330353313815
 50
100.5472159657629021
 51
146.9834909649401027
  0
ARC
  5
83DD
  8
0
 10
508.9686863981834222
 20
77.2061513822407477
 30
0.0
 40
0.0486334206503072
 50
146.9834909649401027
 51
181.0531280370873048
  0
ARC
  5
83DE
  8
0
 10
508.968373276925206
 20
77.1334012130882343
 30
0.0
 40
0.0483159660621968
 50
179.264290377545791
 51
213.9852398246758867
  0
LINE
  5
83DF
  8
0
 10
508.9200612939731059
 20
77.1340215998713887
 30
0.0
 11
508.9200611925730868
 21
77.2052575234713885
 31
0.0
  0
LINE
  5
83E0
  8
0
 10
527.8176848259730605
 20
78.4181787833714026
 30
0.0
 11
527.2625446684729695
 21
78.4181787833714026
 31
0.0
  0
LINE
  5
83E1
  8
0
 10
527.2271667933721346
 20
78.4181787833714026
 30
0.0
 11
526.963343093672961
 21
78.4181787833714026
 31
0.0
  0
LINE
  5
83E2
  8
0
 10
525.7822407314731663
 20
78.4181787833714026
 30
0.0
 11
525.1641178404731818
 21
78.4181787833714026
 31
0.0
  0
ARC
  5
83E3
  8
0
 10
525.1641178404731818
 20
78.4299787833713964
 30
0.0
 40
0.0118
 50
180.0
 51
270.0
  0
LINE
  5
83E4
  8
0
 10
525.1405178404730805
 20
78.4181787833714026
 30
0.0
 11
509.640506816873085
 21
78.4181787833714026
 31
0.0
  0
LINE
  5
83E5
  8
0
 10
509.6346013050730903
 20
78.4227976646019584
 30
0.0
 11
509.6346013050730903
 21
78.2170685471713938
 31
0.0
  0
LINE
  5
83EB
  8
0
 10
509.821609179073107
 20
78.0891157912713965
 30
0.0
 11
509.821609179073107
 21
78.1973685471713935
 31
0.0
  0
LINE
  5
83EC
  8
0
 10
509.7802705963731
 20
78.0477772085713752
 30
0.0
 11
509.821609179073107
 21
78.0891157912713965
 31
0.0
  0
LINE
  5
83ED
  8
0
 10
509.7802705963731
 20
78.0477772085713752
 30
0.0
 11
509.7802705963731
 21
77.5492723413858442
 31
0.0
  0
ARC
  5
83EE
  8
0
 10
509.8019091790731068
 20
78.1973685471713935
 30
0.0
 40
0.0197
 50
0.0000000000097707
 51
89.9999999999576659
  0
ARC
  5
83EF
  8
0
 10
509.5932627223730833
 20
77.6803072960713479
 30
0.0
 40
0.2283464566999559
 50
291.9224264675668792
 51
324.9813717284997097
  0
ARC
  5
83F0
  8
0
 10
509.7046800452840216
 20
77.4034611685868725
 30
0.0
 40
0.0700787402050347
 50
111.9224264675667939
 51
230.6254361759208109
  0
ARC
  5
83F1
  8
0
 10
509.3255459865645207
 20
76.9414778097224854
 30
0.0
 40
0.5275593261434735
 50
35.0770638257684908
 51
50.6254361759254081
  0
LINE
  5
83F2
  8
0
 10
510.2348764354730974
 20
77.2052276022713926
 30
0.0
 11
510.2348764354730974
 21
77.1290676875339472
 31
0.0
  0
ARC
  5
83F3
  8
0
 10
510.1954764354730969
 20
77.205227602271421
 30
0.0
 40
0.0394
 50
359.9999999999740226
 51
90.0000000000097771
  0
ARC
  5
83F4
  8
0
 10
509.4816384962401798
 20
34.83904594732833
 30
0.0
 40
42.2680355189996533
 50
88.7490498048535841
 51
90.2115889881439585
  0
ARC
  5
83F5
  8
0
 10
509.9044839990165201
 20
54.2030566383590795
 30
0.0
 40
22.8994086094437783
 50
86.2836540419957458
 51
88.7490498048535841
  0
ARC
  5
83F6
  8
0
 10
510.8959764447687917
 20
69.4676859196091101
 30
0.0
 40
7.6026127239003074
 50
81.7504274557355757
 51
86.2836540419957458
  0
ARC
  5
83F7
  8
0
 10
511.6379703056516064
 20
74.5853973614165255
 30
0.0
 40
2.431391853429397
 50
66.8108092818588233
 51
81.7504274557355757
  0
ARC
  5
83F8
  8
0
 10
512.1638278827930435
 20
75.8129545551434916
 30
0.0
 40
1.0959432938404929
 50
34.7292188631317913
 51
66.8108092818588233
  0
ARC
  5
83F9
  8
0
 10
512.2709985174003577
 20
75.8872439068871216
 30
0.0
 40
0.9655421715117128
 50
8.9687994433371596
 51
34.7292188631317913
  0
ARC
  5
83FA
  8
0
 10
507.617947649574603
 20
75.1528702185828621
 30
0.0
 40
5.6761883153700712
 50
1.934887131915213
 51
8.9687994433371596
  0
ARC
  5
83FB
  8
0
 10
887.7368857287608535
 20
87.9944261694691221
 30
0.0
 40
374.6596010151740188
 50
181.9348871319151897
 51
182.067273017218298
  0
ARC
  5
83FC
  8
0
 10
513.3094389091104404
 20
74.4788472872713641
 30
0.0
 40
0.0117
 50
269.9999999999641886
 51
2.0672885054407368
  0
ARC
  5
83FD
  8
0
 10
510.1951529851240252
 20
77.1321521928078226
 30
0.0
 40
0.0398430254927903
 50
307.729617828254618
 51
355.5599219273967151
  0
ARC
  5
83FE
  8
0
 10
509.700268887398579
 20
77.2177590117256472
 30
0.0
 40
0.027330353313815
 50
33.0165090350598476
 51
79.4527840342371121
  0
ARC
  5
83FF
  8
0
 10
509.6824059756626752
 20
77.2061513822407477
 30
0.0
 40
0.0486334206503072
 50
358.9468719629127236
 51
33.0165090350598476
  0
ARC
  5
8400
  8
0
 10
509.6827190969210051
 20
77.1334012130882343
 30
0.0
 40
0.0483159660621968
 50
326.0147601753241133
 51
0.7357096224541894
  0
LINE
  5
8401
  8
0
 10
509.7310310798731052
 20
77.1340215998713887
 30
0.0
 11
509.7310311812731243
 21
77.2052575234713885
 31
0.0
  0
LINE
  5
8402
  8
0
 10
525.1523178404730743
 20
79.2174024063705531
 30
0.0
 11
525.1523178404730743
 21
78.4299787833713964
 31
0.0
  0
ARC
  5
8403
  8
0
 10
525.1405178404730805
 20
79.2174024063705531
 30
0.0
 40
0.0118
 50
359.9999999999316174
 51
90.0000000000683826
  0
ARC
  5
8404
  8
0
 10
525.1405178404730805
 20
78.4299787833713964
 30
0.0
 40
0.0118
 50
270.0
 51
0.0000000000179129
  0
LINE
  5
8405
  8
0
 10
527.2389336448732138
 20
79.2174024063705531
 30
0.0
 11
527.2389336448732138
 21
78.4299787833713964
 31
0.0
  0
ARC
  5
8406
  8
0
 10
527.2271336448731063
 20
79.2174024063705531
 30
0.0
 40
0.0118
 50
359.9999999999316174
 51
90.0000000000683826
  0
ARC
  5
8407
  8
0
 10
527.2271336448731063
 20
78.4299787833713964
 30
0.0
 40
0.0118
 50
269.9999999999316174
 51
0.0000000000179129
  0
ARC
  5
8408
  8
0
 10
527.8176848259730605
 20
79.2174024063705531
 30
0.0
 40
0.0118
 50
359.9999999999316174
 51
90.0
  0
ARC
  5
8409
  8
0
 10
527.8176848259730605
 20
78.4299787833713964
 30
0.0
 40
0.0118
 50
270.0
 51
359.9999999999820943
  0
LINE
  5
840A
  8
0
 10
527.2507446684730894
 20
79.2292023267101655
 30
0.0
 11
527.2507446684730894
 21
78.4299787833713964
 31
0.0
  0
ARC
  5
840B
  8
0
 10
527.2625446684729695
 20
79.2174024063705531
 30
0.0
 40
0.0118
 50
90.0
 51
180.0000000000341913
  0
ARC
  5
840C
  8
0
 10
527.2625446684729695
 20
78.4299787833713538
 30
0.0
 40
0.0118
 50
179.999999999947903
 51
269.9999999999316174
  0
LINE
  5
840D
  8
0
 10
527.2389336448732138
 20
78.8866826400713848
 30
0.0
 11
527.2507446684730894
 21
78.8866826400713848
 31
0.0
  0
ARC
  5
840E
  8
0
 10
527.2507446684730894
 20
78.8630605968713922
 30
0.0
 40
0.0118110236000035
 50
90.0
 51
180.0000092528887876
  0
LINE
  5
840F
  8
0
 10
525.7822407314731663
 20
78.8236904475714226
 30
0.0
 11
525.7822407314731663
 21
69.5363145070713955
 31
0.0
  0
LINE
  5
8410
  8
0
 10
525.7822407314731663
 20
69.5205145070713826
 30
0.0
 11
525.7822407314731663
 21
66.039738313344813
 31
0.0
  0
LINE
  5
8411
  8
0
 10
525.7822407314731663
 20
65.2650229565133344
 30
0.0
 11
525.7822407314731663
 21
61.1189665411191783
 31
0.0
  0
LINE
  5
8412
  8
0
 10
525.7822407314731663
 20
59.9378643507713917
 30
0.0
 11
525.7822407314731663
 21
34.4851333543713992
 31
0.0
  0
LINE
  5
8413
  8
0
 10
525.7822407314731663
 20
34.4713333543714029
 30
0.0
 11
525.7822407314731663
 21
32.717380829171411
 31
0.0
  0
LINE
  5
8414
  8
0
 10
526.963343093672961
 20
78.8319314537136933
 30
0.0
 11
526.963343093672961
 21
73.0717215936713984
 31
0.0
  0
LINE
  5
8415
  8
0
 10
526.963343093672961
 20
69.5205145070713826
 30
0.0
 11
526.963343093672961
 21
69.3473121723713319
 31
0.0
  0
LINE
  5
8416
  8
0
 10
526.963343093672961
 20
69.0795962032461119
 30
0.0
 11
526.963343093672961
 21
68.7567609912713209
 31
0.0
  0
LINE
  5
8417
  8
0
 10
526.963343093672961
 20
68.4890450221461293
 30
0.0
 11
526.963343093672961
 21
61.1189665411191925
 31
0.0
  0
LINE
  5
8418
  8
0
 10
526.963343093672961
 20
34.4713333543714029
 30
0.0
 11
526.963343093672961
 21
32.717380829171411
 31
0.0
  0
ARC
  5
8419
  8
0
 10
526.1877525425732074
 20
78.8236904475714226
 30
0.0
 40
0.4055118109999825
 50
114.2475340997132065
 51
180.0000000000032117
  0
ARC
  5
841A
  8
0
 10
526.179468117643637
 20
78.8420833027816599
 30
0.0
 40
0.3853393342259787
 50
93.0888750157500908
 51
114.2475340997132065
  0
ARC
  5
841B
  8
0
 10
526.2967537984239925
 20
76.6686502896656492
 30
0.0
 40
2.5619346097465909
 50
91.8823338755503443
 51
93.0888750157500908
  0
ARC
  5
841C
  8
0
 10
526.5481131895262479
 20
78.7976452400726686
 30
0.0
 40
0.4319528844344331
 50
52.1330582670687122
 51
92.4529649683206287
  0
ARC
  5
841D
  8
0
 10
526.580743505882765
 20
78.8396106569724537
 30
0.0
 40
0.3787943125847218
 50
17.4527748327370489
 51
52.1330582670687122
  0
ARC
  5
841E
  8
0
 10
526.4932199980987662
 20
78.8120938919582983
 30
0.0
 40
0.4705414475355343
 50
2.4162494885735701
 51
17.4527748327370489
  0
LINE
  5
841F
  8
0
 10
526.9475199636748357
 20
78.9346532454423624
 30
0.0
 11
526.9510544309730449
 21
78.9383413359320087
 31
0.0
  0
ARC
  5
8420
  8
0
 10
526.9595092355950783
 20
78.9302387065269642
 30
0.0
 40
0.0117105219555387
 50
358.7815070114247078
 51
136.2184926384898063
  0
LINE
  5
8421
  8
0
 10
526.9712171094730593
 20
78.9299896809713744
 30
0.0
 11
526.9712171094730593
 21
78.7173912558713909
 31
0.0
  0
ARC
  5
8422
  8
0
 10
526.95940608587307
 20
78.7173912558714193
 30
0.0
 40
0.0118110236000312
 50
289.4712203092357754
 51
359.999999999879492
  0
LINE
  5
8423
  8
0
 10
527.8294848259730543
 20
69.528414507071389
 30
0.0
 11
525.7901407314732296
 21
69.528414507071389
 31
0.0
  0
ARC
  5
8424
  8
0
 10
525.7901407314732296
 20
69.5363145070713955
 30
0.0
 40
0.0079
 50
180.0
 51
270.0
  0
ARC
  5
8425
  8
0
 10
526.9554430936731251
 20
69.5205145070713826
 30
0.0
 40
0.0079
 50
0.0000000000260551
 51
90.0
  0
LINE
  5
8426
  8
0
 10
527.8294848259730543
 20
69.528414507071389
 30
0.0
 11
527.8294848259730543
 21
73.0717216107714052
 31
0.0
  0
LINE
  5
8427
  8
0
 10
526.7664927000729449
 20
69.5402145070713829
 30
0.0
 11
526.7664927000729449
 21
73.0599216107713829
 31
0.0
  0
ARC
  5
8428
  8
0
 10
526.7782927000730524
 20
69.5402145070713829
 30
0.0
 40
0.0118
 50
179.999999999947903
 51
269.9999999999316174
  0
LINE
  5
8429
  8
0
 10
526.7782927000730524
 20
73.0717216107714052
 30
0.0
 11
527.8294848259730543
 21
73.0717216107714052
 31
0.0
  0
ARC
  5
842A
  8
0
 10
526.7782927000730524
 20
73.0599216107714113
 30
0.0
 40
0.0118
 50
90.0000000000683826
 51
180.000000000052097
  0
ARC
  5
842B
  8
0
 10
525.7901407314732296
 20
69.5205145070713826
 30
0.0
 40
0.0079
 50
90.0
 51
180.0
  0
ARC
  5
842C
  8
0
 10
527.4769805952483921
 20
69.2134541878087219
 30
0.0
 40
0.5307932206195034
 50
165.3931645939892974
 51
194.6069189612352943
  0
ARC
  5
842D
  8
0
 10
526.95940608587307
 20
69.107154691571381
 30
0.0
 40
0.0118110235999994
 50
270.4309282204683882
 51
0.0
  0
LINE
  5
842E
  8
0
 10
526.9712171094730593
 20
69.107154691571381
 30
0.0
 11
526.9712171094730593
 21
69.3197531166713645
 31
0.0
  0
ARC
  5
842F
  8
0
 10
526.9594060857712066
 20
69.3197531166713645
 30
0.0
 40
0.0118110237019664
 50
359.9999999999772058
 51
89.5696983114946619
  0
ARC
  5
8430
  8
0
 10
527.4769805952483921
 20
68.6229030067087393
 30
0.0
 40
0.5307932206195034
 50
165.3931645939892974
 51
194.6069189612352943
  0
ARC
  5
8431
  8
0
 10
526.95940608587307
 20
68.5166035104713984
 30
0.0
 40
0.0118110235999994
 50
270.4309282204683882
 51
0.0
  0
LINE
  5
8432
  8
0
 10
526.9712171094730593
 20
68.5166035104713984
 30
0.0
 11
526.9712171094730593
 21
68.7292019355713961
 31
0.0
  0
ARC
  5
8433
  8
0
 10
526.9594060857712066
 20
68.7292019355713961
 30
0.0
 40
0.0118110237019664
 50
359.9999999999772058
 51
89.5696983114946619
  0
LINE
  5
8434
  8
0
 10
527.2328519610583726
 20
59.957461202285991
 30
0.0
 11
527.2388299542584491
 21
61.0991633926337698
 31
0.0
  0
ARC
  5
8435
  8
0
 10
527.2131522311012759
 20
59.9575643507714204
 30
0.0
 40
0.0197
 50
270.0
 51
359.7000000059200033
  0
ARC
  5
8436
  8
0
 10
527.2191302243013524
 20
61.099266541119178
 30
0.0
 40
0.0197
 50
359.7000000060226057
 51
90.0000000000423341
  0
LINE
  5
8437
  8
0
 10
525.4919252409240471
 20
59.9778144635404615
 30
0.0
 11
525.5073173633907118
 21
61.0801166538882612
 31
0.0
  0
ARC
  5
8438
  8
0
 10
525.5313214003299436
 20
59.9772643507713923
 30
0.0
 40
0.0394
 50
179.1999958351626105
 51
270.0
  0
ARC
  5
8439
  8
0
 10
525.5467135227966082
 20
61.0795665411191777
 30
0.0
 40
0.0394
 50
90.0
 51
179.1999958351445912
  0
LINE
  5
843A
  8
0
 10
525.6010171136731515
 20
61.1003665411191932
 30
0.0
 11
525.6010171136731515
 21
59.9564643507713768
 31
0.0
  0
LINE
  5
843B
  8
0
 10
525.7240525050731321
 20
59.957564350771392
 30
0.0
 11
525.7240525050731321
 21
61.099266541119178
 31
0.0
  0
ARC
  5
843C
  8
0
 10
525.5824171136730456
 20
61.1003665411191506
 30
0.0
 40
0.0186
 50
0.000000000043968
 51
90.0
  0
ARC
  5
843D
  8
0
 10
525.5824171136730456
 20
59.9564643507714123
 30
0.0
 40
0.0186
 50
270.0
 51
359.9999999999723173
  0
ARC
  5
843E
  8
0
 10
525.704352505073075
 20
59.957564350771392
 30
0.0
 40
0.0197
 50
270.0
 51
0.0000000000309404
  0
ARC
  5
843F
  8
0
 10
525.704352505073075
 20
61.099266541119178
 30
0.0
 40
0.0197
 50
359.9999999999690772
 51
90.0000000000423341
  0
LINE
  5
8440
  8
0
 10
525.5954658516732252
 20
61.2016431738714033
 30
0.0
 11
525.5928274562974138
 21
61.1189665411191783
 31
0.0
  0
LINE
  5
8441
  8
0
 10
525.5551358564671318
 20
59.9378643507713917
 30
0.0
 11
525.5508445440977994
 21
59.8033919892441617
 31
0.0
  0
LINE
  5
8442
  8
0
 10
524.6901071650048607
 20
61.2016431748213989
 30
0.0
 11
524.6929825828525509
 21
61.1189660021126286
 31
0.0
  0
LINE
  5
8443
  8
0
 10
524.7340599645820021
 20
59.9378639975852607
 30
0.0
 11
524.7387387034953008
 21
59.8033357565782495
 31
0.0
  0
ARC
  5
8444
  8
0
 10
524.7584268051110712
 20
59.8040203402212427
 30
0.0
 40
0.0197
 50
181.9914544238008034
 51
270.0000000000422915
  0
ARC
  5
8445
  8
0
 10
525.5311545675856451
 20
59.8040203402212711
 30
0.0
 40
0.0197
 50
270.0
 51
358.1721844529412806
  0
LINE
  5
8446
  8
0
 10
524.5815149757730751
 20
61.1189660757713824
 30
0.0
 11
524.7392005290730594
 21
61.1189659715713987
 31
0.0
  0
ARC
  5
8447
  8
0
 10
524.7392005030568498
 20
61.0795958663520793
 30
0.0
 40
0.0393701052193262
 50
0.8000378567474811
 51
89.9999621384490922
  0
LINE
  5
8448
  8
0
 10
524.7785667702729597
 20
61.0801455848714028
 30
0.0
 11
524.7939603789673129
 21
59.9777833904426103
 31
0.0
  0
ARC
  5
8449
  8
0
 10
524.7545941538198804
 20
59.977233672510728
 30
0.0
 40
0.0393700631463888
 50
269.9989167421368847
 51
0.8000378567588791
  0
LINE
  5
844A
  8
0
 10
524.7545934094730455
 20
59.9378636093713979
 30
0.0
 11
524.5815149758039979
 21
59.9378668816643412
 31
0.0
  0
ARC
  5
844B
  8
0
 10
524.5815153479451283
 20
59.9575502043913175
 30
0.0
 40
0.0196833227305156
 50
180.0044178997499102
 51
269.9989167421368847
  0
LINE
  5
844C
  8
0
 10
524.5618320252731337
 20
59.9575486866713803
 30
0.0
 11
524.5617439898401244
 21
61.0992809666773127
 31
0.0
  0
ARC
  5
844D
  8
0
 10
524.5814277742773584
 20
61.0992824844328624
 30
0.0
 40
0.0196837844959618
 50
89.7461720833360346
 51
180.0044178997694075
  0
ARC
  5
844E
  8
0
 10
526.2917515667960515
 20
61.8483442142266284
 30
0.0
 40
1.680628701665549
 50
181.1170652781918022
 51
190.2634360480334124
  0
ARC
  5
844F
  8
0
 10
522.0192150733217886
 20
61.0747090282301173
 30
0.0
 40
2.6613845973793131
 50
5.3602905613320768
 51
10.2634360480334106
  0
ARC
  5
8450
  8
0
 10
522.460588808820944
 20
61.0805942348752211
 30
0.0
 40
2.2216728432212132
 50
3.4100164149518859
 51
6.2725781041714797
  0
ARC
  5
8451
  8
0
 10
524.6901071650048607
 20
61.2134431748212791
 30
0.0
 40
0.0118
 50
183.4100164143318921
 51
270.000000000208388
  0
LINE
  5
8452
  8
0
 10
524.6848341066731791
 20
61.0992809318713981
 30
0.0
 11
524.6848338744902094
 21
59.957548661557702
 31
0.0
  0
ARC
  5
8453
  8
0
 10
524.7047626761501533
 20
59.9575486575049723
 30
0.0
 40
0.0199288016600723
 50
179.9999883483382064
 51
261.0292966120996994
  0
ARC
  5
8454
  8
0
 10
524.704318032269839
 20
61.0997257584438174
 30
0.0
 40
0.0194891178032413
 50
99.1664130006984976
 51
181.3079307956516004
  0
ARC
  5
8455
  8
0
 10
523.7722888705500282
 20
61.863682164027253
 30
0.0
 40
1.9027615120257899
 50
349.41253140964659
 51
358.5513967712636259
  0
ARC
  5
8456
  8
0
 10
528.8733285637347308
 20
60.9850417686558117
 30
0.0
 40
3.2737006710744301
 50
170.7001529509610975
 51
176.0136973051386065
  0
ARC
  5
8457
  8
0
 10
525.5957765111668323
 20
61.2134431748213004
 30
0.0
 40
0.0118
 50
269.999999999791612
 51
356.0136973055678027
  0
LINE
  5
8458
  8
0
 10
524.6114422687730894
 20
61.8155799678713791
 30
0.0
 11
524.6114422687730894
 21
64.4851028495147744
 31
0.0
  0
LINE
  5
8459
  8
0
 10
525.6744422687731912
 20
61.8155799678713791
 30
0.0
 11
525.6744430114730449
 21
64.8304929261714022
 31
0.0
  0
ARC
  5
845A
  8
0
 10
519.9413841589064305
 20
64.5132963707264508
 30
0.0
 40
4.6701432123833344
 50
359.6541049141807207
 51
1.5805634439044181
  0
ARC
  5
845B
  8
0
 10
524.4997283555143213
 20
64.6390749254403971
 30
0.0
 40
0.1100640398716802
 50
1.5805634439044181
 51
107.8067311820822027
  0
ARC
  5
845C
  8
0
 10
524.4624920402610542
 20
64.7550056730117802
 30
0.0
 40
0.0117
 50
197.9999925133309944
 51
287.8067311821027943
  0
ARC
  5
845D
  8
0
 10
527.1321628718635566
 20
64.8584153728477162
 30
0.0
 40
1.4579872614001519
 50
171.5812116256190905
 51
181.0973594924070937
  0
ARC
  5
845E
  8
0
 10
526.0557716070819652
 20
65.0177236893286334
 30
0.0
 40
0.3698708638590641
 50
144.8764206403241985
 51
171.5812116256190905
  0
ARC
  5
845F
  8
0
 10
525.9681144376469319
 20
65.0793840882985108
 30
0.0
 40
0.2626991131291577
 50
104.7852293115370941
 51
144.8764206403255059
  0
ARC
  5
8460
  8
0
 10
525.8972284257897627
 20
65.344539795640074
 30
0.0
 40
0.0117992157521075
 50
289.0239720143111981
 51
18.0277717951927485
  0
LINE
  5
8461
  8
0
 10
525.9084483781731478
 20
65.3481913926713815
 30
0.0
 11
525.428604667685704
 21
66.8249984808496436
 31
0.0
  0
ARC
  5
8462
  8
0
 10
525.4173822007934405
 20
66.8213520803160321
 30
0.0
 40
0.0118
 50
18.0000000000674802
 51
106.9949557390943937
  0
LINE
  5
8463
  8
0
 10
525.4139332081575731
 20
66.8326367801258669
 30
0.0
 11
525.31473024347315
 21
66.8023169399513819
 31
0.0
  0
ARC
  5
8464
  8
0
 10
525.2779591744933896
 20
66.9226275694406212
 30
0.0
 40
0.1258044477831076
 50
197.5973355550283941
 51
286.9949557390945074
  0
LINE
  5
8465
  8
0
 10
522.877097433673157
 20
69.596488712471384
 30
0.0
 11
524.451364678547975
 21
64.7513901756315846
 31
0.0
  0
ARC
  5
8466
  8
0
 10
534.5876822657015737
 20
33.2632009650037972
 30
0.0
 40
38.1857270155251669
 50
106.9274439514670973
 51
107.8469738075996958
  0
ARC
  5
8467
  8
0
 10
523.8041992596764658
 20
68.6947985637915934
 30
0.0
 40
1.1495067150725891
 50
93.1538381644965057
 51
106.9274439514670973
  0
ARC
  5
8468
  8
0
 10
523.767777954834969
 20
69.3557960235114166
 30
0.0
 40
0.4875065993607941
 50
37.8496222713643888
 51
93.1538381644965057
  0
ARC
  5
8469
  8
0
 10
523.0805183103591389
 20
68.8217488120519505
 30
0.0
 40
1.357869881555503
 50
19.7364455796498106
 51
37.8496222713643888
  0
ARC
  5
846A
  8
0
 10
464.9469384946704054
 20
48.1239960236995401
 30
0.0
 40
63.0661318208672768
 50
17.3060087937318912
 51
19.6006407922971384
  0
ARC
  5
846B
  8
0
 10
494.221561705655688
 20
57.2429965734929027
 30
0.0
 40
32.4041076708366518
 50
15.9116803678073495
 51
17.3100556989654102
  0
ARC
  5
846C
  8
0
 10
523.1170456258904551
 20
65.4804167562484594
 30
0.0
 40
2.3574093126599589
 50
4.7109437408781636
 51
15.9127077423074308
  0
ARC
  5
846D
  8
0
 10
524.4602898373698281
 20
65.5911098367965479
 30
0.0
 40
1.0096118613515319
 50
347.0341573320239945
 51
4.7109437408781636
  0
ARC
  5
846E
  8
0
 10
525.0471135579963402
 20
65.5026212705541155
 30
0.0
 40
0.4203580852673661
 50
296.766884847531685
 51
340.8293786732762101
  0
ARC
  5
846F
  8
0
 10
526.7069911717037485
 20
61.207273671861067
 30
0.0
 40
4.1867904573294981
 50
110.5631223135685985
 51
122.3599211756969964
  0
LINE
  5
8470
  8
0
 10
525.5656508957731603
 20
66.4032135115713942
 30
0.0
 11
525.6364591258732162
 21
66.4255317292713841
 31
0.0
  0
ARC
  5
8471
  8
0
 10
525.6423778799451156
 20
66.4067535048688882
 30
0.0
 40
0.0196889146850666
 50
17.1962270086053515
 51
107.4944566508843025
  0
LINE
  5
8472
  8
0
 10
525.6611866574729675
 20
66.4125744368713953
 30
0.0
 11
525.9650876191819862
 21
65.4765856447921095
 31
0.0
  0
LINE
  5
8473
  8
0
 10
525.8833101101730563
 20
65.4255590018714059
 30
0.0
 11
525.9535159007731409
 21
65.4490344532713806
 31
0.0
  0
ARC
  5
8474
  8
0
 10
525.9472116434376403
 20
65.4678879936289917
 30
0.0
 40
0.0198796288840526
 50
288.4889332188611206
 51
25.9454846774759709
  0
LINE
  5
8475
  8
0
 10
524.8516036861730072
 20
59.7843203224714017
 30
0.0
 11
524.8516036861730072
 21
21.5835329386714108
 31
0.0
  0
LINE
  5
8476
  8
0
 10
525.4342808514730905
 20
59.7843203224714017
 30
0.0
 11
525.4342805960732221
 21
21.5835329386713788
 31
0.0
  0
ARC
  5
8477
  8
0
 10
531.3469138674461192
 20
21.5835328991411615
 30
0.0
 40
5.9126332713730534
 50
179.9999996169362078
 51
190.3587186489330918
  0
ARC
  5
8478
  8
0
 10
527.7486073158723912
 20
20.9257996045021883
 30
0.0
 40
2.254707202413412
 50
190.3587186489330918
 51
207.2219462450906065
  0
ARC
  5
8479
  8
0
 10
526.5464370462532315
 20
20.3073857986844217
 30
0.0
 40
0.90280151325362
 50
207.2219462450883896
 51
227.7079016990581977
  0
ARC
  5
847A
  8
0
 10
526.1002407615927723
 20
19.8168866083321191
 30
0.0
 40
0.2397173706435943
 50
227.7079016990581977
 51
257.2538626503925911
  0
ARC
  5
847B
  8
0
 10
526.0653170420525839
 20
19.6624976236738398
 30
0.0
 40
0.0814276844023311
 50
257.2538626503891805
 51
319.9973453005175088
  0
ARC
  5
847C
  8
0
 10
613.3058769562649104
 20
31.383747954504301
 30
0.0
 40
87.2243263118421339
 50
180.0627253085716859
 51
183.1026431557004059
  0
ARC
  5
847D
  8
0
 10
-2495.0680294856488217
 20
-137.1035810160535107
 30
0.0
 40
3025.7126024216331643
 50
3.0551787966591908
 51
3.102643155700441
  0
ARC
  5
847E
  8
0
 10
457.9489156953279121
 20
20.5093430198164803
 30
0.0
 40
68.4924698733086927
 50
0.6912560676235672
 51
3.0551787966591908
  0
ARC
  5
847F
  8
0
 10
520.3379624007843631
 20
21.2620843219535409
 30
0.0
 40
6.098882315903511
 50
347.023500754373174
 51
0.6912560676235672
  0
ARC
  5
8480
  8
0
 10
525.6942274607940817
 20
20.0284696862186316
 30
0.0
 40
0.6023946883611777
 50
316.0188855097114242
 51
346.9620736649105766
  0
LINE
  5
8481
  8
0
 10
521.5302722275730503
 20
34.6937698055714208
 30
0.0
 11
524.8516036861730072
 21
34.6937698055714208
 31
0.0
  0
LINE
  5
8482
  8
0
 10
525.4342806837246371
 20
34.6937698055714208
 30
0.0
 11
525.7822407314731663
 21
34.6937698055714208
 31
0.0
  0
LINE
  5
8483
  8
0
 10
526.963343093672961
 20
34.6937698055714208
 30
0.0
 11
527.8294848259730543
 21
34.6937698055714208
 31
0.0
  0
LINE
  5
8484
  8
0
 10
521.4909021488731469
 20
34.6543997267713877
 30
0.0
 11
524.8516036861730072
 21
34.6543997267713877
 31
0.0
  0
LINE
  5
8485
  8
0
 10
525.4342806834613384
 20
34.6543997267713877
 30
0.0
 11
525.7822407314731663
 21
34.6543997267713877
 31
0.0
  0
LINE
  5
8486
  8
0
 10
526.963343093672961
 20
34.6543997267713877
 30
0.0
 11
527.8294848259730543
 21
34.6543997267713877
 31
0.0
  0
LINE
  5
8487
  8
0
 10
521.4909021488731469
 20
34.5362894905714128
 30
0.0
 11
523.3882372464952368
 21
34.5362894905714128
 31
0.0
  0
LINE
  5
8488
  8
0
 10
524.0030158700509446
 20
34.5362894905714128
 30
0.0
 11
524.8516036861730072
 21
34.5362894905714128
 31
0.0
  0
LINE
  5
8489
  8
0
 10
525.434280682671556
 20
34.5362894905714128
 30
0.0
 11
525.7822407314731663
 21
34.5362894905714128
 31
0.0
  0
LINE
  5
848A
  8
0
 10
526.963343093672961
 20
34.5362894905714128
 30
0.0
 11
527.8294848259730543
 21
34.5362894905714128
 31
0.0
  0
LINE
  5
848B
  8
0
 10
521.4909021488731469
 20
34.6543997267714232
 30
0.0
 11
521.4909021488731469
 21
34.5362894905714128
 31
0.0
  0
LINE
  5
848C
  8
0
 10
521.5302722275730503
 20
34.6937698055714208
 30
0.0
 11
521.4909021488731469
 21
34.6543997267714232
 31
0.0
  0
LINE
  5
848D
  8
0
 10
521.5302722275730503
 20
34.5362894905714128
 30
0.0
 11
521.5549089248947894
 21
32.6227959980672182
 31
0.0
  0
ARC
  5
848E
  8
0
 10
521.5627759147902225
 20
32.6228972874886978
 30
0.0
 40
0.0078676419314086
 50
180.7376564335951059
 51
270.0458043628141809
  0
CIRCLE
  5
848F
  8
0
 10
523.6956265582731476
 20
33.5599115378714004
 30
0.0
 40
1.0236220471999991
  0
LINE
  5
8490
  8
0
 10
521.5627822044731374
 20
32.615029648071399
 30
0.0
 11
523.301925771073229
 21
32.615029648071399
 31
0.0
  0
LINE
  5
8491
  8
0
 10
524.0893273454729524
 20
32.615029648071399
 30
0.0
 11
524.8516036861730072
 21
32.615029648071399
 31
0.0
  0
LINE
  5
8492
  8
0
 10
523.5381462432731041
 20
32.5487324822713973
 30
0.0
 11
523.5381462433731485
 21
32.4575493330713769
 31
0.0
  0
ARC
  5
8493
  8
0
 10
523.5775163221162529
 20
32.4575493331145566
 30
0.0
 40
0.0393700787431612
 50
180.0000000628415933
 51
269.9999999371909212
  0
LINE
  5
8494
  8
0
 10
523.5775163220730519
 20
32.4181792543713883
 30
0.0
 11
523.8136899484730975
 21
32.418179254112502
 31
0.0
  0
ARC
  5
8495
  8
0
 10
523.8136899485160711
 20
32.4575337204662588
 30
0.0
 40
0.0393544663537551
 50
269.9999999371942181
 51
0.0227302384773513
  0
LINE
  5
8496
  8
0
 10
523.8530444117732259
 20
32.4575493330713769
 30
0.0
 11
523.853008337022402
 21
32.5484824245679008
 31
0.0
  0
ARC
  5
8497
  8
0
 10
521.8924769519729807
 20
32.607155632371402
 30
0.0
 40
0.0078740157000006
 50
90.0000000002051763
 51
180.0
  0
LINE
  5
8498
  8
0
 10
521.8846029362731542
 20
32.607155632371402
 30
0.0
 11
521.8846029362731542
 21
32.6035297374713906
 31
0.0
  0
ARC
  5
8499
  8
0
 10
521.8925687888742004
 20
32.6035297374713906
 30
0.0
 40
0.0079658526011315
 50
179.9999999999641034
 51
240.2046458911160016
  0
LINE
  5
849A
  8
0
 10
521.8886105280739685
 20
32.5966169247948727
 30
0.0
 11
523.5196293922140285
 21
31.9042904866632995
 31
0.0
  0
ARC
  5
849B
  8
0
 10
523.5273209498113829
 20
31.9224106606808817
 30
0.0
 40
0.0196850391084709
 50
246.9999998350226065
 51
269.000000167115104
  0
LINE
  5
849C
  8
0
 10
523.5269773985654638
 20
31.9027286196982409
 30
0.0
 11
524.8516036862382634
 21
31.8796071857060106
 31
0.0
  0
ARC
  5
849D
  8
0
 10
524.26019016720727
 20
31.8701320268586308
 30
0.0
 40
0.019836069446604
 50
31.102999368464431
 51
85.3260350220144943
  0
ARC
  5
849E
  8
0
 10
507.3623202071705123
 20
21.6754786515331084
 30
0.0
 40
19.7548041877221401
 50
30.8970006860618298
 51
31.102999368464431
  0
ARC
  5
849F
  8
0
 10
524.3305924290698385
 20
31.829573702217111
 30
0.0
 40
0.0196214295949752
 50
210.8970006860450894
 51
269.1030112913645098
  0
LINE
  5
84A0
  8
0
 10
524.3302852601731274
 20
31.8099546770713886
 30
0.0
 11
524.8516036861730072
 21
31.8008550300713893
 31
0.0
  0
LINE
  5
84A1
  8
0
 10
527.8294848259730543
 20
34.6937698055714208
 30
0.0
 11
527.8294848259730543
 21
31.8282900696999214
 31
0.0
  0
LINE
  5
84A2
  8
0
 10
525.7881407314730495
 20
34.4772333543713927
 30
0.0
 11
526.9574430936731915
 21
34.4772333543713927
 31
0.0
  0
ARC
  5
84A3
  8
0
 10
526.9554430936731251
 20
34.4851333543713992
 30
0.0
 40
0.0079
 50
270.0
 51
0.0
  0
ARC
  5
84A4
  8
0
 10
525.7901407314732296
 20
34.4851333543713992
 30
0.0
 40
0.0079
 50
180.0
 51
270.0
  0
ARC
  5
84A5
  8
0
 10
526.9574430936731915
 20
34.4713333543714029
 30
0.0
 40
0.0059
 50
0.0000000000863075
 51
89.9999999998632063
  0
ARC
  5
84A6
  8
0
 10
525.7881407314730495
 20
34.4713333543713674
 30
0.0
 40
0.0059
 50
90.0000000001367937
 51
179.999999999879492
  0
LINE
  5
84A7
  8
0
 10
525.7940407314730464
 20
32.7055808291713817
 30
0.0
 11
526.9515430936729672
 21
32.7055808291713817
 31
0.0
  0
ARC
  5
84A8
  8
0
 10
525.7940407314730464
 20
32.7173808291713826
 30
0.0
 40
0.0118
 50
179.9999999999575948
 51
270.0000000000683826
  0
ARC
  5
84A9
  8
0
 10
526.9515430936730809
 20
32.7173808291713826
 30
0.0
 40
0.0118
 50
269.9999999998631779
 51
0.0000000000602524
  0
LINE
  5
84AA
  8
0
 10
525.4342808514730905
 20
32.615029648071399
 30
0.0
 11
525.9231801453055368
 21
32.615029648071399
 31
0.0
  0
LINE
  5
84AB
  8
0
 10
526.8224041037969982
 20
32.615029648071399
 30
0.0
 11
527.8294848259730543
 21
32.615029648071399
 31
0.0
  0
ARC
  5
84AC
  8
0
 10
527.7853026622362904
 20
32.6347296480713993
 30
0.0
 40
0.0197
 50
270.0
 51
359.2500000006913865
  0
LINE
  5
84AD
  8
0
 10
527.8050009744895306
 20
32.6344717830388831
 30
0.0
 11
527.8294848259730543
 21
34.5047934275713928
 31
0.0
  0
LINE
  5
84AE
  8
0
 10
525.4342808514730905
 20
31.8694365141714009
 30
0.0
 11
525.9493809870117502
 21
31.8604454078707313
 31
0.0
  0
LINE
  5
84AF
  8
0
 10
526.7956899084731504
 20
31.8456730306713887
 30
0.0
 11
527.8294848259730543
 21
31.8282900696999214
 31
0.0
  0
LINE
  5
84B0
  8
0
 10
525.9200360070731222
 20
32.7055808291713817
 30
0.0
 11
525.9685888158156786
 21
31.3072599372713789
 31
0.0
  0
ARC
  5
84B1
  8
0
 10
525.9882619994242532
 20
31.3079430339244205
 30
0.0
 40
0.0196850393530249
 50
181.9886378562993059
 51
270.0000004331889158
  0
LINE
  5
84B2
  8
0
 10
525.9882619995729556
 20
31.2882579945713992
 30
0.0
 11
526.7573218256732162
 21
31.288258000385941
 31
0.0
  0
ARC
  5
84B3
  8
0
 10
526.7573218255241727
 20
31.3079430402561805
 30
0.0
 40
0.0196850398702377
 50
270.0000004331856189
 51
358.0113435961325763
  0
LINE
  5
84B4
  8
0
 10
526.7769950094284468
 20
31.3072599372166707
 30
0.0
 11
526.8255482708316322
 21
32.7055808134505384
 31
0.0
  0
LINE
  5
84B5
  8
0
 10
525.7507446684730894
 20
31.8639126176713994
 30
0.0
 11
525.7507446685731338
 21
31.8276280732713914
 31
0.0
  0
ARC
  5
84B6
  8
0
 10
525.7901147473817218
 20
31.8276280733798984
 30
0.0
 40
0.0393700788085028
 50
180.000000157913405
 51
269.9999998420996121
  0
LINE
  5
84B7
  8
0
 10
525.7901147472731509
 20
31.7882579945713992
 30
0.0
 11
525.9518874944205891
 21
31.7882579941255692
 31
0.0
  0
LINE
  5
84B8
  8
0
 10
526.7936964867576535
 20
31.7882579945713992
 30
0.0
 11
526.9554690779731345
 21
31.7882579945713992
 31
0.0
  0
ARC
  5
84B9
  8
0
 10
526.9554690779731345
 20
31.8276280732713914
 30
0.0
 40
0.0393700786999887
 50
270.0
 51
0.0000000000162844
  0
LINE
  5
84BA
  8
0
 10
526.9948391566731516
 20
31.8276280732713914
 30
0.0
 11
526.9948391566731516
 21
31.8423240664483416
 31
0.0
  0
LINE
  5
84BB
  8
0
 10
525.4342808514730905
 20
31.7906843623713797
 30
0.0
 11
525.9521170950285978
 21
31.7816454970704108
 31
0.0
  0
ARC
  5
84BC
  8
0
 10
616.4649274257072875
 20
31.3941565056475014
 30
0.0
 40
89.8005578357749386
 50
180.0675668313635924
 51
183.4819782383999893
  0
ARC
  5
84BD
  8
0
 10
389.254961511166016
 20
17.5691320476194512
 30
0.0
 40
137.8296245042479882
 50
1.7660901812897249
 51
3.4819782384000169
  0
ARC
  5
84BE
  8
0
 10
516.3554984146975357
 20
21.4881315096450116
 30
0.0
 40
10.6686830247617195
 50
353.7725346047142239
 51
1.7660901812897249
  0
ARC
  5
84BF
  8
0
 10
524.0203263008072554
 20
20.6517469591241714
 30
0.0
 40
2.9583571146568768
 50
335.3682998749694093
 51
353.7725346047142239
  0
ARC
  5
84C0
  8
0
 10
526.0572614154876874
 20
19.7178016976425994
 30
0.0
 40
0.7175183402550129
 50
286.1392423738644766
 51
335.3682998749694093
  0
ARC
  5
84C1
  8
0
 10
526.0589947983064576
 20
19.7118116531097307
 30
0.0
 40
0.7112825364173427
 50
235.1271362871063104
 51
286.1392423738644766
  0
ARC
  5
84C2
  8
0
 10
526.451350645518005
 20
20.274808624003569
 30
0.0
 40
1.3975104140765611
 50
196.3423384674304089
 51
235.1271362871063104
  0
ARC
  5
84C3
  8
0
 10
531.2753694401217217
 20
21.6893197858118896
 30
0.0
 40
6.424636746044956
 50
180.9434640475091953
 51
196.3423299682349068
  0
LINE
  5
84C4
  8
0
 10
521.5331135088702013
 20
34.2877479231713522
 30
0.0
 11
521.0263346616732179
 21
34.2861022508713873
 31
0.0
  0
LINE
  5
84C5
  8
0
 10
521.0263346616732179
 20
34.2861022508713873
 30
0.0
 11
521.0184612039730609
 21
34.2779339453714016
 31
0.0
  0
LINE
  5
84C6
  8
0
 10
521.0184612039730609
 20
34.2779339453714016
 30
0.0
 11
521.0184612039730609
 21
32.8418686823713912
 31
0.0
  0
LINE
  5
84C7
  8
0
 10
521.0184612039730609
 20
32.8418686823713912
 30
0.0
 11
521.026334452173046
 21
32.8336540951425278
 31
0.0
  0
LINE
  5
84C8
  8
0
 10
521.026334452173046
 20
32.8336540951425278
 30
0.0
 11
521.5521727932081149
 21
32.831809017470917
 31
0.0
  0
LINE
  5
84C9
  8
0
 10
521.1761136790247519
 20
34.2865886310376666
 30
0.0
 11
521.1761136790247519
 21
32.8331285452052697
 31
0.0
  0
LINE
  5
84CA
  8
0
 10
521.4200352787731845
 20
34.2873807221485976
 30
0.0
 11
521.4200352787731845
 21
32.8322726656274568
 31
0.0
  0
LINE
  5
84CB
  8
0
 10
523.5420832602731025
 20
38.4656117230713974
 30
0.0
 11
523.5420832602731025
 21
40.6699593840713902
 31
0.0
  0
ARC
  5
84CC
  8
0
 10
523.5617832602731596
 20
38.4656117230713832
 30
0.0
 40
0.0197
 50
179.9999999999641034
 51
270.0000000000422915
  0
ARC
  5
84CD
  8
0
 10
523.5617843140894365
 20
40.6699589475663714
 30
0.0
 40
0.0197010538211973
 50
89.5464786875223382
 51
179.9987305300803939
  0
LINE
  5
84CE
  8
0
 10
523.5619402550501036
 20
40.6896593842133001
 30
0.0
 11
524.164958465573136
 21
40.6843868315882133
 31
0.0
  0
ARC
  5
84CF
  8
0
 10
523.696294788255841
 20
-12.9163549965117994
 30
0.0
 40
53.6027906938161891
 50
89.1605758600887555
 51
89.4990411411946667
  0
ARC
  5
84D0
  8
0
 10
524.4611327958523361
 20
39.2847342388531473
 30
0.0
 40
1.3960986463746059
 50
81.6203215427369742
 51
89.1605758600887555
  0
ARC
  5
84D1
  8
0
 10
524.563841299082469
 20
39.981986000306037
 30
0.0
 40
0.6913227561195019
 50
65.395541955004191
 51
81.6203215427369742
  0
ARC
  5
84D2
  8
0
 10
523.5617843140894365
 20
38.4656121595764233
 30
0.0
 40
0.0197010538211973
 50
180.0012694699196061
 51
270.453521312477676
  0
LINE
  5
84D3
  8
0
 10
523.5619402550501036
 20
38.4459117229294733
 30
0.0
 11
524.164958465573136
 21
38.4511842755545814
 31
0.0
  0
ARC
  5
84D4
  8
0
 10
523.696294788255841
 20
92.0519261036545942
 30
0.0
 40
53.6027906938161891
 50
270.5009588588052907
 51
270.8394241399112161
  0
ARC
  5
84D5
  8
0
 10
524.4611327958523361
 20
39.850836868289619
 30
0.0
 40
1.3960986463746059
 50
270.8394241399112161
 51
278.3796784572630258
  0
ARC
  5
84D6
  8
0
 10
524.563841299082469
 20
39.1535851068367577
 30
0.0
 40
0.6913227561195019
 50
278.3796784572630258
 51
294.6044580449957948
  0
LINE
  5
84D7
  8
0
 10
525.4342808514730905
 20
40.1038581710713871
 30
0.0
 11
525.4859706294729449
 21
40.0890896630333629
 31
0.0
  0
ARC
  5
84D8
  8
0
 10
525.4751551095606601
 20
40.0512353434371065
 30
0.0
 40
0.0393690866426189
 50
359.9953417673061153
 51
74.0546040601089288
  0
LINE
  5
84D9
  8
0
 10
525.5145241960731255
 20
40.0512321426713882
 30
0.0
 11
525.5144455862096038
 21
39.0843389676669375
 31
0.0
  0
ARC
  5
84DA
  8
0
 10
525.4750380138339096
 20
39.0843421715616017
 30
0.0
 40
0.0394075725058212
 50
286.1065349546057064
 51
359.9953417673061153
  0
LINE
  5
84DB
  8
0
 10
525.4859706294729449
 20
39.0464814440713965
 30
0.0
 11
525.4343224522634728
 21
39.0315675819423475
 31
0.0
  0
ARC
  5
84DC
  8
0
 10
525.2861777301288839
 20
39.5677855432643213
 30
0.0
 40
0.3543466101388288
 50
41.808017455976433
 51
49.8605008436740889
  0
ARC
  5
84DD
  8
0
 10
525.2861777393743523
 20
39.5677855535701823
 30
0.0
 40
0.3543465962982444
 50
310.1394989509715856
 51
318.1919831816117039
  0
LINE
  5
84DE
  8
0
 10
525.5503015715729589
 20
39.8040060260718889
 30
0.0
 11
525.5503015731305823
 21
39.3315650829286412
 31
0.0
  0
LINE
  5
84DF
  8
0
 10
525.7822407314731663
 20
39.9024312228713924
 30
0.0
 11
525.6838155346731583
 21
39.9024312228713924
 31
0.0
  0
ARC
  5
84E0
  8
0
 10
525.6838155346731583
 20
39.8827461834713901
 30
0.0
 40
0.0196850394000023
 50
90.0
 51
179.9999999999901945
  0
LINE
  5
84E1
  8
0
 10
525.6641304952730707
 20
39.8827461834713901
 30
0.0
 11
525.6641304952728433
 21
39.2528249236713833
 31
0.0
  0
ARC
  5
84E2
  8
0
 10
525.6838155346730446
 20
39.2528249236713833
 30
0.0
 40
0.0196850394000023
 50
179.9999999999722888
 51
270.0000000003321929
  0
LINE
  5
84E3
  8
0
 10
525.6838155346731583
 20
39.233139884271381
 30
0.0
 11
525.7822407314731663
 21
39.2331398842719494
 31
0.0
  0
LINE
  5
84E4
  8
0
 10
525.5503015715729589
 20
39.7646359472714011
 30
0.0
 11
525.6641304952730707
 21
39.7646359472713726
 31
0.0
  0
LINE
  5
84E5
  8
0
 10
525.5503015730007519
 20
39.3709351598714008
 30
0.0
 11
525.6641304952728433
 21
39.3709351598714008
 31
0.0
  0
LINE
  5
84E7
  8
0
 10
523.5184608722731809
 20
2.355060929536676
 30
0.0
 11
523.5184608722731809
 21
9.7445740988712402
 31
0.0
  0
LINE
  5
84E8
  8
0
 10
523.5775159903729445
 20
2.3557805054923469
 30
0.0
 11
523.5775159903729445
 21
9.7438543347986553
 31
0.0
  0
LINE
  5
84E9
  8
0
 10
523.534674943207051
 20
9.7603686721564458
 30
0.0
 11
523.5621300613070161
 21
9.7596489080838609
 31
0.0
  0
LINE
  5
84EA
  8
0
 10
523.5346748350599455
 20
2.3392663534166611
 30
0.0
 11
523.562129953160138
 21
2.339985929372332
 31
0.0
  0
ARC
  5
84EB
  8
0
 10
523.5342608722730802
 20
2.3550609295366911
 30
0.0
 40
0.0158
 50
180.0000000000260059
 51
271.5013313278547002
  0
ARC
  5
84EC
  8
0
 10
523.5617159903730453
 20
2.3557805054923469
 30
0.0
 40
0.0158
 50
271.5013313278025748
 51
0.0
  0
ARC
  5
84ED
  8
0
 10
523.5342608722730802
 20
9.7445740988712402
 30
0.0
 40
0.0158
 50
88.4982763626707936
 51
179.9999999999870113
  0
ARC
  5
84EE
  8
0
 10
523.5617159903730453
 20
9.7438543347986553
 30
0.0
 40
0.0158
 50
0.0000000000130276
 51
88.4982763627212847
  0
ARC
  5
84EF
  8
0
 10
523.2661487116547505
 20
-5.073178859809004
 30
0.0
 40
14.8355976903917899
 50
87.7870352105183542
 51
88.7203867665361372
  0
ARC
  5
84F0
  8
0
 10
523.5970159903731656
 20
9.7392239707619552
 30
0.0
 40
0.0195
 50
88.7203867665230916
 51
180.0
  0
ARC
  5
84F1
  8
0
 10
523.7943670366249762
 20
8.5960986406648914
 30
0.0
 40
1.156118095619334
 50
76.840564489587706
 51
87.7870352105183542
  0
ARC
  5
84F2
  8
0
 10
523.9436401777893479
 20
9.2345608101335728
 30
0.0
 40
0.5004379811460017
 50
42.2547876622425207
 51
76.8405644895894824
  0
ARC
  5
84F3
  8
0
 10
523.9536575550713451
 20
9.2436614828165915
 30
0.0
 40
0.4869039466072795
 50
14.7652156096419507
 51
42.2547876622425207
  0
LINE
  5
84F4
  8
0
 10
524.5015165806729556
 20
8.8773740156637881
 30
0.0
 11
524.5015165806729556
 21
6.940176932476092
 31
0.0
  0
LINE
  5
84F5
  8
0
 10
524.5015165806729556
 20
5.154163307969938
 30
0.0
 11
524.5015165806729556
 21
3.2458691424517521
 31
0.0
  0
ARC
  5
84F6
  8
0
 10
522.5100852518457941
 20
8.8157810163435926
 30
0.0
 40
1.9923836063870319
 50
1.7715369905898359
 51
16.0836889536903911
  0
ARC
  5
84F7
  8
0
 10
523.4842457080611666
 20
9.2791930007201842
 30
0.0
 40
6.9391990900232861
 50
270.9337902112404208
 51
273.433485106778619
  0
ARC
  5
84F8
  8
0
 10
523.5970159903731656
 20
2.3604128799259878
 30
0.0
 40
0.0195
 50
180.0
 51
270.9337902112437177
  0
ARC
  5
84F9
  8
0
 10
523.851678358761319
 20
3.1550557933779682
 30
0.0
 40
0.8040492721986408
 50
273.433485106778619
 51
290.472122251402709
  0
ARC
  5
84FA
  8
0
 10
523.9774810952455937
 20
2.8180813549559072
 30
0.0
 40
0.4443575977651276
 50
290.4721222514045849
 51
327.8697154648396008
  0
ARC
  5
84FB
  8
0
 10
523.7092434118058009
 20
2.9865441745005081
 30
0.0
 40
0.7611085668024195
 50
327.8697154648396008
 51
353.1186927498089858
  0
ARC
  5
84FC
  8
0
 10
513.4806659523464987
 20
4.2209522450985011
 30
0.0
 40
11.0639023689182903
 50
353.1186927498089858
 51
354.9438523512516213
  0
LINE
  5
84FD
  8
0
 10
525.2901144155730435
 20
6.7020375220714072
 30
0.0
 11
525.2901144155730435
 21
5.4500690180782518
 31
0.0
  0
LINE
  5
84FE
  8
0
 10
525.4475947304731562
 20
6.6630520679152729
 30
0.0
 11
525.4475947304731562
 21
5.4964947422856341
 31
0.0
  0
ARC
  5
84FF
  8
0
 10
525.0538939430749679
 20
6.0760532700735288
 30
0.0
 40
0.3543307086971114
 50
41.8103148957594186
 51
48.1588883405098684
  0
LINE
  5
8500
  8
0
 10
525.4475947304731562
 20
6.3122737424714037
 30
0.0
 11
525.3179964601731626
 21
6.3122737424714037
 31
0.0
  0
LINE
  5
8501
  8
0
 10
524.6393566238765516
 20
6.7839087780147187
 30
0.0
 11
525.2901144155730435
 21
6.7020375220714072
 31
0.0
  0
ARC
  5
8502
  8
0
 10
524.6590165806730965
 20
6.940176932476092
 30
0.0
 40
0.1575
 50
180.0
 51
262.8293430568461986
  0
LINE
  5
8503
  8
0
 10
524.6261055739756785
 20
5.3081864089586039
 30
0.0
 11
525.2901144150730488
 21
5.4500690179714146
 31
0.0
  0
ARC
  5
8504
  8
0
 10
524.6590165806730965
 20
5.154163307969938
 30
0.0
 40
0.1575
 50
102.0613406503698997
 51
180.0
  0
ARC
  5
8505
  8
0
 10
528.266302347665146
 20
6.047170120223015
 30
0.0
 40
3.8692470893026392
 50
166.656058958032304
 51
193.3439410419676108
  0
LINE
  5
8506
  8
0
 10
525.7822407315732107
 20
7.1311886260311184
 30
0.0
 11
525.7822407315732107
 21
7.0163861094701749
 31
0.0
  0
LINE
  5
8507
  8
0
 10
525.7822407315732107
 20
7.1504886260311187
 30
0.0
 11
525.7822407315732107
 21
19.0565788447440703
 31
0.0
  0
LINE
  5
8508
  8
0
 10
525.7822407315732107
 20
19.8267044437700193
 30
0.0
 11
525.7822407315732107
 21
31.7846107000398916
 31
0.0
  0
LINE
  5
8509
  8
0
 10
525.7901407315730467
 20
7.1425886260311273
 30
0.0
 11
526.9554430937730558
 21
7.1425886260311273
 31
0.0
  0
ARC
  5
850A
  8
0
 10
525.7901407315730467
 20
7.1504886260311187
 30
0.0
 40
0.0079
 50
179.9999999999739089
 51
270.0
  0
ARC
  5
850B
  8
0
 10
525.7936407315730776
 20
7.1311886260311184
 30
0.0
 40
0.0114
 50
90.0000000000716369
 51
179.9999999999641034
  0
ARC
  5
850C
  8
0
 10
525.4872667884453676
 20
6.9789883435654607
 30
0.0
 40
0.2969732423669191
 50
266.364771252187893
 51
292.0086408560807172
  0
ARC
  5
850D
  8
0
 10
525.4995548802849044
 20
6.9485874499650171
 30
0.0
 40
0.2641828240597259
 50
292.0086408560790119
 51
329.8877853121556996
  0
ARC
  5
850E
  8
0
 10
525.3809454301252799
 20
7.017376730270044
 30
0.0
 40
0.4012965241483812
 50
329.887785312157007
 51
0.1414376780490367
  0
ARC
  5
850F
  8
0
 10
525.4671947304735795
 20
6.6630520679149887
 30
0.0
 40
0.0196
 50
86.3647712541019814
 51
179.9999999992101891
  0
LINE
  5
8510
  8
0
 10
525.4712229069219802
 20
5.477190353411955
 30
0.0
 11
525.5618218492732012
 21
5.4956259865714108
 31
0.0
  0
ARC
  5
8511
  8
0
 10
525.8125539404419442
 20
4.9275860678332739
 30
0.0
 40
0.6209153974753915
 50
91.2034601723909049
 51
113.8166017542463067
  0
ARC
  5
8512
  8
0
 10
525.3203148362531465
 20
7.6909619853706479
 30
0.0
 40
2.1955306504465582
 50
282.606898375392575
 51
298.8737138722951272
  0
ARC
  5
8513
  8
0
 10
525.7637411717172427
 20
6.8868248290623049
 30
0.0
 40
1.2772368624142081
 50
298.8737138722951272
 51
319.4088611702666185
  0
ARC
  5
8514
  8
0
 10
526.0755904428465328
 20
6.6196213262454497
 30
0.0
 40
0.8665695033248029
 50
319.4088611702666185
 51
354.4001471869290754
  0
ARC
  5
8515
  8
0
 10
522.948961458536246
 20
7.0029996871003979
 30
0.0
 40
4.016414992398885
 50
353.3094738884241792
 51
1.8314141669286099
  0
ARC
  5
8516
  8
0
 10
526.9517307442749825
 20
7.1309886260310691
 30
0.0
 40
0.0116
 50
1.831414167173012
 51
89.999999999859952
  0
ARC
  5
8517
  8
0
 10
525.467294730472986
 20
5.4964947422856341
 30
0.0
 40
0.0197
 50
180.0000000000212026
 51
281.50186432760961
  0
LINE
  5
8518
  8
0
 10
526.9633430937731191
 20
7.1504886260311187
 30
0.0
 11
526.9633430937731191
 21
8.1465221065713962
 31
0.0
  0
LINE
  5
8519
  8
0
 10
526.9633430937731191
 20
11.6898291930714198
 30
0.0
 11
526.9633430937731191
 21
20.3504018636188988
 31
0.0
  0
LINE
  5
851A
  8
0
 10
526.9633430937731191
 20
23.3490137835268392
 30
0.0
 11
526.9633430937731191
 21
31.7890534317043816
 31
0.0
  0
ARC
  5
851B
  8
0
 10
526.9554430937730558
 20
7.1504886260311329
 30
0.0
 40
0.0079
 50
270.0
 51
359.9999999999478746
  0
LINE
  5
851C
  8
0
 10
526.786194618973127
 20
11.6898291930714198
 30
0.0
 11
527.8294848259730543
 21
11.6898291930714198
 31
0.0
  0
LINE
  5
851D
  8
0
 10
526.786194618973127
 20
8.1465221065714246
 30
0.0
 11
527.8294848259730543
 21
8.1465221065714246
 31
0.0
  0
LINE
  5
851E
  8
0
 10
526.7664946189730699
 20
8.1662221065714249
 30
0.0
 11
526.7664946189730699
 21
11.6701291930714195
 31
0.0
  0
ARC
  5
851F
  8
0
 10
526.786194618973127
 20
8.1662221065713965
 30
0.0
 40
0.0197
 50
179.9999999999901945
 51
270.0000000000406999
  0
ARC
  5
8520
  8
0
 10
526.786194618973127
 20
11.6701291930714195
 30
0.0
 40
0.0197
 50
89.9999999999592859
 51
180.000000000052097
  0
LINE
  5
8521
  8
0
 10
527.8294848259730543
 20
11.6898291930714198
 30
0.0
 11
527.8294848259730543
 21
8.1465221065714246
 31
0.0
  0
LINE
  5
8566
  8
0
 10
526.963343093672961
 20
59.9378643507713917
 30
0.0
 11
526.963343093672961
 21
34.4851333543713992
 31
0.0
  0
ENDSEC
  0
EOF
