  0
SECTION
  2
HEADER
  9
$ACADVER
  1
AC1009
  9
$INSBASE
 10
491.282643857738492
 20
32.3864262992240626
 30
0.0
  9
$EXTMIN
 10
477.6841739326096103
 20
-5.8859325710531598
 30
-0.0000000349181948
  9
$EXTMAX
 10
503.5132186457742023
 20
71.0084683837423256
 30
0.0000000814935746
  9
$LIMMIN
 10
0.0
 20
0.0
  9
$LIMMAX
 10
11.6929133858000007
 20
8.2677165353999982
  9
$ORTHOMODE
 70
     0
  9
$REGENMODE
 70
     1
  9
$FILLMODE
 70
     1
  9
$QTEXTMODE
 70
     0
  9
$MIRRTEXT
 70
     0
  9
$DRAGMODE
 70
     2
  9
$LTSCALE
 40
0.6431102362
  9
$OSMODE
 70
  4095
  9
$ATTMODE
 70
     1
  9
$TEXTSIZE
 40
0.2
  9
$TRACEWID
 40
0.05
  9
$TEXTSTYLE
  7
STANDARD
  9
$CLAYER
  8
0
  9
$CELTYPE
  6
BYLAYER
  9
$CECOLOR
 62
   256
  9
$DIMSCALE
 40
1.0
  9
$DIMASZ
 40
0.1875
  9
$DIMEXO
 40
0.0625
  9
$DIMDLI
 40
0.4443307087
  9
$DIMRND
 40
0.0
  9
$DIMDLE
 40
0.0
  9
$DIMEXE
 40
0.125
  9
$DIMTP
 40
0.01
  9
$DIMTM
 40
0.01
  9
$DIMTXT
 40
1.0
  9
$DIMCEN
 40
0.1052362205
  9
$DIMTSZ
 40
0.0
  9
$DIMTOL
 70
     1
  9
$DIMLIM
 70
     0
  9
$DIMTIH
 70
     1
  9
$DIMTOH
 70
     1
  9
$DIMSE1
 70
     0
  9
$DIMSE2
 70
     0
  9
$DIMTAD
 70
     0
  9
$DIMZIN
 70
     0
  9
$DIMBLK
  1

  9
$DIMASO
 70
     1
  9
$DIMSHO
 70
     1
  9
$DIMPOST
  1
\X
  9
$DIMAPOST
  1

  9
$DIMALT
 70
     1
  9
$DIMALTD
 70
     2
  9
$DIMALTF
 40
25.3999999999999986
  9
$DIMLFAC
 40
1.0
  9
$DIMTOFL
 70
     0
  9
$DIMTVP
 40
0.0
  9
$DIMTIX
 70
     0
  9
$DIMSOXD
 70
     0
  9
$DIMSAH
 70
     0
  9
$DIMBLK1
  1

  9
$DIMBLK2
  1

  9
$DIMSTYLE
  2
STANDARD
  9
$DIMCLRD
 70
     0
  9
$DIMCLRE
 70
     0
  9
$DIMCLRT
 70
     0
  9
$DIMTFAC
 40
1.0
  9
$DIMGAP
 40
0.09
  9
$LUNITS
 70
     2
  9
$LUPREC
 70
     4
  9
$SKETCHINC
 40
0.1
  9
$FILLETRAD
 40
0.0
  9
$AUNITS
 70
     0
  9
$AUPREC
 70
     0
  9
$MENU
  1
.
  9
$ELEVATION
 40
0.0
  9
$PELEVATION
 40
0.0
  9
$THICKNESS
 40
0.0
  9
$LIMCHECK
 70
     0
  9
$BLIPMODE
 70
     0
  9
$CHAMFERA
 40
0.0
  9
$CHAMFERB
 40
0.0
  9
$SKPOLY
 70
     0
  9
$TDCREATE
 40
2458172.4620254631154239
  9
$TDUPDATE
 40
2460398.6074768519029021
  9
$TDINDWG
 40
0.3481888079
  9
$TDUSRTIMER
 40
0.3481888079
  9
$USRTIMER
 70
     1
  9
$ANGBASE
 50
0.0
  9
$ANGDIR
 70
     0
  9
$PDMODE
 70
     0
  9
$PDSIZE
 40
0.3125
  9
$PLINEWID
 40
0.0
  9
$COORDS
 70
     1
  9
$SPLFRAME
 70
     0
  9
$SPLINETYPE
 70
     6
  9
$SPLINESEGS
 70
     8
  9
$ATTDIA
 70
     1
  9
$ATTREQ
 70
     1
  9
$HANDLING
 70
     1
  9
$HANDSEED
  5
A4A2
  9
$SURFTAB1
 70
     6
  9
$SURFTAB2
 70
     6
  9
$SURFTYPE
 70
     6
  9
$SURFU
 70
     6
  9
$SURFV
 70
     6
  9
$UCSNAME
  2

  9
$UCSORG
 10
0.0
 20
0.0
 30
0.0
  9
$UCSXDIR
 10
1.0
 20
0.0
 30
0.0
  9
$UCSYDIR
 10
0.0
 20
1.0
 30
0.0
  9
$PUCSNAME
  2

  9
$PUCSORG
 10
0.0
 20
0.0
 30
0.0
  9
$PUCSXDIR
 10
1.0
 20
0.0
 30
0.0
  9
$PUCSYDIR
 10
0.0
 20
1.0
 30
0.0
  9
$USERI1
 70
     0
  9
$USERI2
 70
     0
  9
$USERI3
 70
     0
  9
$USERI4
 70
     0
  9
$USERI5
 70
     0
  9
$USERR1
 40
0.0
  9
$USERR2
 40
0.0
  9
$USERR3
 40
0.0
  9
$USERR4
 40
0.0
  9
$USERR5
 40
0.0
  9
$WORLDVIEW
 70
     1
  9
$SHADEDGE
 70
     3
  9
$SHADEDIF
 70
    70
  9
$TILEMODE
 70
     1
  9
$MAXACTVP
 70
    64
  9
$PLIMCHECK
 70
     0
  9
$PEXTMIN
 10
1.0000000000000000E+20
 20
1.0000000000000000E+20
 30
1.0000000000000000E+20
  9
$PEXTMAX
 10
-1.0000000000000000E+20
 20
-1.0000000000000000E+20
 30
-1.0000000000000000E+20
  9
$PLIMMIN
 10
0.0
 20
0.0
  9
$PLIMMAX
 10
12.0
 20
9.0
  9
$UNITMODE
 70
     0
  9
$VISRETAIN
 70
     1
  9
$PLINEGEN
 70
     0
  9
$PSLTSCALE
 70
     1
  0
ENDSEC
  0
SECTION
  2
TABLES
  0
TABLE
  2
VPORT
 70
     1
  0
VPORT
  2
*ACTIVE
 70
     0
 10
0.0
 20
0.0
 11
1.0
 21
1.0
 12
365.9875376891192786
 22
27.24899373596676
 13
0.0
 23
0.0
 14
1.0
 24
1.0
 15
0.0
 25
0.0
 16
0.0
 26
0.0
 36
30.6214257250603907
 17
124.6111586000725993
 27
5.3122741703778242
 37
0.0
 40
77.5006643000369735
 41
2.498684210526315
 42
50.0
 43
0.0
 44
0.0
 50
0.0
 51
0.0
 71
     0
 72
   100
 73
     1
 74
     1
 75
     0
 76
     0
 77
     0
 78
     0
  0
ENDTAB
  0
TABLE
  2
LTYPE
 70
     2
  0
LTYPE
  2
CONTINUOUS
 70
     0
  3
Solid line
 72
    65
 73
     0
 40
0.0
  0
LTYPE
  2
PHANTOM2
 70
     0
  3
___ _ _ ___ _ _ ___ _ _ ___ _ _
 72
    65
 73
     6
 40
1.25
 49
0.625
 49
-0.125
 49
0.125
 49
-0.125
 49
0.125
 49
-0.125
  0
ENDTAB
  0
TABLE
  2
LAYER
 70
     2
  0
LAYER
  2
0
 70
     0
 62
   255
  6
CONTINUOUS
  0
LAYER
  2
DEFPOINTS
 70
     0
 62
     7
  6
CONTINUOUS
  0
ENDTAB
  0
TABLE
  2
STYLE
 70
     1
  0
STYLE
  2
STANDARD
 70
     0
 40
0.0
 41
0.8
 50
0.0
 71
     0
 42
0.2
  3
txt
  4

  0
ENDTAB
  0
TABLE
  2
VIEW
 70
     0
  0
ENDTAB
  0
TABLE
  2
UCS
 70
     0
  0
ENDTAB
  0
TABLE
  2
APPID
 70
     9
  0
APPID
  2
ACAD
 70
     0
  0
APPID
  2
ACAD_MLEADERVER
 70
     0
  0
APPID
  2
ACAD_EXEMPT_FROM_CAD_STANDARDS
 70
     0
  0
APPID
  2
ACAD_DSTYLE_DIMJAG
 70
     0
  0
APPID
  2
ACAD_DSTYLE_DIMTALN
 70
     0
  0
APPID
  2
ACAD_NAV_VCDISPLAY
 70
     0
  0
APPID
  2
ACAECLAYERSTANDARD
 70
     0
  0
APPID
  2
ACCMTRANSPARENCY
 70
     0
  0
APPID
  2
ACDBATTR
 70
     0
  0
ENDTAB
  0
TABLE
  2
DIMSTYLE
 70
     1
  0
DIMSTYLE
  2
STANDARD
 70
     0
  3

  4

  5

  6

  7

 40
1.0
 41
0.1875
 42
0.0625
 43
0.38
 44
0.125
 45
0.0
 46
0.0
 47
0.01
 48
0.01
140
0.15625
141
0.09
142
0.0
143
25.3999999999999986
144
1.0
145
0.0
146
1.0
147
0.09
 71
     1
 72
     0
 73
     1
 74
     1
 75
     0
 76
     0
 77
     0
 78
     4
170
     0
171
     2
172
     0
173
     0
174
     0
175
     0
176
     0
177
     0
178
     0
  0
ENDTAB
  0
ENDSEC
  0
SECTION
  2
BLOCKS
  0
BLOCK
  8
0
  2
$MODEL_SPACE
 70
     0
 10
0.0
 20
0.0
 30
0.0
  3
$MODEL_SPACE
  1

  0
ENDBLK
  5
21
  8
0
  0
BLOCK
 67
     1
  8
0
  2
$PAPER_SPACE
 70
     0
 10
0.0
 20
0.0
 30
0.0
  3
$PAPER_SPACE
  1

  0
ENDBLK
  5
1D
 67
     1
  8
0
  0
BLOCK
  8
0
  2
_FILLED
 70
     0
 10
0.0
 20
0.0
 30
0.0
  3
_FILLED
  1

  0
SOLID
  5
572C
  8
0
  6
BYBLOCK
 62
     0
 10
0.0
 20
0.0
 30
0.0
 11
-1.0
 21
0.1666666667
 31
0.0
 12
-1.0
 22
-0.1666666667
 32
0.0
 13
-1.0
 23
-0.1666666667
 33
0.0
  0
ENDBLK
  5
572D
  8
0
  6
BYBLOCK
 62
     0
  0
ENDSEC
  0
SECTION
  2
ENTITIES
  0
ATTDEF
  5
4C62
  8
DEFPOINTS
 10
491.2799007595544936
 20
32.3917001972649174
 30
0.0
 40
0.001
  1
K-EX31847T-9
  3

  2
MODELNUMBER
 70
     0
1001
ACDBATTR
1070
     0
1070
     1
  0
ATTDEF
  5
4C63
  8
DEFPOINTS
 10
491.2799007595544936
 20
32.3900335305982523
 30
0.0
 40
0.001
  1
SPAVIVA
  3

  2
TRADENAME
 70
     0
1001
ACDBATTR
1070
     0
1070
     1
  0
ATTDEF
  5
4C64
  8
DEFPOINTS
 10
491.2799007595544936
 20
32.3883668639315871
 30
0.0
 40
0.001
  1
SHOWER COLUMN
  3

  2
PRODUCT
 70
     0
1001
ACDBATTR
1070
     0
1070
     1
  0
LINE
  5
9ADE
  8
0
 10
477.7353966400885952
 20
26.4710742504240599
 30
0.0
 11
496.9479950652885236
 21
26.4710742504240599
 31
0.0
  0
LINE
  5
9ADF
  8
0
 10
477.6960265613885781
 20
26.4317041716239984
 30
0.0
 11
477.6960265613885781
 21
26.3135939354240485
 31
0.0
  0
LINE
  5
9AE0
  8
0
 10
477.6960265613885781
 20
26.3135939354240485
 30
0.0
 11
496.9873651440885283
 21
26.3135939354240485
 31
0.0
  0
LINE
  5
9AE1
  8
0
 10
477.7353966400885952
 20
26.4710742504240599
 30
0.0
 11
477.6960265613885781
 21
26.4317041716239984
 31
0.0
  0
LINE
  5
9AE2
  8
0
 10
477.6960265613885781
 20
26.4317041716240304
 30
0.0
 11
496.9873651440885283
 21
26.4317041716240304
 31
0.0
  0
LINE
  5
9AE3
  8
0
 10
477.7353966400885952
 20
26.3135939354240485
 30
0.0
 11
477.7600332757884871
 21
24.4001050410240303
 31
0.0
  0
ARC
  5
9AE4
  8
0
 10
477.7679049208981041
 20
24.400206390372599
 30
0.0
 40
0.0078722975312701
 50
180.7376563611379936
 51
270.0123443049305934
  0
LINE
  5
9AE5
  8
0
 10
477.7679066169749262
 20
24.3923340930240293
 30
0.0
 11
478.1290974191056193
 21
24.3924119111374509
 31
0.0
  0
LINE
  5
9AE6
  8
0
 10
478.1290974191056193
 20
24.3924119111374509
 30
0.0
 11
496.9154850884884809
 21
24.3923340929240418
 31
0.0
  0
ARC
  5
9AE7
  8
0
 10
496.915485121104723
 20
24.4002080755778614
 30
0.0
 40
0.0078739826538872
 50
269.999762665634421
 51
359.2520310090509952
  0
LINE
  5
9AE8
  8
0
 10
496.9233584328239886
 20
24.400105287420871
 30
0.0
 11
496.9483394725182848
 21
26.3135894700970709
 31
0.0
  0
LINE
  5
9AE9
  8
0
 10
496.9873651440885283
 20
26.3135939354240485
 30
0.0
 11
496.9873651440885283
 21
26.4317041716240304
 31
0.0
  0
LINE
  5
9AEA
  8
0
 10
496.9873651440885283
 20
26.4317041716240304
 30
0.0
 11
496.9479950652885236
 21
26.4710742504240599
 31
0.0
  0
LINE
  5
9AEB
  8
0
 10
478.1290974191056193
 20
24.3924119111374509
 30
0.0
 11
478.9164990022886172
 21
23.6049325181240199
 31
0.0
  0
LINE
  5
9AEC
  8
0
 10
478.9164990022886172
 20
23.6049325181240199
 30
0.0
 11
479.9372033923269782
 21
23.6049325181240199
 31
0.0
  0
LINE
  5
9AED
  8
0
 10
480.0151826729754134
 20
23.6049325181240199
 30
0.0
 11
484.1881525456885811
 21
23.6049325181240199
 31
0.0
  0
LINE
  5
9AEE
  8
0
 10
485.0621682936886145
 20
23.6049325181240199
 30
0.0
 11
495.7668927030886152
 21
23.6049325181240199
 31
0.0
  0
LINE
  5
9AEF
  8
0
 10
495.7668927030886152
 20
23.6049325181240199
 30
0.0
 11
496.5542942778885731
 21
24.3923355890724096
 31
0.0
  0
LINE
  5
9AF0
  8
0
 10
479.6217862054886041
 20
23.6492349966240383
 30
0.0
 11
479.3435575062038083
 21
23.6476715897550989
 31
0.0
  0
LINE
  5
9AF1
  8
0
 10
479.3435575062038083
 20
23.6476715897550989
 30
0.0
 11
479.3437676119885964
 21
23.6357209231240297
 31
0.0
  0
ARC
  5
9AF2
  8
0
 10
479.3516406688755183
 20
23.6358593400715584
 30
0.0
 40
0.007874273553521
 50
181.007218677367689
 51
270.0010090920031871
  0
ARC
  5
9AF3
  8
0
 10
479.7194205224068924
 20
63.3468547341047596
 30
0.0
 40
39.7205723723777524
 50
269.4694807929590752
 51
269.8475065731892073
  0
ARC
  5
9AF4
  8
0
 10
479.6137967303794198
 20
23.6342024655281087
 30
0.0
 40
0.0077799750224157
 50
269.3159782741440722
 51
359.0190930287856759
  0
ARC
  5
9AF5
  8
0
 10
477.2753006985050206
 20
23.6742415611062604
 30
0.0
 40
2.3466187510535281
 50
359.0190930287856759
 51
359.3894202990202871
  0
ARC
  5
9AF6
  8
0
 10
482.6000324020615722
 20
23.6334658065722714
 30
0.0
 40
2.662981878202304
 50
179.7120867604421903
 51
181.3809692530523989
  0
ARC
  5
9AF7
  8
0
 10
479.9576157613353757
 20
23.570659534236281
 30
0.0
 40
0.0198392665304558
 50
183.96529264220041
 51
269.0678649058028213
  0
ARC
  5
9AF8
  8
0
 10
479.9760305000385756
 20
24.2945600658270813
 30
0.0
 40
0.7439731684972193
 50
268.5568130062993077
 51
271.4431869937006923
  0
ARC
  5
9AF9
  8
0
 10
479.9946254792902209
 20
23.5706540049114501
 30
0.0
 40
0.0198316238092818
 50
270.4117216243236044
 51
355.8764903649146731
  0
ARC
  5
9AFA
  8
0
 10
478.7568705650422771
 20
23.6144518205232607
 30
0.0
 40
1.25834811482713
 50
357.9404002841926058
 51
359.8429514676421945
  0
ARC
  5
9AFB
  8
0
 10
484.7851704201592042
 20
23.637456849404451
 30
0.0
 40
4.7700298242202459
 50
179.8875253533485079
 51
180.317759084415286
  0
ARC
  5
9AFC
  8
0
 10
479.9422475173844873
 20
23.6464317977634799
 30
0.0
 40
0.0051800651287239
 50
127.3161354294038006
 51
175.3989868860271031
  0
ARC
  5
9AFD
  8
0
 10
479.9533903155456755
 20
23.6318133264501498
 30
0.0
 40
0.0235610785501477
 50
109.5983520054936946
 51
127.3161354294078933
  0
ARC
  5
9AFE
  8
0
 10
479.9638622441829057
 20
23.6024020573308597
 30
0.0
 40
0.0547810087324992
 50
95.685430186091267
 51
109.5983520054936946
  0
ARC
  5
9AFF
  8
0
 10
479.9762160970756213
 20
23.4783131336407003
 30
0.0
 40
0.1794833690304115
 50
84.6509171950962838
 51
95.685430186091267
  0
ARC
  5
9B00
  8
0
 10
479.9876492776281793
 20
23.6004216745923792
 30
0.0
 40
0.0568407443402406
 50
68.0466241840747585
 51
84.6509171950962838
  0
ARC
  5
9B01
  8
0
 10
480.0034369915139223
 20
23.6395893721794117
 30
0.0
 40
0.0146108918185113
 50
44.9341599459052574
 51
68.0466241840817929
  0
ARC
  5
9B02
  8
0
 10
480.010446563596588
 20
23.6465828529866506
 30
0.0
 40
0.0047092316252801
 50
2.8946092048789431
 51
44.9341599458868401
  0
ARC
  5
9B03
  8
0
 10
479.9578881617414936
 20
23.6077573331462709
 30
0.0
 40
0.020819823754653
 50
186.3986406334113894
 51
268.8414639994421123
  0
ARC
  5
9B04
  8
0
 10
479.9760619073396128
 20
23.0423506850244415
 30
0.0
 40
0.5449084397453607
 50
88.0327153908949356
 51
91.9555664679929663
  0
ARC
  5
9B05
  8
0
 10
479.9947719749940234
 20
23.6075108555690996
 30
0.0
 40
0.0205729049009741
 50
269.9888909332491949
 51
352.80036843780249
  0
LINE
  5
9B06
  8
0
 10
484.1881525455884798
 20
23.6350375825240313
 30
0.0
 11
484.1881525456885242
 21
23.6049325181240199
 31
0.0
  0
ARC
  5
9B07
  8
0
 10
484.2275226245193949
 20
23.6049325182548202
 30
0.0
 40
0.0393700788307756
 50
180.0000001903177917
 51
269.9999998096805029
  0
LINE
  5
9B08
  8
0
 10
484.2275226243884845
 20
23.5655624394240313
 30
0.0
 11
485.0227982148886099
 21
23.5655624367823791
 31
0.0
  0
ARC
  5
9B09
  8
0
 10
485.0227982150194066
 20
23.6049325154515905
 30
0.0
 40
0.0393700786692239
 50
269.9999998096805029
 51
0.0000038892339676
  0
LINE
  5
9B0A
  8
0
 10
485.0621682936886145
 20
23.6049325181240199
 30
0.0
 11
485.0621682916449799
 21
23.6350376309240389
 31
0.0
  0
ARC
  5
9B0B
  8
0
 10
485.0561922349511974
 20
23.6986869408866205
 30
0.0
 40
0.0732554312580949
 50
274.6792952073099059
 51
279.3975345718487233
  0
ARC
  5
9B0C
  8
0
 10
485.0667833912751803
 20
23.6346938627784695
 30
0.0
 40
0.0083918310031259
 50
279.3975345718420726
 51
290.2050185278092158
  0
ARC
  5
9B0D
  8
0
 10
485.0693748998368164
 20
23.6276522520961905
 30
0.0
 40
0.0008884852410174
 50
290.2050185278023946
 51
308.0314499266996791
  0
ARC
  5
9B0E
  8
0
 10
485.0697070270767881
 20
23.6272276292464092
 30
0.0
 40
0.0003493998414116
 50
308.0314499266128792
 51
343.6571085596041826
  0
ARC
  5
9B0F
  8
0
 10
484.1953723602273953
 20
23.708836468688979
 30
0.0
 40
0.0834772939842798
 50
261.0160142926495155
 51
265.038382912857287
  0
ARC
  5
9B10
  8
0
 10
484.1838669009042064
 20
23.6360622164217986
 30
0.0
 40
0.0097991602722624
 50
251.6441402211783043
 51
261.0160142926462754
  0
ARC
  5
9B11
  8
0
 10
484.1812523410088147
 20
23.6281822961880614
 30
0.0
 40
0.0014968072120575
 50
234.9603191468285104
 51
251.6441402211509057
  0
ARC
  5
9B12
  8
0
 10
484.180547253680686
 20
23.6271768099491304
 30
0.0
 40
0.0002687393324512
 50
180.6161748128062072
 51
234.9603191467369925
  0
LINE
  5
9B13
  8
0
 10
484.1802785298884828
 20
23.6271739199070687
 30
0.0
 11
484.1802785298884828
 21
23.6335890617240416
 31
0.0
  0
ARC
  5
9B14
  8
0
 10
484.180545849906423
 20
23.633537936611841
 30
0.0
 40
0.0002721649665698
 50
121.1424111512797026
 51
169.1728916148965993
  0
ARC
  5
9B15
  8
0
 10
484.1816873626470965
 20
23.6316487923878285
 30
0.0
 40
0.0024794069642377
 50
105.2689204637958937
 51
121.1424111512645965
  0
ARC
  5
9B16
  8
0
 10
484.185038015563407
 20
23.6193747132257315
 30
0.0
 40
0.0152026099510197
 50
99.7161018746550667
 51
105.2689204637924973
  0
ARC
  5
9B17
  8
0
 10
484.1919933700173146
 20
23.5787529545335097
 30
0.0
 40
0.0564155233984718
 50
93.9037727800548225
 51
99.7161018746550667
  0
ARC
  5
9B18
  8
0
 10
484.2706550239786907
 20
22.4260207709566508
 30
0.0
 40
1.211828498424226
 50
92.2970123701499148
 51
93.9037727800548225
  0
ARC
  5
9B19
  8
0
 10
484.3745805022168156
 20
19.8351331821044283
 30
0.0
 40
3.8047995748335479
 50
90.0972016810643623
 51
92.2970123701499148
  0
ARC
  5
9B1A
  8
0
 10
484.6231403141699161
 20
0.890061442180773
 30
0.0
 40
22.751295087694249
 50
89.269838578137751
 51
90.6422301162451305
  0
ARC
  5
9B1B
  8
0
 10
484.9040584318174183
 20
20.8510054882728717
 30
0.0
 40
2.7885181906768661
 50
86.7495679720501158
 51
89.814867013318235
  0
ARC
  5
9B1C
  8
0
 10
485.0595699019636982
 20
23.5892845956903905
 30
0.0
 40
0.0458267593513321
 50
78.5831018611569334
 51
86.7495679720468331
  0
ARC
  5
9B1D
  8
0
 10
485.0675032430546025
 20
23.6285697817564717
 30
0.0
 40
0.0057485390177351
 50
66.1139967864864957
 51
78.583101861160273
  0
ARC
  5
9B1E
  8
0
 10
485.0696751701764242
 20
23.6334742481587305
 30
0.0
 40
0.0003846730505938
 50
17.3657621324231712
 51
66.1139967866253926
  0
LINE
  5
9B1F
  8
0
 10
485.0700423093884979
 20
23.6335890617240416
 30
0.0
 11
485.0700423093884979
 21
23.6271293133240405
 31
0.0
  0
ARC
  5
9B20
  8
0
 10
483.3700371932869189
 20
24.4001020931870194
 30
0.0
 40
0.0078773351195361
 50
281.7632514013097875
 51
359.8809032034052962
  0
LINE
  5
9B21
  8
0
 10
483.3779145113886102
 20
24.4000857191240286
 30
0.0
 11
483.3614300779844939
 21
26.2741618027069102
 31
0.0
  0
ARC
  5
9B22
  8
0
 10
483.3535197378984094
 20
26.2741919069473688
 30
0.0
 40
0.0079103973695279
 50
359.7819515245482194
 51
88.0819788784785089
  0
LINE
  5
9B23
  8
0
 10
477.7358021595730975
 20
26.2820978724240284
 30
0.0
 11
496.9479950652885236
 21
26.2820978724240284
 31
0.0
  0
CIRCLE
  5
9B24
  8
0
 10
487.1448454589885273
 20
25.3372159827240395
 30
0.0
 40
0.7440944882000001
  0
CIRCLE
  5
9B25
  8
0
 10
487.1448454589885273
 20
25.3372159827240395
 30
0.0
 40
0.7262573620000027
  0
ARC
  5
9B26
  8
0
 10
487.2235856164876964
 20
25.1403655890228706
 30
0.0
 40
0.8267716535014384
 50
51.7141443959337792
 51
56.7954640932779924
  0
ARC
  5
9B27
  8
0
 10
487.223585616488208
 20
25.1403655890240998
 30
0.0
 40
0.8267716534996447
 50
166.8073760667699901
 51
171.8845687771012081
  0
LINE
  5
9B28
  8
0
 10
487.1054753802886239
 20
24.6120264601419692
 30
0.0
 11
487.1054753802886239
 21
24.5941637609571089
 31
0.0
  0
LINE
  5
9B29
  8
0
 10
487.3416958526885878
 20
24.6381453471704113
 30
0.0
 11
487.3416958526885878
 21
24.6196321688947499
 31
0.0
  0
ARC
  5
9B2A
  8
0
 10
487.1448454589885273
 20
25.3372159827240395
 30
0.0
 40
0.0393700787000009
 50
104.4775122235057978
 51
75.5224877764941738
  0
LINE
  5
9B2B
  8
0
 10
487.1350029392884835
 20
25.3753358975035894
 30
0.0
 11
487.1350029392884835
 21
26.0634072575644105
 31
0.0
  0
LINE
  5
9B2C
  8
0
 10
487.1546879786886279
 20
25.375335895536999
 30
0.0
 11
487.1546879786886279
 21
26.0634066468509999
 31
0.0
  0
ARC
  5
9B2D
  8
0
 10
487.1448454589885273
 20
25.3372159827240395
 30
0.0
 40
0.0456692912999999
 50
102.4458745096924019
 51
77.5541254903076265
  0
ARC
  5
9B2E
  8
0
 10
487.1448454589885273
 20
25.3372159827240395
 30
0.0
 40
0.0811023621999998
 50
96.9705537146806194
 51
83.0294462853193664
  0
ARC
  5
9B2F
  8
0
 10
487.1448454589885273
 20
25.3372159827240395
 30
0.0
 40
0.1165354331000001
 50
94.8449424103098551
 51
85.1550575896901307
  0
ARC
  5
9B30
  8
0
 10
487.1448454589885273
 20
25.3372159827240395
 30
0.0
 40
0.1519685039
 50
93.7134658203355428
 51
86.2865341796644429
  0
ARC
  5
9B31
  8
0
 10
487.1448454589885273
 20
25.3372159827240395
 30
0.0
 40
0.1874015748
 50
93.0106173146114941
 51
86.9893826853885059
  0
ARC
  5
9B32
  8
0
 10
487.1448454589885273
 20
25.3372159827240395
 30
0.0
 40
0.2228346456999999
 50
92.5315559280558091
 51
87.4684440719441767
  0
ARC
  5
9B33
  8
0
 10
487.1448454589885273
 20
25.3372159827240395
 30
0.0
 40
0.2582677164999998
 50
92.1840570744881376
 51
87.8159429255118624
  0
ARC
  5
9B34
  8
0
 10
487.1448454589885273
 20
25.3372159827240395
 30
0.0
 40
0.2937007874000002
 50
91.9204594317137662
 51
88.0795405682862196
  0
ARC
  5
9B35
  8
0
 10
487.1448454589885273
 20
25.3372159827240395
 30
0.0
 40
0.3283464566999998
 50
91.717756705722536
 51
88.282243294277464
  0
ARC
  5
9B36
  8
0
 10
487.1448454589885273
 20
25.3372159827240395
 30
0.0
 40
0.3645669291
 50
91.5470502757286653
 51
88.4529497242713489
  0
ARC
  5
9B37
  8
0
 10
487.1448454589885273
 20
25.3372159827240395
 30
0.0
 40
0.3999999999999999
 50
91.4099794042415112
 51
88.590020595758503
  0
ARC
  5
9B38
  8
0
 10
487.1448454589885273
 20
25.3372159827240395
 30
0.0
 40
0.4354330708999999
 50
91.2952228714712533
 51
88.7047771285287752
  0
ARC
  5
9B39
  8
0
 10
487.1448454589885273
 20
25.3372159827240395
 30
0.0
 40
0.4708661417000002
 50
91.1977414894348755
 51
88.8022585105651245
  0
ARC
  5
9B3A
  8
0
 10
487.1448454589885273
 20
25.3372159827240395
 30
0.0
 40
0.5062992126000001
 50
91.1139072525113676
 51
88.8860927474886466
  0
ARC
  5
9B3B
  8
0
 10
487.1448454589885273
 20
25.3372159827240395
 30
0.0
 40
0.5409448819000003
 50
91.0425571590102436
 51
88.9574428409897564
  0
ARC
  5
9B3C
  8
0
 10
487.1448454589885273
 20
25.3372159827240395
 30
0.0
 40
0.5771653543
 50
90.9771240964398515
 51
89.0228759035601769
  0
ARC
  5
9B3D
  8
0
 10
487.1448454589885273
 20
25.3372159827240395
 30
0.0
 40
0.6125984252000003
 50
90.9206016223190403
 51
89.0793983776809739
  0
ARC
  5
9B3E
  8
0
 10
487.1448454589885273
 20
25.3372159827240395
 30
0.0
 40
0.6472440945
 50
90.8713197700227511
 51
89.1286802299772631
  0
ARC
  5
9B3F
  8
0
 10
487.1448454589885273
 20
25.3372159827240395
 30
0.0
 40
0.6834645669000002
 50
90.8251405556325579
 51
89.1748594443674278
  0
ARC
  5
9B40
  8
0
 10
487.1448454589885273
 20
25.3372159827240395
 30
0.0
 40
0.7186458195999998
 50
90.784743269940833
 51
89.2152567300591386
  0
CIRCLE
  5
9B41
  8
0
 10
489.0346092385884731
 20
25.3372159827240395
 30
0.0
 40
0.7440944882000001
  0
CIRCLE
  5
9B42
  8
0
 10
489.0346092385884731
 20
25.3372159827240395
 30
0.0
 40
0.7262573620000027
  0
ARC
  5
9B43
  8
0
 10
489.113349396087699
 20
25.1403655890228706
 30
0.0
 40
0.8267716535014384
 50
51.7141443959337792
 51
56.7954640932779924
  0
ARC
  5
9B44
  8
0
 10
489.1133493960882106
 20
25.1403655890240998
 30
0.0
 40
0.8267716534996447
 50
166.8073760667699901
 51
171.8845687771012081
  0
LINE
  5
9B45
  8
0
 10
488.9952391598886265
 20
24.6120264601419692
 30
0.0
 11
488.9952391598886265
 21
24.5941637609571089
 31
0.0
  0
LINE
  5
9B46
  8
0
 10
489.2314596322885905
 20
24.6381453471704113
 30
0.0
 11
489.2314596322885905
 21
24.6196321688947499
 31
0.0
  0
ARC
  5
9B47
  8
0
 10
489.0346092385884731
 20
25.3372159827240395
 30
0.0
 40
0.0393700787000009
 50
104.4775122235057978
 51
75.5224877764941738
  0
LINE
  5
9B48
  8
0
 10
489.0247667188884861
 20
25.3753358975035894
 30
0.0
 11
489.0247667188884861
 21
26.0634072575644105
 31
0.0
  0
LINE
  5
9B49
  8
0
 10
489.0444517582885737
 20
25.375335895536999
 30
0.0
 11
489.0444517582885737
 21
26.0634066468509999
 31
0.0
  0
ARC
  5
9B4A
  8
0
 10
489.0346092385884731
 20
25.3372159827240395
 30
0.0
 40
0.0456692912999999
 50
102.4458745096924019
 51
77.5541254903076265
  0
ARC
  5
9B4B
  8
0
 10
489.0346092385884731
 20
25.3372159827240395
 30
0.0
 40
0.0811023621999998
 50
96.9705537146806194
 51
83.0294462853193664
  0
ARC
  5
9B4C
  8
0
 10
489.0346092385884731
 20
25.3372159827240395
 30
0.0
 40
0.1165354331000001
 50
94.8449424103098551
 51
85.1550575896901307
  0
ARC
  5
9B4D
  8
0
 10
489.0346092385884731
 20
25.3372159827240395
 30
0.0
 40
0.1519685039
 50
93.7134658203355428
 51
86.2865341796644429
  0
ARC
  5
9B4E
  8
0
 10
489.0346092385884731
 20
25.3372159827240395
 30
0.0
 40
0.1874015748
 50
93.0106173146114941
 51
86.9893826853885059
  0
ARC
  5
9B4F
  8
0
 10
489.0346092385884731
 20
25.3372159827240395
 30
0.0
 40
0.2228346456999999
 50
92.5315559280558091
 51
87.4684440719441767
  0
ARC
  5
9B50
  8
0
 10
489.0346092385884731
 20
25.3372159827240395
 30
0.0
 40
0.2582677164999998
 50
92.1840570744881376
 51
87.8159429255118624
  0
ARC
  5
9B51
  8
0
 10
489.0346092385884731
 20
25.3372159827240395
 30
0.0
 40
0.2937007874000002
 50
91.9204594317137662
 51
88.0795405682862196
  0
ARC
  5
9B52
  8
0
 10
489.0346092385884731
 20
25.3372159827240395
 30
0.0
 40
0.3283464566999998
 50
91.717756705722536
 51
88.282243294277464
  0
ARC
  5
9B53
  8
0
 10
489.0346092385884731
 20
25.3372159827240395
 30
0.0
 40
0.3645669291
 50
91.5470502757286653
 51
88.4529497242713489
  0
ARC
  5
9B54
  8
0
 10
489.0346092385884731
 20
25.3372159827240395
 30
0.0
 40
0.3999999999999999
 50
91.4099794042415112
 51
88.590020595758503
  0
ARC
  5
9B55
  8
0
 10
489.0346092385884731
 20
25.3372159827240395
 30
0.0
 40
0.4354330708999999
 50
91.2952228714712533
 51
88.7047771285287752
  0
ARC
  5
9B56
  8
0
 10
489.0346092385884731
 20
25.3372159827240395
 30
0.0
 40
0.4708661417000002
 50
91.1977414894348755
 51
88.8022585105651245
  0
ARC
  5
9B57
  8
0
 10
489.0346092385884731
 20
25.3372159827240395
 30
0.0
 40
0.5062992126000001
 50
91.1139072525113676
 51
88.8860927474886466
  0
ARC
  5
9B58
  8
0
 10
489.0346092385884731
 20
25.3372159827240395
 30
0.0
 40
0.5409448819000003
 50
91.0425571590102436
 51
88.9574428409897564
  0
ARC
  5
9B59
  8
0
 10
489.0346092385884731
 20
25.3372159827240395
 30
0.0
 40
0.5771653543
 50
90.9771240964398515
 51
89.0228759035601769
  0
ARC
  5
9B5A
  8
0
 10
489.0346092385884731
 20
25.3372159827240395
 30
0.0
 40
0.6125984252000003
 50
90.9206016223190403
 51
89.0793983776809739
  0
ARC
  5
9B5B
  8
0
 10
489.0346092385884731
 20
25.3372159827240395
 30
0.0
 40
0.6472440945
 50
90.8713197700227511
 51
89.1286802299772631
  0
ARC
  5
9B5C
  8
0
 10
489.0346092385884731
 20
25.3372159827240395
 30
0.0
 40
0.6834645669000002
 50
90.8251405556325579
 51
89.1748594443674278
  0
ARC
  5
9B5D
  8
0
 10
489.0346092385884731
 20
25.3372159827240395
 30
0.0
 40
0.7186458195999998
 50
90.784743269940833
 51
89.2152567300591386
  0
CIRCLE
  5
9B5E
  8
0
 10
490.9243730180886018
 20
25.3372159827240395
 30
0.0
 40
0.7440944882000001
  0
CIRCLE
  5
9B5F
  8
0
 10
490.9243730180886018
 20
25.3372159827240395
 30
0.0
 40
0.7262573620000027
  0
ARC
  5
9B60
  8
0
 10
491.0031131755878278
 20
25.1403655890228706
 30
0.0
 40
0.8267716535014384
 50
51.7141443959337792
 51
56.7954640932779924
  0
ARC
  5
9B61
  8
0
 10
491.0031131755882257
 20
25.1403655890240998
 30
0.0
 40
0.8267716534996447
 50
166.8073760667699901
 51
171.8845687771012081
  0
LINE
  5
9B62
  8
0
 10
490.8850029393885279
 20
24.6120264601419692
 30
0.0
 11
490.8850029393885279
 21
24.5941637609571089
 31
0.0
  0
LINE
  5
9B63
  8
0
 10
491.1212234117884918
 20
24.6381453471704113
 30
0.0
 11
491.1212234117884918
 21
24.6196321688947499
 31
0.0
  0
ARC
  5
9B64
  8
0
 10
490.9243730180886018
 20
25.3372159827240395
 30
0.0
 40
0.0393700787000009
 50
104.4775122235057978
 51
75.5224877764941738
  0
LINE
  5
9B65
  8
0
 10
490.9145304983886149
 20
25.3753358975035894
 30
0.0
 11
490.9145304983886149
 21
26.0634072575644105
 31
0.0
  0
LINE
  5
9B66
  8
0
 10
490.9342155377885888
 20
25.375335895536999
 30
0.0
 11
490.9342155377885888
 21
26.0634066468509999
 31
0.0
  0
ARC
  5
9B67
  8
0
 10
490.9243730180886018
 20
25.3372159827240395
 30
0.0
 40
0.0456692912999999
 50
102.4458745096924019
 51
77.5541254903076265
  0
ARC
  5
9B68
  8
0
 10
490.9243730180886018
 20
25.3372159827240395
 30
0.0
 40
0.0811023621999998
 50
96.9705537146806194
 51
83.0294462853193664
  0
ARC
  5
9B69
  8
0
 10
490.9243730180886018
 20
25.3372159827240395
 30
0.0
 40
0.1165354331000001
 50
94.8449424103098551
 51
85.1550575896901307
  0
ARC
  5
9B6A
  8
0
 10
490.9243730180886018
 20
25.3372159827240395
 30
0.0
 40
0.1519685039
 50
93.7134658203355428
 51
86.2865341796644429
  0
ARC
  5
9B6B
  8
0
 10
490.9243730180886018
 20
25.3372159827240395
 30
0.0
 40
0.1874015748
 50
93.0106173146114941
 51
86.9893826853885059
  0
ARC
  5
9B6C
  8
0
 10
490.9243730180886018
 20
25.3372159827240395
 30
0.0
 40
0.2228346456999999
 50
92.5315559280558091
 51
87.4684440719441767
  0
ARC
  5
9B6D
  8
0
 10
490.9243730180886018
 20
25.3372159827240395
 30
0.0
 40
0.2582677164999998
 50
92.1840570744881376
 51
87.8159429255118624
  0
ARC
  5
9B6E
  8
0
 10
490.9243730180886018
 20
25.3372159827240395
 30
0.0
 40
0.2937007874000002
 50
91.9204594317137662
 51
88.0795405682862196
  0
ARC
  5
9B6F
  8
0
 10
490.9243730180886018
 20
25.3372159827240395
 30
0.0
 40
0.3283464566999998
 50
91.717756705722536
 51
88.282243294277464
  0
ARC
  5
9B70
  8
0
 10
490.9243730180886018
 20
25.3372159827240395
 30
0.0
 40
0.3645669291
 50
91.5470502757286653
 51
88.4529497242713489
  0
ARC
  5
9B71
  8
0
 10
490.9243730180886018
 20
25.3372159827240395
 30
0.0
 40
0.3999999999999999
 50
91.4099794042415112
 51
88.590020595758503
  0
ARC
  5
9B72
  8
0
 10
490.9243730180886018
 20
25.3372159827240395
 30
0.0
 40
0.4354330708999999
 50
91.2952228714712533
 51
88.7047771285287752
  0
ARC
  5
9B73
  8
0
 10
490.9243730180886018
 20
25.3372159827240395
 30
0.0
 40
0.4708661417000002
 50
91.1977414894348755
 51
88.8022585105651245
  0
ARC
  5
9B74
  8
0
 10
490.9243730180886018
 20
25.3372159827240395
 30
0.0
 40
0.5062992126000001
 50
91.1139072525113676
 51
88.8860927474886466
  0
ARC
  5
9B75
  8
0
 10
490.9243730180886018
 20
25.3372159827240395
 30
0.0
 40
0.5409448819000003
 50
91.0425571590102436
 51
88.9574428409897564
  0
ARC
  5
9B76
  8
0
 10
490.9243730180886018
 20
25.3372159827240395
 30
0.0
 40
0.5771653543
 50
90.9771240964398515
 51
89.0228759035601769
  0
ARC
  5
9B77
  8
0
 10
490.9243730180886018
 20
25.3372159827240395
 30
0.0
 40
0.6125984252000003
 50
90.9206016223190403
 51
89.0793983776809739
  0
ARC
  5
9B78
  8
0
 10
490.9243730180886018
 20
25.3372159827240395
 30
0.0
 40
0.6472440945
 50
90.8713197700227511
 51
89.1286802299772631
  0
ARC
  5
9B79
  8
0
 10
490.9243730180886018
 20
25.3372159827240395
 30
0.0
 40
0.6834645669000002
 50
90.8251405556325579
 51
89.1748594443674278
  0
ARC
  5
9B7A
  8
0
 10
490.9243730180886018
 20
25.3372159827240395
 30
0.0
 40
0.7186458195999998
 50
90.784743269940833
 51
89.2152567300591386
  0
LINE
  5
9B7B
  8
0
 10
498.1405577335885937
 20
26.3214380299240212
 30
0.0
 11
498.1405577335885937
 21
24.3529939331137584
 31
0.0
  0
LINE
  5
9B7C
  8
0
 10
496.9873651440885283
 20
26.3608380299240217
 30
0.0
 11
477.6960265613885781
 21
26.3608380299240217
 31
0.0
  0
LINE
  5
9B7D
  8
0
 10
497.5256479364264237
 20
26.3608380299240217
 30
0.0
 11
498.1011577335885931
 21
26.3608380299240217
 31
0.0
  0
LINE
  5
9B7E
  8
0
 10
496.9594553713885716
 20
26.1620168610240214
 30
0.0
 11
496.9594553713885716
 21
24.51241347996935
 31
0.0
  0
LINE
  5
9B7F
  8
0
 10
496.9454181524770888
 20
26.0852474787240212
 30
0.0
 11
496.9594553713885716
 21
26.0852474787240212
 31
0.0
  0
ARC
  5
9B80
  8
0
 10
497.3920073787118099
 20
25.7043616221476405
 30
0.0
 40
0.6297218089841932
 50
115.8894235943013058
 51
133.384726523314697
  0
ARC
  5
9B81
  8
0
 10
497.3923108677722098
 20
25.7037363173616811
 30
0.0
 40
0.6304168713448011
 50
110.0683935255438968
 51
115.8894235942976962
  0
ARC
  5
9B82
  8
0
 10
497.5338828290427955
 20
25.3162104907005592
 30
0.0
 40
1.0429927874467999
 50
97.8444877761004506
 51
110.0683935255438968
  0
ARC
  5
9B83
  8
0
 10
497.5677333939186724
 20
25.0705142999687212
 30
0.0
 40
1.2910098813789841
 50
91.8681083789718258
 51
97.8444877761004506
  0
LINE
  5
9B84
  8
0
 10
497.0859829004884887
 20
26.2545388173240291
 30
0.0
 11
496.9675265018885284
 21
26.2545388173240291
 31
0.0
  0
ARC
  5
9B85
  8
0
 10
496.9675265018885284
 20
26.2427277936442316
 30
0.0
 40
0.0118110236797922
 50
90.0000000000032543
 51
179.249999647334306
  0
LINE
  5
9B86
  8
0
 10
496.9557164900887756
 20
26.2428823952402013
 30
0.0
 11
496.9536529350236833
 21
26.0852474787379798
 31
0.0
  0
ARC
  5
9B87
  8
0
 10
498.1011577335885931
 20
26.3214380299240496
 30
0.0
 40
0.0394
 50
359.9999999999968168
 51
90.0
  0
ARC
  5
9B88
  8
0
 10
497.3921034436885975
 20
24.9702166279239997
 30
0.0
 40
0.6298952902999783
 50
226.6181643798726952
 51
249.9343769921979117
  0
ARC
  5
9B89
  8
0
 10
497.5316206693515255
 20
25.3521753167217092
 30
0.0
 40
1.0365370198417481
 50
249.9343769921979117
 51
261.2895853873018837
  0
ARC
  5
9B8A
  8
0
 10
497.7921489320603996
 20
27.0526678216486296
 30
0.0
 40
2.756871212660934
 50
261.2895853873018837
 51
261.8964535355526095
  0
ARC
  5
9B8B
  8
0
 10
497.4063104031388889
 20
24.3428274431356506
 30
0.0
 40
0.0197
 50
261.8964535355493126
 51
273.0253632262994756
  0
LINE
  5
9B8C
  8
0
 10
497.4073501300588873
 20
24.3231548996312696
 30
0.0
 11
497.5510466306885746
 21
24.3302415165240404
 31
0.0
  0
ARC
  5
9B8D
  8
0
 10
497.5931524094846736
 20
23.3571568261282785
 30
0.0
 40
0.9739952318299064
 50
85.8173868521023167
 51
92.477631200221893
  0
ARC
  5
9B8E
  8
0
 10
497.5906513235613033
 20
23.3229564308338908
 30
0.0
 40
1.0082869577866069
 50
79.3679305668834303
 51
85.8173868521023167
  0
ARC
  5
9B8F
  8
0
 10
497.7803295368622116
 20
24.3333648814236696
 30
0.0
 40
0.0197709499327457
 50
259.3679305668833877
 51
269.9767854925053143
  0
LINE
  5
9B90
  8
0
 10
497.7803215262746903
 20
24.3135939331137614
 30
0.0
 11
498.1011577335885931
 21
24.3135939331137614
 31
0.0
  0
ARC
  5
9B91
  8
0
 10
498.1011577335885931
 20
24.3529939331137584
 30
0.0
 40
0.0394
 50
270.0000000000032969
 51
359.9999999999968168
  0
LINE
  5
9B92
  8
0
 10
497.4358333240886054
 20
24.3245595927385203
 30
0.0
 11
497.4358333240886054
 21
24.2348537779240303
 31
0.0
  0
ARC
  5
9B93
  8
0
 10
497.4752034027885088
 20
24.2348537779240303
 30
0.0
 40
0.0393700786999967
 50
180.0000000000015916
 51
270.0000002910680905
  0
LINE
  5
9B94
  8
0
 10
497.4752034029885976
 20
24.1954836992240416
 30
0.0
 11
497.7114238750884851
 21
24.1954837004240595
 31
0.0
  0
ARC
  5
9B95
  8
0
 10
497.7114238748886237
 20
24.2348537795240517
 30
0.0
 40
0.0393700791000047
 50
270.0000002910680905
 51
359.9999976714585728
  0
LINE
  5
9B96
  8
0
 10
497.7507939539885911
 20
24.2348537779240303
 30
0.0
 11
497.7507939573857243
 21
24.3184447160860699
 31
0.0
  0
LINE
  5
9B97
  8
0
 10
496.925833615110605
 20
24.5891844866240383
 30
0.0
 11
496.9594553713885716
 21
24.5891844866240383
 31
0.0
  0
LINE
  5
9B98
  8
0
 10
496.9340683986886233
 20
24.5891844866240383
 30
0.0
 11
496.9328335037608895
 21
24.4948508992322509
 31
0.0
  0
ARC
  5
9B99
  8
0
 10
496.9446435154886217
 20
24.4946962976318794
 30
0.0
 40
0.0118110236078524
 50
179.2499996213257987
 51
270.0000029102639019
  0
LINE
  5
9B9A
  8
0
 10
496.944643516088604
 20
24.4828852740240208
 30
0.0
 11
496.993009180835088
 21
24.4828852764807117
 31
0.0
  0
LINE
  5
9B9B
  8
0
 10
484.2196486085886136
 20
26.4710742504240315
 30
0.0
 11
484.2196486085886136
 21
26.5301293685240189
 31
0.0
  0
LINE
  5
9B9C
  8
0
 10
484.2196486085886136
 20
26.5301293685240189
 30
0.0
 11
485.0306722306885945
 21
26.5301293685240189
 31
0.0
  0
LINE
  5
9B9D
  8
0
 10
485.0306722306885945
 20
26.5301293685240189
 30
0.0
 11
485.0306722306885945
 21
26.4710742504240315
 31
0.0
  0
LINE
  5
9B9E
  8
0
 10
484.2275486188070204
 20
26.5419403359277091
 30
0.0
 11
485.0227806560694148
 21
26.5419404483215509
 31
0.0
  0
ARC
  5
9B9F
  8
0
 10
484.2275486176903883
 20
26.5498403359277084
 30
0.0
 40
0.0079
 50
179.9999959493941049
 51
270.0000080978774122
  0
ARC
  5
9BA0
  8
0
 10
485.0227806549527827
 20
26.5498404483215502
 30
0.0
 40
0.0079
 50
270.0000080978807091
 51
0.000008096060111
  0
LINE
  5
9BA1
  8
0
 10
484.9794911282884868
 20
26.5419404422032414
 30
0.0
 11
484.9794911282884868
 21
26.5380033842240515
 31
0.0
  0
LINE
  5
9BA2
  8
0
 10
484.9794911282884868
 20
26.5380033842240515
 30
0.0
 11
484.9716171125884898
 21
26.5301293685240189
 31
0.0
  0
LINE
  5
9BA3
  8
0
 10
484.2708297109886075
 20
26.5419403420448212
 30
0.0
 11
484.2708297109886075
 21
26.5380033842240515
 31
0.0
  0
LINE
  5
9BA4
  8
0
 10
484.2708297109886075
 20
26.5380033842240515
 30
0.0
 11
484.2787037266884909
 21
26.5301293685240189
 31
0.0
  0
LINE
  5
9BA5
  8
0
 10
484.5505634319886212
 20
26.5419403816240411
 30
0.0
 11
484.5504946905886072
 21
26.5380021850240198
 31
0.0
  0
LINE
  5
9BA6
  8
0
 10
484.5504946905886072
 20
26.5380021850240198
 30
0.0
 11
484.542483254288527
 21
26.5301293685240189
 31
0.0
  0
LINE
  5
9BA7
  8
0
 10
484.6997574068896029
 20
26.5419404026671586
 30
0.0
 11
484.6998261486886008
 21
26.5380021850240198
 31
0.0
  0
LINE
  5
9BA8
  8
0
 10
484.6998261486886008
 20
26.5380021850240198
 30
0.0
 11
484.7078375849886243
 21
26.5301293685240189
 31
0.0
  0
LINE
  5
9BA9
  8
0
 10
484.2708297109886075
 20
26.5380033842240515
 30
0.0
 11
484.9794911282884868
 21
26.5380033842240515
 31
0.0
  0
LINE
  5
9BAA
  8
0
 10
484.2196486176904955
 20
26.5498403364862092
 30
0.0
 11
484.2196488827473786
 21
30.2990685298931908
 31
0.0
  0
LINE
  5
9BAB
  8
0
 10
484.2196490306474175
 20
32.3911115242913681
 30
0.0
 11
484.2196494574174039
 21
38.427767025548647
 31
0.0
  0
LINE
  5
9BAC
  8
0
 10
484.2196495359070241
 20
39.5380035082240511
 30
0.0
 11
484.2196514783885846
 21
67.0143813658929162
 31
0.0
  0
ARC
  5
9BAD
  8
0
 10
489.7371711669154024
 20
67.0143809758240536
 30
0.0
 40
5.517519688526848
 50
171.6929448737942892
 51
179.999995949393707
  0
ARC
  5
9BAE
  8
0
 10
487.7680891875451152
 20
67.3018865985244759
 30
0.0
 40
3.5275590546033868
 50
104.1369374823061946
 51
171.6929448737942892
  0
ARC
  5
9BAF
  8
0
 10
489.196029052012193
 20
61.6324912419400306
 30
0.0
 40
9.3740157563840061
 50
89.9999959585667568
 51
104.1369374823061946
  0
LINE
  5
9BB0
  8
0
 10
489.1960297132205824
 20
71.0065069983240278
 30
0.0
 11
490.0936415236016046
 21
71.0065069350097957
 31
0.0
  0
LINE
  5
9BB1
  8
0
 10
490.113341523876727
 20
71.0065069336202441
 30
0.0
 11
492.4520085867443981
 21
71.0065067686593352
 31
0.0
  0
ARC
  5
9BB2
  8
0
 10
490.1133415230444257
 20
70.9947069336202219
 30
0.0
 40
0.0118
 50
89.9999959585667568
 51
180.0
  0
LINE
  5
9BB3
  8
0
 10
490.101541523044375
 20
70.9986069350098035
 30
0.0
 11
490.101541523044375
 21
70.2033833124996534
 31
0.0
  0
ARC
  5
9BB4
  8
0
 10
490.0936415230444254
 20
70.9986069350098035
 30
0.0
 40
0.0079
 50
0.0
 51
89.9999959585667568
  0
LINE
  5
9BB5
  8
0
 10
490.9735887109886221
 20
70.1954832500240258
 30
0.0
 11
490.1133415222066105
 21
70.1954833111009862
 31
0.0
  0
ARC
  5
9BB6
  8
0
 10
490.1133415230444257
 20
70.20728331110098
 30
0.0
 40
0.0118
 50
180.0
 51
269.9999959320393828
  0
LINE
  5
9BB7
  8
0
 10
490.0936415224833809
 20
70.1954833124996753
 30
0.0
 11
489.2107109675022798
 21
70.1954833751871092
 31
0.0
  0
ARC
  5
9BB8
  8
0
 10
490.0936415230444254
 20
70.2033833124996534
 30
0.0
 40
0.0079
 50
269.9999959320393828
 51
0.0
  0
ARC
  5
9BB9
  8
0
 10
489.1962958363462235
 20
61.6299524050818306
 30
0.0
 40
8.5655430998762974
 50
89.9035756919781051
 51
98.1797905214726256
  0
ARC
  5
9BBA
  8
0
 10
489.1956672492822236
 20
61.6343254227544008
 30
0.0
 40
8.56112513594916
 50
98.1797905214726256
 51
104.1375875647285056
  0
ARC
  5
9BBB
  8
0
 10
487.768151114229795
 20
67.3017669309662239
 30
0.0
 40
2.7166666011627738
 50
104.1375875647285056
 51
130.5843993377525862
  0
ARC
  5
9BBC
  8
0
 10
487.7679374286739744
 20
67.3020163796092845
 30
0.0
 40
2.7163381409029528
 50
130.5843993377525862
 51
148.3428207118280966
  0
CIRCLE
  5
9BBD
  8
0
 10
491.2826438577886279
 20
70.6009950392240455
 30
0.0
 40
0.4055134473387429
  0
CIRCLE
  5
9BBE
  8
0
 10
491.2826438577886279
 20
70.6009950392240455
 30
0.0
 40
0.3503937008
  0
LINE
  5
9BBF
  8
0
 10
490.8062805577886252
 20
69.9943729920240401
 30
0.0
 11
491.7590071576885862
 21
69.9943729920240401
 31
0.0
  0
LINE
  5
9BC0
  8
0
 10
490.9735887210877081
 20
70.3384572734619553
 30
0.0
 11
490.9735887210877081
 21
69.9943729920240401
 31
0.0
  0
LINE
  5
9BC1
  8
0
 10
490.7865805577886249
 20
69.9746729920240398
 30
0.0
 11
490.7865805577886249
 21
69.457611740924051
 31
0.0
  0
ARC
  5
9BC2
  8
0
 10
490.8062805577886252
 20
69.9746729920240398
 30
0.0
 40
0.0197
 50
90.0
 51
180.0
  0
ARC
  5
9BC3
  8
0
 10
491.0149270141537272
 20
69.4576117408215055
 30
0.0
 40
0.2283464563650531
 50
179.9999999742755108
 51
248.0775736723539069
  0
ARC
  5
9BC4
  8
0
 10
490.9035096921476793
 20
69.1807656136336107
 30
0.0
 40
0.0700787399269523
 50
309.3745632969117878
 51
68.0775736723574312
  0
ARC
  5
9BC5
  8
0
 10
491.282643722742705
 20
68.7187822803717836
 30
0.0
 40
0.5275592887885403
 50
129.3745632969117878
 51
144.88727128988549
  0
LINE
  5
9BC6
  8
0
 10
490.4127133013885782
 20
69.0219320471240252
 30
0.0
 11
492.1525744140885763
 21
69.0219320471240252
 31
0.0
  0
LINE
  5
9BC7
  8
0
 10
490.3733133013885777
 20
68.9046966172074065
 30
0.0
 11
490.3733133013885777
 21
68.9825320471240246
 31
0.0
  0
ARC
  5
9BC8
  8
0
 10
491.3102552484212993
 20
106.3445080861487071
 30
0.0
 40
37.4747310646446081
 50
269.3795301202166002
 51
269.9577884389058227
  0
ARC
  5
9BC9
  8
0
 10
490.6665324175568799
 20
81.8728876552667089
 30
0.0
 40
13.0030898707184299
 50
268.9448013363062273
 51
271.0483565622882907
  0
ARC
  5
9BCA
  8
0
 10
490.4176359557895921
 20
69.7530397257679056
 30
0.0
 40
0.8810873752932998
 50
269.5946015534916
 51
270.6136277783793957
  0
ARC
  5
9BCB
  8
0
 10
490.4116734774805195
 20
68.9103647117790956
 30
0.0
 40
0.0383912673465411
 50
182.3060559665294988
 51
269.5946015534884168
  0
LINE
  5
9BCC
  8
0
 10
486.8394103885178197
 20
68.8651151583240448
 30
0.0
 11
495.725877326959278
 21
68.8651151583240448
 31
0.0
  0
ARC
  5
9BCD
  8
0
 10
505.9071882508354179
 20
509.6936985867872068
 30
0.0
 40
441.0961714248135195
 50
267.9867642011706153
 51
268.0041575402368039
  0
ARC
  5
9BCE
  8
0
 10
490.4127137308664146
 20
68.9094620105199454
 30
0.0
 40
0.0396875650105092
 50
186.8962986474936088
 51
267.9867642011673183
  0
LINE
  5
9BCF
  8
0
 10
498.2191873173255203
 20
66.2444517321240482
 30
0.0
 11
484.3461003981515205
 21
66.2444517321240482
 31
0.0
  0
ARC
  5
9BD0
  8
0
 10
-1802.7162853428069411
 20
146.2715690733886902
 30
0.0
 40
2288.4498683004221675
 50
357.9962633066518833
 51
358.0152457191118742
  0
ARC
  5
9BD1
  8
0
 10
484.3461003981515205
 20
66.2562517321240421
 30
0.0
 40
0.0118
 50
177.9962633143400126
 51
270.0
  0
ARC
  5
9BD2
  8
0
 10
498.8956792720824751
 20
66.5106806637601551
 30
0.0
 40
14.5437128843603105
 50
176.0684244428894942
 51
178.0152457191119026
  0
ARC
  5
9BD3
  8
0
 10
486.2482121813864069
 20
67.3799011141733217
 30
0.0
 40
1.8664115941937851
 50
167.317465295591802
 51
176.0684244428894942
  0
ARC
  5
9BD4
  8
0
 10
486.2228567315916052
 20
67.3856070905692661
 30
0.0
 40
1.8404220385813159
 50
156.8648255410531078
 51
167.317465295591802
  0
ARC
  5
9BD5
  8
0
 10
485.4392160018172717
 20
67.6513898803310951
 30
0.0
 40
1.017357546071048
 50
114.9093415976287957
 51
153.2871302669333033
  0
ARC
  5
9BD6
  8
0
 10
485.8826653683149175
 20
66.7684436939707098
 30
0.0
 40
2.0051707919288768
 50
102.2918818345090983
 51
115.7755990205910024
  0
ARC
  5
9BD7
  8
0
 10
486.5693658848867926
 20
63.3199514635730267
 30
0.0
 40
5.5211636377097726
 50
92.4833360012811738
 51
101.6360333747074947
  0
ARC
  5
9BD8
  8
0
 10
487.6676227480159014
 20
49.9552526252225206
 30
0.0
 40
18.9279908266361296
 50
92.5078323622842333
 51
94.0519889838047902
  0
ARC
  5
9BD9
  8
0
 10
490.4127133013885782
 20
68.9825320471240246
 30
0.0
 40
0.0394
 50
89.9999999999967457
 51
180.0000000000163141
  0
ARC
  5
9BDA
  8
0
 10
490.9057605834602214
 20
68.8941478800514346
 30
0.0
 40
0.0222144357590202
 50
227.8795791927016126
 51
266.2518526839559172
  0
ARC
  5
9BDB
  8
0
 10
490.9167693319147929
 20
68.9063227773916651
 30
0.0
 40
0.0386284744997698
 50
198.7840056382349019
 51
227.8795791927016126
  0
ARC
  5
9BDC
  8
0
 10
490.9343830108355746
 20
68.912313476561593
 30
0.0
 40
0.0572330481759128
 50
180.9935766636913002
 51
198.7840056382320029
  0
ARC
  5
9BDD
  8
0
 10
492.9310696316896951
 20
68.9469418581285822
 30
0.0
 40
2.0542199251252029
 50
179.0064431551818984
 51
180.9935766636913002
  0
ARC
  5
9BDE
  8
0
 10
490.9344473043838093
 20
68.9815684338089454
 30
0.0
 40
0.0572973633718113
 50
154.9650378889897127
 51
179.00644315518349
  0
ARC
  5
9BDF
  8
0
 10
490.9099196826126104
 20
68.9930240781519757
 30
0.0
 40
0.0302264192237658
 50
120.1417018326017967
 51
154.9650378889897127
  0
ARC
  5
9BE0
  8
0
 10
490.9053612431171132
 20
69.0008746241522601
 30
0.0
 40
0.021148399443195
 50
95.3164193849381576
 51
120.1417018326017967
  0
ARC
  5
9BE1
  8
0
 10
491.2826435499703734
 20
69.3703572428110533
 30
0.0
 40
0.4960629932129766
 50
89.9999644524680065
 51
113.5564642606207997
  0
LINE
  5
9BE2
  8
0
 10
491.0843906721387953
 20
69.8250816534240357
 30
0.0
 11
491.0843906719886149
 21
69.457611740924051
 31
0.0
  0
ARC
  5
9BE3
  8
0
 10
491.2821463716716153
 20
69.6286552667249907
 30
0.0
 40
0.3020788900498182
 50
253.1902773124722899
 51
270.0943590096104003
  0
ARC
  5
9BE4
  8
0
 10
491.2521496239128851
 20
69.5293621427351809
 30
0.0
 40
0.1983536310829344
 50
227.3909330171433965
 51
253.1902773124722899
  0
ARC
  5
9BE5
  8
0
 10
491.1886192434536156
 20
69.4602953126128568
 30
0.0
 40
0.1045115495605536
 50
193.8212573459290979
 51
227.3909330171433112
  0
ARC
  5
9BE6
  8
0
 10
491.1791511583169267
 20
69.45796600282128
 30
0.0
 40
0.0947611485297452
 50
180.2141991644267875
 51
193.8212573459290979
  0
LINE
  5
9BE7
  8
0
 10
485.0306750459885734
 20
66.2444517321240482
 30
0.0
 11
485.0306788196875232
 21
39.5380035082240511
 31
0.0
  0
LINE
  5
9BE8
  8
0
 10
485.0306789765671738
 20
38.427767025548647
 30
0.0
 11
485.0306798295645763
 21
32.3911087707805834
 31
0.0
  0
LINE
  5
9BE9
  8
0
 10
485.0306801251755928
 20
30.2990713406695598
 30
0.0
 11
485.0306806549527892
 21
26.5498404494378413
 31
0.0
  0
CIRCLE
  5
9BEA
  8
0
 10
484.6251608787886198
 20
31.3450899984240401
 30
0.0
 40
1.1218738305
  0
CIRCLE
  5
9BEB
  8
0
 10
484.6251608787886198
 20
31.3450899984240401
 30
0.0
 40
1.0452601639000001
  0
CIRCLE
  5
9BEC
  8
0
 10
484.6251608787886198
 20
31.3450899984240401
 30
0.0
 40
1.0623286998000001
  0
CIRCLE
  5
9BED
  8
0
 10
484.6251608787886198
 20
31.3450899984240401
 30
0.0
 40
0.8721118186999997
  0
CIRCLE
  5
9BEE
  8
0
 10
484.1908748241885974
 20
31.3450899984240401
 30
0.0
 40
0.1318897638000003
  0
CIRCLE
  5
9BEF
  8
0
 10
484.6251608787886198
 20
31.7793760530240306
 30
0.0
 40
0.1318897638000003
  0
CIRCLE
  5
9BF0
  8
0
 10
485.0594469333884717
 20
31.3450899984240401
 30
0.0
 40
0.1318897638000003
  0
CIRCLE
  5
9BF1
  8
0
 10
484.6251608787886198
 20
30.910803943824039
 30
0.0
 40
0.1318897638000003
  0
ARC
  5
9BF2
  8
0
 10
492.8281165485616953
 20
67.0143809758240536
 30
0.0
 40
5.517519688526848
 50
0.0000040506062539
 51
8.3070551262056807
  0
ARC
  5
9BF3
  8
0
 10
494.7971985279319824
 20
67.3018865985244759
 30
0.0
 40
3.5275590546033868
 50
8.3070551262056807
 51
75.8630625176937485
  0
ARC
  5
9BF4
  8
0
 10
493.3692586634649047
 20
61.6324912419400306
 30
0.0
 40
9.3740157563840061
 50
75.8630625176937485
 51
90.000004041433229
  0
LINE
  5
9BF5
  8
0
 10
493.3692580022565721
 20
71.0065069983240278
 30
0.0
 11
492.4716461918754931
 21
71.0065069350097957
 31
0.0
  0
ARC
  5
9BF6
  8
0
 10
492.4519461924327857
 20
70.9947069336202219
 30
0.0
 40
0.0118
 50
0.0
 51
90.000004041433229
  0
LINE
  5
9BF7
  8
0
 10
492.4637461924327795
 20
70.9986069350098035
 30
0.0
 11
492.4637461924327795
 21
70.2033833124996534
 31
0.0
  0
ARC
  5
9BF8
  8
0
 10
492.4716461924327859
 20
70.9986069350098035
 30
0.0
 40
0.0079
 50
90.000004041433229
 51
180.0
  0
LINE
  5
9BF9
  8
0
 10
491.5916990044885893
 20
70.1954832500240258
 30
0.0
 11
492.4519461932706008
 21
70.1954833111009862
 31
0.0
  0
ARC
  5
9BFA
  8
0
 10
492.4519461924327857
 20
70.20728331110098
 30
0.0
 40
0.0118
 50
270.0000040679606172
 51
0.0
  0
LINE
  5
9BFB
  8
0
 10
492.4716461929937168
 20
70.1954833124996753
 30
0.0
 11
493.3545767479748179
 21
70.1954833751871092
 31
0.0
  0
ARC
  5
9BFC
  8
0
 10
492.4716461924327859
 20
70.2033833124996534
 30
0.0
 40
0.0079
 50
180.0
 51
270.0000040679606172
  0
ARC
  5
9BFD
  8
0
 10
493.3689918791308742
 20
61.6299524050818306
 30
0.0
 40
8.5655430998762974
 50
81.8202094785273744
 51
90.0964243080218665
  0
ARC
  5
9BFE
  8
0
 10
493.3696204661948741
 20
61.6343254227544008
 30
0.0
 40
8.56112513594916
 50
75.8624124352714659
 51
81.8202094785273744
  0
ARC
  5
9BFF
  8
0
 10
494.7971366012473027
 20
67.3017669309662239
 30
0.0
 40
2.7166666011627738
 50
49.415600662247428
 51
75.8624124352714659
  0
ARC
  5
9C00
  8
0
 10
494.7973502868031233
 20
67.3020163796092845
 30
0.0
 40
2.7163381409029528
 50
31.6571792881719212
 51
49.415600662247428
  0
CIRCLE
  5
9C01
  8
0
 10
491.2826438576885266
 20
70.6009950392240455
 30
0.0
 40
0.4055134473387429
  0
CIRCLE
  5
9C02
  8
0
 10
491.2826438576885266
 20
70.6009950392240455
 30
0.0
 40
0.3503937008
  0
LINE
  5
9C03
  8
0
 10
491.5916989943895032
 20
70.3384572734619553
 30
0.0
 11
491.5916989943895032
 21
69.9943729920240401
 31
0.0
  0
LINE
  5
9C04
  8
0
 10
491.7787071576885864
 20
69.9746729920240398
 30
0.0
 11
491.7787071576885864
 21
69.457611740924051
 31
0.0
  0
ARC
  5
9C05
  8
0
 10
491.7590071576885862
 20
69.9746729920240398
 30
0.0
 40
0.0197
 50
0.0
 51
90.0
  0
ARC
  5
9C06
  8
0
 10
491.5503607013234841
 20
69.4576117408215055
 30
0.0
 40
0.2283464563650531
 50
291.9224263276460078
 51
0.0000000257245298
  0
ARC
  5
9C07
  8
0
 10
491.6617780233294184
 20
69.1807656136336107
 30
0.0
 40
0.0700787399269523
 50
111.9224263276424978
 51
230.6254367030882122
  0
ARC
  5
9C08
  8
0
 10
491.2826439927343927
 20
68.7187822803717836
 30
0.0
 40
0.5275592887885403
 50
35.1127287101144603
 51
50.6254367030881909
  0
LINE
  5
9C09
  8
0
 10
492.1919744140885769
 20
68.9046966172074065
 30
0.0
 11
492.1919744140885769
 21
68.9825320471240246
 31
0.0
  0
ARC
  5
9C0A
  8
0
 10
491.2550324670559121
 20
106.3445080861487071
 30
0.0
 40
37.4747310646446081
 50
270.0422115610941773
 51
270.6204698797833998
  0
ARC
  5
9C0B
  8
0
 10
491.8987552979202178
 20
81.8728876552667089
 30
0.0
 40
13.0030898707184299
 50
268.9516434377117093
 51
271.0551986636937727
  0
ARC
  5
9C0C
  8
0
 10
492.1476517596875055
 20
69.7530397257679056
 30
0.0
 40
0.8810873752932998
 50
269.3863722216206043
 51
270.4053984465084
  0
ARC
  5
9C0D
  8
0
 10
492.1536142379965781
 20
68.9103647117790956
 30
0.0
 40
0.0383912673465411
 50
270.4053984465116969
 51
357.6939440334704727
  0
ARC
  5
9C0E
  8
0
 10
476.6580994646417935
 20
509.6936985867872068
 30
0.0
 40
441.0961714248135195
 50
271.9958424597630824
 51
272.0132357988293279
  0
ARC
  5
9C0F
  8
0
 10
492.1525739846106831
 20
68.9094620105199454
 30
0.0
 40
0.0396875650105092
 50
272.0132357988326248
 51
353.1037013525063912
  0
ARC
  5
9C10
  8
0
 10
2785.2815730582851756
 20
146.2715690733886902
 30
0.0
 40
2288.4498683004221675
 50
181.9847542808880974
 51
182.0037366933476051
  0
ARC
  5
9C11
  8
0
 10
498.2191873173255203
 20
66.2562517321240421
 30
0.0
 40
0.0118
 50
270.0
 51
2.0037366946165811
  0
ARC
  5
9C12
  8
0
 10
483.6696084433945089
 20
66.5106806637601551
 30
0.0
 40
14.5437128843603105
 50
1.9847542808880849
 51
3.9315755571104791
  0
ARC
  5
9C13
  8
0
 10
496.3170755340906908
 20
67.3799011141733217
 30
0.0
 40
1.8664115941937851
 50
3.9315755571104791
 51
12.6825347044081393
  0
ARC
  5
9C14
  8
0
 10
496.3424309838856061
 20
67.3856070905692661
 30
0.0
 40
1.8404220385813159
 50
12.6825347044081393
 51
23.1351744589468709
  0
ARC
  5
9C15
  8
0
 10
497.1260717136598828
 20
67.6513898803310951
 30
0.0
 40
1.017357546071048
 50
26.7128697330666682
 51
65.0906584023712043
  0
ARC
  5
9C16
  8
0
 10
496.6826223471622939
 20
66.7684436939707098
 30
0.0
 40
2.0051707919288768
 50
64.2244009794089408
 51
77.7081181654909443
  0
ARC
  5
9C17
  8
0
 10
495.995921830590305
 20
63.3199514635730267
 30
0.0
 40
5.5211636377097726
 50
78.3639666252924627
 51
87.5166639987188262
  0
ARC
  5
9C18
  8
0
 10
494.8976649674610826
 20
49.9552526252225206
 30
0.0
 40
18.9279908266361296
 50
85.948011016195224
 51
87.4921676377157667
  0
ARC
  5
9C19
  8
0
 10
492.1525744140885763
 20
68.9825320471240246
 30
0.0
 40
0.0394
 50
359.9999999999836859
 51
90.0000000000032543
  0
ARC
  5
9C1A
  8
0
 10
491.6595271320168763
 20
68.8941478800514346
 30
0.0
 40
0.0222144357590202
 50
273.748147316044026
 51
312.1204208072982169
  0
ARC
  5
9C1B
  8
0
 10
491.6485183835623047
 20
68.9063227773916651
 30
0.0
 40
0.0386284744997698
 50
312.1204208072982169
 51
341.2159943617648992
  0
ARC
  5
9C1C
  8
0
 10
491.630904704641523
 20
68.912313476561593
 30
0.0
 40
0.0572330481759128
 50
341.2159943617677982
 51
359.0064233363087283
  0
ARC
  5
9C1D
  8
0
 10
489.6342180837875162
 20
68.9469418581285822
 30
0.0
 40
2.0542199251252029
 50
359.0064233363087283
 51
0.9935568448181189
  0
ARC
  5
9C1E
  8
0
 10
491.6308404110932884
 20
68.9815684338089454
 30
0.0
 40
0.0572973633718113
 50
0.9935568448164906
 51
25.0349621110103193
  0
ARC
  5
9C1F
  8
0
 10
491.6553680328644873
 20
68.9930240781519757
 30
0.0
 40
0.0302264192237658
 50
25.0349621110103193
 51
59.8582981673981607
  0
ARC
  5
9C20
  8
0
 10
491.6599264723599845
 20
69.0008746241522601
 30
0.0
 40
0.021148399443195
 50
59.8582981673981607
 51
84.6835806150618566
  0
ARC
  5
9C21
  8
0
 10
491.2826441655067242
 20
69.3703572428110533
 30
0.0
 40
0.4960629932129766
 50
66.4435357393791151
 51
90.0000355475320077
  0
LINE
  5
9C22
  8
0
 10
491.4808970433384161
 20
69.8250816534240357
 30
0.0
 11
491.4808970434885964
 21
69.457611740924051
 31
0.0
  0
ARC
  5
9C23
  8
0
 10
491.2831413438054824
 20
69.6286552667249907
 30
0.0
 40
0.3020788900498182
 50
269.9056409903895997
 51
286.8097226875275965
  0
ARC
  5
9C24
  8
0
 10
491.3131380915642126
 20
69.5293621427351809
 30
0.0
 40
0.1983536310829344
 50
286.8097226875275965
 51
312.6090669828565751
  0
ARC
  5
9C25
  8
0
 10
491.3766684720234821
 20
69.4602953126128568
 30
0.0
 40
0.1045115495605536
 50
312.6090669828566888
 51
346.1787426540709021
  0
ARC
  5
9C26
  8
0
 10
491.3861365571602846
 20
69.45796600282128
 30
0.0
 40
0.0947611485297452
 50
346.1787426540709021
 51
359.7858008355731272
  0
LINE
  5
9C27
  8
0
 10
498.345639118104998
 20
26.2624388178825505
 30
0.0
 11
498.345637318688091
 21
51.7151687956240309
 31
0.0
  0
LINE
  5
9C28
  8
0
 10
498.3456372351884056
 20
52.8962709859718174
 30
0.0
 11
498.3456362370885131
 21
67.0143813658929162
 31
0.0
  0
LINE
  5
9C29
  8
0
 10
497.5346126694885811
 20
66.2444517321240482
 30
0.0
 11
497.534610783351809
 21
52.8962709859718174
 31
0.0
  0
LINE
  5
9C2A
  8
0
 10
497.5346106164586217
 20
51.7151687956240309
 30
0.0
 11
497.5346070338176787
 21
26.3608380299240217
 31
0.0
  0
LINE
  5
9C2B
  8
0
 10
498.3397328605885264
 20
26.2545388173240291
 30
0.0
 11
498.1405577335885937
 21
26.2545388173240291
 31
0.0
  0
ARC
  5
9C2C
  8
0
 10
498.3377391181049916
 20
26.2624388173240284
 30
0.0
 40
0.0079
 50
270.0
 51
0.0000040506127677
  0
LINE
  5
9C2D
  8
0
 10
498.3456328605885801
 20
26.2486388173240286
 30
0.0
 11
498.3456328605885801
 21
24.4946852740240395
 31
0.0
  0
ARC
  5
9C2E
  8
0
 10
498.3397328605885264
 20
26.2486388173240286
 30
0.0
 40
0.0059
 50
0.0
 51
90.0
  0
LINE
  5
9C2F
  8
0
 10
498.1405577335885937
 20
24.4828852740240208
 30
0.0
 11
498.3338328605885863
 21
24.4828852740240208
 31
0.0
  0
ARC
  5
9C30
  8
0
 10
498.3338328605885863
 20
24.4946852740240395
 30
0.0
 40
0.0118
 50
270.0
 51
0.0
  0
LINE
  5
9C31
  8
0
 10
497.374648177603774
 20
24.3275591046240116
 30
0.0
 11
497.4178077165885838
 21
23.0845643821240216
 31
0.0
  0
ARC
  5
9C32
  8
0
 10
497.4374809003007272
 20
23.0852474787808397
 30
0.0
 40
0.0196850394568193
 50
181.9886378568891132
 51
269.9999996734285901
  0
LINE
  5
9C33
  8
0
 10
497.4374809001885183
 20
23.0655624393240188
 30
0.0
 11
498.2065307811885759
 21
23.0655624349406203
 31
0.0
  0
ARC
  5
9C34
  8
0
 10
498.2065307813007848
 20
23.0852577732832991
 30
0.0
 40
0.0196953383426681
 50
269.9999996734252932
 51
357.982436203505074
  0
LINE
  5
9C35
  8
0
 10
498.2262139101441107
 20
23.0845643820693098
 30
0.0
 11
498.2747667188885998
 21
24.4828852740240208
 31
0.0
  0
ARC
  5
9C36
  8
0
 10
1165.927223955844056
 20
20.0365247410982086
 30
0.0
 40
668.4035305533852807
 50
179.7403489625629902
 51
180.3608335481328879
  0
ARC
  5
9C37
  8
0
 10
514.129950364472279
 20
15.9316249688760294
 30
0.0
 40
16.5933311369562517
 50
180.3608335481328879
 51
189.6066150236476062
  0
ARC
  5
9C38
  8
0
 10
504.6592206197848895
 20
14.3286461989704499
 30
0.0
 40
6.9879023160407421
 50
189.6066150236476062
 51
198.1957491610432953
  0
ARC
  5
9C39
  8
0
 10
500.7596675983755858
 20
13.0468589795874497
 30
0.0
 40
2.8830890142503471
 50
198.1957491610432953
 51
216.4290109795873036
  0
ARC
  5
9C3A
  8
0
 10
499.5585915305618983
 20
12.1604102676986301
 30
0.0
 40
1.390314738117425
 50
216.4290109795873036
 51
254.7711882900867977
  0
ARC
  5
9C3B
  8
0
 10
499.537889576655175
 20
12.0843655749226802
 30
0.0
 40
1.311502517015968
 50
254.7711882900867977
 51
314.7724520045089207
  0
ARC
  5
9C3C
  8
0
 10
498.7436812519230784
 20
12.8849074222267408
 30
0.0
 40
2.4391700710223692
 50
314.7724520045089207
 51
351.5922464956896079
  0
ARC
  5
9C3D
  8
0
 10
494.2931879618254811
 20
13.5423777732348096
 30
0.0
 40
6.9379652151302738
 50
351.5949973855371127
 51
358.5006141857783177
  0
ARC
  5
9C3E
  8
0
 10
-864.6725541984953907
 20
27.1136519491781414
 30
0.0
 40
1362.7918513194128991
 50
359.612597768803596
 51
359.8298061548512123
  0
ARC
  5
9C3F
  8
0
 10
540.8600762000645545
 20
17.6100763006101815
 30
0.0
 40
42.7729081510288509
 50
179.6125977688035107
 51
184.7996370918417028
  0
ARC
  5
9C40
  8
0
 10
505.7760123597287816
 20
14.6642089340475508
 30
0.0
 40
7.5653852319973032
 50
184.7996370918417028
 51
199.1478032052278877
  0
ARC
  5
9C41
  8
0
 10
500.156423473676
 20
12.7129995290982691
 30
0.0
 40
1.6166881149630461
 50
199.1478032052278877
 51
226.0222243455465048
  0
ARC
  5
9C42
  8
0
 10
499.5221883902099762
 20
12.0557198525063107
 30
0.0
 40
0.7033039053557399
 50
226.0222243455465048
 51
302.3825561331506151
  0
ARC
  5
9C43
  8
0
 10
499.1688417868846273
 20
12.6128798764565495
 30
0.0
 40
1.3630622811038531
 50
302.3825561331506151
 51
344.1861955010912766
  0
ARC
  5
9C44
  8
0
 10
496.2451625636545032
 20
13.4407962980042903
 30
0.0
 40
4.4017043781378167
 50
344.1882278712345169
 51
358.9591397429439894
  0
LINE
  5
9C45
  8
0
 10
500.6461406376520245
 20
13.3608374041212006
 30
0.0
 11
500.6461433348799233
 21
51.5852469579914015
 31
0.0
  0
LINE
  5
9C46
  8
0
 10
501.2287803550884746
 20
51.5852469168533716
 30
0.0
 11
501.2287776559886083
 21
13.3608373629240198
 31
0.0
  0
LINE
  5
9C47
  8
0
 10
497.1277104060343959
 20
52.8962709859718174
 30
0.0
 11
499.9164859124886107
 21
52.8962709859718174
 31
0.0
  0
LINE
  5
9C48
  8
0
 10
499.9991670148320964
 20
52.8962709859718174
 30
0.0
 11
501.474115921188627
 21
52.8962709859718174
 31
0.0
  0
LINE
  5
9C49
  8
0
 10
497.10801067604541
 20
52.8764678435305697
 30
0.0
 11
497.1139883189445072
 21
51.7347656531827766
 31
0.0
  0
LINE
  5
9C4A
  8
0
 10
497.1336880489333794
 20
51.7151687956240309
 30
0.0
 11
499.9166451090621877
 21
51.7151687956240309
 31
0.0
  0
LINE
  5
9C4B
  8
0
 10
499.999043806740417
 20
51.7151687956240309
 30
0.0
 11
501.474115921188627
 21
51.7151687956240309
 31
0.0
  0
ARC
  5
9C4C
  8
0
 10
497.1277104060343959
 20
52.8765709859718172
 30
0.0
 40
0.0197
 50
90.0000000000032543
 51
180.2999824147763093
  0
ARC
  5
9C4D
  8
0
 10
497.1336880489333794
 20
51.7348687956240312
 30
0.0
 40
0.0197
 50
180.2999824147860011
 51
270.0
  0
LINE
  5
9C4E
  8
0
 10
499.9361859124886109
 20
52.8765709859718172
 30
0.0
 11
499.9361859124886109
 21
51.7348681523762579
 31
0.0
  0
LINE
  5
9C4F
  8
0
 10
499.9873670148321025
 20
52.8844709859718165
 30
0.0
 11
499.9873670148321025
 21
51.7269354010939466
 31
0.0
  0
LINE
  5
9C50
  8
0
 10
499.963744962988585
 20
52.831295365922891
 30
0.0
 11
499.963744962988585
 21
51.7800756510578921
 31
0.0
  0
ARC
  5
9C51
  8
0
 10
499.9164859124886107
 20
52.8765709859718172
 30
0.0
 40
0.0197
 50
359.9999999999902229
 51
90.0000000000162856
  0
ARC
  5
9C52
  8
0
 10
499.9991670148320964
 20
52.8844709859718165
 30
0.0
 40
0.0118
 50
90.0000000000162856
 51
179.9999999999820943
  0
LINE
  5
9C53
  8
0
 10
499.9873670148321025
 20
52.850995365624037
 30
0.0
 11
499.98344496448982
 21
52.8509953659228913
 31
0.0
  0
ARC
  5
9C54
  8
0
 10
499.9834449629885853
 20
52.831295365922891
 30
0.0
 40
0.0197
 50
89.9999956340146241
 51
180.0000000000098055
  0
LINE
  5
9C55
  8
0
 10
499.9361859124886109
 20
52.833278833824032
 30
0.0
 11
499.9440449644898194
 21
52.8332788332251582
 31
0.0
  0
ARC
  5
9C56
  8
0
 10
499.9440449629885848
 20
52.8135788332251579
 30
0.0
 40
0.0197
 50
0.0000000000048853
 51
89.9999956340667353
  0
LINE
  5
9C57
  8
0
 10
499.9873670148321025
 20
51.7604433151240286
 30
0.0
 11
499.98344496448982
 21
51.7604433148251672
 31
0.0
  0
ARC
  5
9C58
  8
0
 10
499.9834449629885853
 20
51.7801433148251675
 30
0.0
 40
0.0197
 50
179.9999999999901945
 51
270.0000043659853759
  0
LINE
  5
9C59
  8
0
 10
499.9361859124886109
 20
51.7781598469240265
 30
0.0
 11
499.9440449644898194
 21
51.778159847522879
 31
0.0
  0
ARC
  5
9C5A
  8
0
 10
499.9440449629885848
 20
51.7978598475229077
 30
0.0
 40
0.0197
 50
270.0000043659333073
 51
359.9999999999951115
  0
ARC
  5
9C5B
  8
0
 10
499.9164859124886107
 20
51.7348681523762579
 30
0.0
 40
0.0197
 50
269.9999999999837996
 51
0.0000000000097707
  0
ARC
  5
9C5C
  8
0
 10
499.9991670148320964
 20
51.7269681523762515
 30
0.0
 40
0.0118
 50
180.0000000000179057
 51
269.9999999999837996
  0
LINE
  5
9C5D
  8
0
 10
497.5865136304209955
 20
51.7151687956240309
 30
0.0
 11
497.5875858842885009
 21
51.5103825119240284
 31
0.0
  0
ARC
  5
9C5E
  8
0
 10
497.599396745951708
 20
51.510444353185413
 30
0.0
 40
0.0118110235613817
 50
180.2999959697015981
 51
269.9999961261891031
  0
LINE
  5
9C5F
  8
0
 10
497.5993967451531717
 20
51.4986333296240204
 30
0.0
 11
498.2808489008530728
 21
51.4986332835505323
 31
0.0
  0
ARC
  5
9C60
  8
0
 10
498.2808489016517797
 20
51.5104443071982274
 30
0.0
 40
0.0118110236477165
 50
269.9999961261891031
 51
359.6999855360181186
  0
LINE
  5
9C61
  8
0
 10
498.2926597633812094
 20
51.5103824621240207
 30
0.0
 11
498.2937320836124968
 21
51.7151687954292782
 31
0.0
  0
LINE
  5
9C62
  8
0
 10
501.4938159211886273
 20
52.8765709859718172
 30
0.0
 11
501.4938159211886273
 21
51.7348687956240312
 31
0.0
  0
ARC
  5
9C63
  8
0
 10
501.474115921188627
 20
52.8765709859718172
 30
0.0
 40
0.0197
 50
359.9999999999902229
 51
90.0000000000097771
  0
ARC
  5
9C64
  8
0
 10
501.474115921188627
 20
51.7348687956240312
 30
0.0
 40
0.0197
 50
269.9999999999902229
 51
0.0000000000048853
  0
LINE
  5
9C65
  8
0
 10
501.321946784741499
 20
51.5852469374240314
 30
0.0
 11
500.5529263117828123
 21
51.5852469374240314
 31
0.0
  0
LINE
  5
9C66
  8
0
 10
500.533238176489192
 20
51.6042633230150187
 30
0.0
 11
500.5285670879649729
 21
51.7151687956240309
 31
0.0
  0
LINE
  5
9C67
  8
0
 10
500.4875566792189261
 20
52.8962709859718174
 30
0.0
 11
500.4838657559644162
 21
53.0025697933625608
 31
0.0
  0
LINE
  5
9C68
  8
0
 10
501.3416348668250748
 20
51.604261792279793
 30
0.0
 11
501.3463164806760801
 21
51.7151687956240309
 31
0.0
  0
LINE
  5
9C69
  8
0
 10
501.3874188301650747
 20
52.8962709859718174
 30
0.0
 11
501.3902959765466107
 21
52.9789476196740381
 31
0.0
  0
ARC
  5
9C6A
  8
0
 10
501.321946784741499
 20
51.6049469374240317
 30
0.0
 40
0.0197
 50
270.0
 51
358.0069115097003873
  0
ARC
  5
9C6B
  8
0
 10
500.5529263117828123
 20
51.6049469374240317
 30
0.0
 40
0.0197
 50
181.9886337877611027
 51
269.9999999999902229
  0
LINE
  5
9C6C
  8
0
 10
490.9479667612278035
 20
69.1265936762623596
 30
0.0
 11
491.6173209542492941
 21
69.1265936762623596
 31
0.0
  0
LINE
  5
9C6D
  8
0
 10
490.9296736542701751
 20
69.2457769732240536
 30
0.0
 11
491.6356140612069225
 21
69.2457769732240536
 31
0.0
  0
CIRCLE
  5
9C6F
  8
0
 10
485.2550816793885247
 20
25.3372159827240395
 30
0.0
 40
0.7440944882000001
  0
CIRCLE
  5
9C70
  8
0
 10
485.2550816793885247
 20
25.3372159827240395
 30
0.0
 40
0.7262573620000027
  0
ARC
  5
9C71
  8
0
 10
485.3338218368876937
 20
25.1403655890228706
 30
0.0
 40
0.8267716535014384
 50
51.7141443959337792
 51
56.7954640932779924
  0
ARC
  5
9C72
  8
0
 10
485.3338218368882053
 20
25.1403655890240998
 30
0.0
 40
0.8267716534996447
 50
166.8073760667699901
 51
171.8845687771012081
  0
LINE
  5
9C73
  8
0
 10
485.2157116006885076
 20
24.6120264601419692
 30
0.0
 11
485.2157116006885076
 21
24.5941637609571089
 31
0.0
  0
LINE
  5
9C74
  8
0
 10
485.4519320730885852
 20
24.6381453471704113
 30
0.0
 11
485.4519320730885852
 21
24.6196321688947499
 31
0.0
  0
ARC
  5
9C75
  8
0
 10
485.2550816793885247
 20
25.3372159827240395
 30
0.0
 40
0.0393700787000009
 50
104.4775122235057978
 51
75.5224877764941738
  0
LINE
  5
9C76
  8
0
 10
485.2452391596885946
 20
25.3753358975035894
 30
0.0
 11
485.2452391596885946
 21
26.0634072575644105
 31
0.0
  0
LINE
  5
9C77
  8
0
 10
485.2649241990886253
 20
25.375335895536999
 30
0.0
 11
485.2649241990886253
 21
26.0634066468509999
 31
0.0
  0
ARC
  5
9C78
  8
0
 10
485.2550816793885247
 20
25.3372159827240395
 30
0.0
 40
0.0456692912999999
 50
102.4458745096924019
 51
77.5541254903076265
  0
ARC
  5
9C79
  8
0
 10
485.2550816793885247
 20
25.3372159827240395
 30
0.0
 40
0.0811023621999998
 50
96.9705537146806194
 51
83.0294462853193664
  0
ARC
  5
9C7A
  8
0
 10
485.2550816793885247
 20
25.3372159827240395
 30
0.0
 40
0.1165354331000001
 50
94.8449424103098551
 51
85.1550575896901307
  0
ARC
  5
9C7B
  8
0
 10
485.2550816793885247
 20
25.3372159827240395
 30
0.0
 40
0.1519685039
 50
93.7134658203355428
 51
86.2865341796644429
  0
ARC
  5
9C7C
  8
0
 10
485.2550816793885247
 20
25.3372159827240395
 30
0.0
 40
0.1874015748
 50
93.0106173146114941
 51
86.9893826853885059
  0
ARC
  5
9C7D
  8
0
 10
485.2550816793885247
 20
25.3372159827240395
 30
0.0
 40
0.2228346456999999
 50
92.5315559280558091
 51
87.4684440719441767
  0
ARC
  5
9C7E
  8
0
 10
485.2550816793885247
 20
25.3372159827240395
 30
0.0
 40
0.2582677164999998
 50
92.1840570744881376
 51
87.8159429255118624
  0
ARC
  5
9C7F
  8
0
 10
485.2550816793885247
 20
25.3372159827240395
 30
0.0
 40
0.2937007874000002
 50
91.9204594317137662
 51
88.0795405682862196
  0
ARC
  5
9C80
  8
0
 10
485.2550816793885247
 20
25.3372159827240395
 30
0.0
 40
0.3283464566999998
 50
91.717756705722536
 51
88.282243294277464
  0
ARC
  5
9C81
  8
0
 10
485.2550816793885247
 20
25.3372159827240395
 30
0.0
 40
0.3645669291
 50
91.5470502757286653
 51
88.4529497242713489
  0
ARC
  5
9C82
  8
0
 10
485.2550816793885247
 20
25.3372159827240395
 30
0.0
 40
0.3999999999999999
 50
91.4099794042415112
 51
88.590020595758503
  0
ARC
  5
9C83
  8
0
 10
485.2550816793885247
 20
25.3372159827240395
 30
0.0
 40
0.4354330708999999
 50
91.2952228714712533
 51
88.7047771285287752
  0
ARC
  5
9C84
  8
0
 10
485.2550816793885247
 20
25.3372159827240395
 30
0.0
 40
0.4708661417000002
 50
91.1977414894348755
 51
88.8022585105651245
  0
ARC
  5
9C85
  8
0
 10
485.2550816793885247
 20
25.3372159827240395
 30
0.0
 40
0.5062992126000001
 50
91.1139072525113676
 51
88.8860927474886466
  0
ARC
  5
9C86
  8
0
 10
485.2550816793885247
 20
25.3372159827240395
 30
0.0
 40
0.5409448819000003
 50
91.0425571590102436
 51
88.9574428409897564
  0
ARC
  5
9C87
  8
0
 10
485.2550816793885247
 20
25.3372159827240395
 30
0.0
 40
0.5771653543
 50
90.9771240964398515
 51
89.0228759035601769
  0
ARC
  5
9C88
  8
0
 10
485.2550816793885247
 20
25.3372159827240395
 30
0.0
 40
0.6125984252000003
 50
90.9206016223190403
 51
89.0793983776809739
  0
ARC
  5
9C89
  8
0
 10
485.2550816793885247
 20
25.3372159827240395
 30
0.0
 40
0.6472440945
 50
90.8713197700227511
 51
89.1286802299772631
  0
ARC
  5
9C8A
  8
0
 10
485.2550816793885247
 20
25.3372159827240395
 30
0.0
 40
0.6834645669000002
 50
90.8251405556325579
 51
89.1748594443674278
  0
ARC
  5
9C8B
  8
0
 10
485.2550816793885247
 20
25.3372159827240395
 30
0.0
 40
0.7186458195999998
 50
90.784743269940833
 51
89.2152567300591386
  0
LINE
  5
9C8C
  8
0
 10
483.5034659731385887
 20
0.4867909985516051
 30
0.0
 11
483.5034659731385887
 21
-4.832547080438423
 31
0.0
  0
LINE
  5
9C8D
  8
0
 10
485.7468513299385791
 20
0.4394408550049534
 30
0.0
 11
485.7468513299385791
 21
-4.7851969368917429
 31
0.0
  0
LINE
  5
9C8E
  8
0
 10
484.3968239529401103
 20
0.4127742806939736
 30
0.0
 11
484.3968239529401103
 21
-4.7585303625810758
 31
0.0
  0
ARC
  5
9C8F
  8
0
 10
484.6516482864377053
 20
0.3905389371558883
 30
0.0
 40
1.1522096527524399
 50
113.7368520309312032
 51
175.2081018925404123
  0
ARC
  5
9C90
  8
0
 10
484.6275233119690142
 20
0.445401260353826
 30
0.0
 40
1.0922772833700489
 50
57.3187118829876425
 51
113.7368520309312032
  0
ARC
  5
9C91
  8
0
 10
484.5947345095706851
 20
0.394290743151565
 30
0.0
 40
1.153001171020646
 50
2.2442062572898309
 51
57.3187118829876425
  0
LINE
  5
9C92
  8
0
 10
484.8535051965384923
 20
0.4104573436240387
 30
0.0
 11
484.8535051965384923
 21
-4.7562134255108566
 31
0.0
  0
ARC
  5
9C93
  8
0
 10
484.6251586973385201
 20
0.4104573436240387
 30
0.0
 40
0.2283464992000024
 50
0.0
 51
179.418633550652487
  0
ARC
  5
9C94
  8
0
 10
484.6516482864377053
 20
-4.7362950190426778
 30
0.0
 40
1.1522096527524399
 50
184.7918981074595877
 51
246.2631479690687968
  0
ARC
  5
9C95
  8
0
 10
484.6275233119690142
 20
-4.7911573422406164
 30
0.0
 40
1.0922772833700489
 50
246.2631479690687968
 51
302.6812881170124001
  0
ARC
  5
9C96
  8
0
 10
484.5947345095706851
 20
-4.7400468250383829
 30
0.0
 40
1.153001171020646
 50
302.6812881170124001
 51
357.755793742710182
  0
ARC
  5
9C97
  8
0
 10
484.6251586973385201
 20
-4.7562134255108566
 30
0.0
 40
0.2283464992000024
 50
180.5813664493473993
 51
0.0
  0
LINE
  5
9C98
  8
0
 10
484.2196517110061222
 20
1.4586684614879379
 30
0.0
 11
484.2196517110061222
 21
23.5663572434326305
 31
0.0
  0
LINE
  5
9C99
  8
0
 10
485.0306753327890874
 20
1.4605554909390071
 30
0.0
 11
485.0306753327890874
 21
23.5663585072328097
 31
0.0
  0
CIRCLE
  5
9C9A
  8
0
 10
484.591173917438482
 20
0.4025707470240647
 30
0.0
 40
0.0294014919894706
  0
CIRCLE
  5
9C9B
  8
0
 10
484.591173917438482
 20
0.4025707470240647
 30
0.0
 40
0.0727653345090967
  0
ARC
  5
9C9C
  8
0
 10
484.6102229182383212
 20
0.3997982286846522
 30
0.0
 40
0.0776521264514795
 50
52.9259908136816222
 51
103.4236710739626943
  0
ARC
  5
9C9D
  8
0
 10
484.6123206915729043
 20
0.4025745991061953
 30
0.0
 40
0.0741723440328471
 50
307.370659946949786
 51
52.9259908136816222
  0
ARC
  5
9C9E
  8
0
 10
484.6102178007569137
 20
0.4053279871119387
 30
0.0
 40
0.0776369212500756
 50
256.5775334725663015
 51
307.370659946949786
  0
ARC
  5
9C9F
  8
0
 10
484.597599501138518
 20
0.4025703133240413
 30
0.0
 40
0.0866141731999939
 50
90.0
 51
269.999999338496707
  0
LINE
  5
9CA0
  8
0
 10
484.597599501138518
 20
0.48918448652406
 30
0.0
 11
484.6527176117385238
 21
0.48918448652406
 31
0.0
  0
ARC
  5
9CA1
  8
0
 10
484.6527176117385238
 20
0.4025703133240413
 30
0.0
 40
0.086614173200001
 50
269.9999996030961142
 51
90.0
  0
LINE
  5
9CA2
  8
0
 10
484.6527176111384847
 20
0.3159561401240509
 30
0.0
 11
484.5975995012385056
 21
0.3159561405058682
 31
0.0
  0
CIRCLE
  5
9CA3
  8
0
 10
484.591173917438482
 20
-0.325775709575943
 30
0.0
 40
0.0294014919894706
  0
CIRCLE
  5
9CA4
  8
0
 10
484.591173917438482
 20
-0.325775709575943
 30
0.0
 40
0.0727653345090967
  0
ARC
  5
9CA5
  8
0
 10
484.6102229182383212
 20
-0.3285482279153555
 30
0.0
 40
0.0776521264514795
 50
52.9259908136816222
 51
103.4236710739626943
  0
ARC
  5
9CA6
  8
0
 10
484.6123206915729043
 20
-0.3257718574938124
 30
0.0
 40
0.0741723440328471
 50
307.370659946949786
 51
52.9259908136816222
  0
ARC
  5
9CA7
  8
0
 10
484.6102178007569137
 20
-0.3230184694880691
 30
0.0
 40
0.0776369212500756
 50
256.5775334725663015
 51
307.370659946949786
  0
ARC
  5
9CA8
  8
0
 10
484.597599501138518
 20
-0.3257761432759665
 30
0.0
 40
0.0866141731999939
 50
90.0
 51
269.999999338496707
  0
LINE
  5
9CA9
  8
0
 10
484.597599501138518
 20
-0.2391619700759477
 30
0.0
 11
484.6527176117385238
 21
-0.2391619700759477
 31
0.0
  0
ARC
  5
9CAA
  8
0
 10
484.6527176117385238
 20
-0.3257761432759665
 30
0.0
 40
0.086614173200001
 50
269.9999996030961142
 51
90.0
  0
LINE
  5
9CAB
  8
0
 10
484.6527176111384847
 20
-0.4123903164759568
 30
0.0
 11
484.5975995012385056
 21
-0.4123903160941396
 31
0.0
  0
CIRCLE
  5
9CAC
  8
0
 10
484.591173917438482
 20
-1.0541221662759379
 30
0.0
 40
0.0294014919894706
  0
CIRCLE
  5
9CAD
  8
0
 10
484.591173917438482
 20
-1.0541221662759379
 30
0.0
 40
0.0727653345090967
  0
ARC
  5
9CAE
  8
0
 10
484.6102229182383212
 20
-1.05689468461535
 30
0.0
 40
0.0776521264514795
 50
52.9259908136816222
 51
103.4236710739626943
  0
ARC
  5
9CAF
  8
0
 10
484.6123206915729043
 20
-1.0541183141938071
 30
0.0
 40
0.0741723440328471
 50
307.370659946949786
 51
52.9259908136816222
  0
ARC
  5
9CB0
  8
0
 10
484.6102178007569137
 20
-1.051364926188064
 30
0.0
 40
0.0776369212500756
 50
256.5775334725663015
 51
307.370659946949786
  0
ARC
  5
9CB1
  8
0
 10
484.597599501138518
 20
-1.0541225999759609
 30
0.0
 40
0.0866141731999939
 50
90.0
 51
269.999999338496707
  0
LINE
  5
9CB2
  8
0
 10
484.597599501138518
 20
-0.967508426775943
 30
0.0
 11
484.6527176117385238
 21
-0.967508426775943
 31
0.0
  0
ARC
  5
9CB3
  8
0
 10
484.6527176117385238
 20
-1.0541225999759609
 30
0.0
 40
0.086614173200001
 50
269.9999996030961142
 51
90.0
  0
LINE
  5
9CB4
  8
0
 10
484.6527176111384847
 20
-1.1407367731759519
 30
0.0
 11
484.5975995012385056
 21
-1.140736772794134
 31
0.0
  0
CIRCLE
  5
9CB5
  8
0
 10
484.591173917438482
 20
-1.7824686229759621
 30
0.0
 40
0.0294014919894706
  0
CIRCLE
  5
9CB6
  8
0
 10
484.591173917438482
 20
-1.7824686229759621
 30
0.0
 40
0.0727653345090967
  0
ARC
  5
9CB7
  8
0
 10
484.6102229182383212
 20
-1.7852411413153459
 30
0.0
 40
0.0776521264514795
 50
52.9259908136816222
 51
103.4236710739626943
  0
ARC
  5
9CB8
  8
0
 10
484.6123206915729043
 20
-1.7824647708938031
 30
0.0
 40
0.0741723440328471
 50
307.370659946949786
 51
52.9259908136816222
  0
ARC
  5
9CB9
  8
0
 10
484.6102178007569137
 20
-1.7797113828880591
 30
0.0
 40
0.0776369212500756
 50
256.5775334725663015
 51
307.370659946949786
  0
ARC
  5
9CBA
  8
0
 10
484.597599501138518
 20
-1.7824690566759569
 30
0.0
 40
0.0866141731999939
 50
90.0
 51
269.999999338496707
  0
LINE
  5
9CBB
  8
0
 10
484.597599501138518
 20
-1.6958548834759379
 30
0.0
 11
484.6527176117385238
 21
-1.6958548834759379
 31
0.0
  0
ARC
  5
9CBC
  8
0
 10
484.6527176117385238
 20
-1.7824690566759569
 30
0.0
 40
0.086614173200001
 50
269.9999996030961142
 51
90.0
  0
LINE
  5
9CBD
  8
0
 10
484.6527176111384847
 20
-1.869083229875947
 30
0.0
 11
484.5975995012385056
 21
-1.86908322949413
 31
0.0
  0
CIRCLE
  5
9CBE
  8
0
 10
484.591173917438482
 20
-2.510815079675957
 30
0.0
 40
0.0294014919894706
  0
CIRCLE
  5
9CBF
  8
0
 10
484.591173917438482
 20
-2.510815079675957
 30
0.0
 40
0.0727653345090967
  0
ARC
  5
9CC0
  8
0
 10
484.6102229182383212
 20
-2.513587598015341
 30
0.0
 40
0.0776521264514795
 50
52.9259908136816222
 51
103.4236710739626943
  0
ARC
  5
9CC1
  8
0
 10
484.6123206915729043
 20
-2.5108112275938259
 30
0.0
 40
0.0741723440328471
 50
307.370659946949786
 51
52.9259908136816222
  0
ARC
  5
9CC2
  8
0
 10
484.6102178007569137
 20
-2.5080578395880551
 30
0.0
 40
0.0776369212500756
 50
256.5775334725663015
 51
307.370659946949786
  0
ARC
  5
9CC3
  8
0
 10
484.597599501138518
 20
-2.51081551337598
 30
0.0
 40
0.0866141731999939
 50
90.0
 51
269.999999338496707
  0
LINE
  5
9CC4
  8
0
 10
484.597599501138518
 20
-2.4242013401759621
 30
0.0
 11
484.6527176117385238
 21
-2.4242013401759621
 31
0.0
  0
ARC
  5
9CC5
  8
0
 10
484.6527176117385238
 20
-2.510815513375952
 30
0.0
 40
0.086614173200001
 50
269.9999996030961142
 51
90.0
  0
LINE
  5
9CC6
  8
0
 10
484.6527176111384847
 20
-2.5974296865759419
 30
0.0
 11
484.5975995012385056
 21
-2.5974296861941251
 31
0.0
  0
CIRCLE
  5
9CC7
  8
0
 10
484.591173917438482
 20
-3.2391615363759518
 30
0.0
 40
0.0294014919894706
  0
CIRCLE
  5
9CC8
  8
0
 10
484.591173917438482
 20
-3.2391615363759518
 30
0.0
 40
0.0727653345090967
  0
ARC
  5
9CC9
  8
0
 10
484.6102229182383212
 20
-3.2419340547153359
 30
0.0
 40
0.0776521264514795
 50
52.9259908136816222
 51
103.4236710739626943
  0
ARC
  5
9CCA
  8
0
 10
484.6123206915729043
 20
-3.2391576842937928
 30
0.0
 40
0.0741723440328471
 50
307.370659946949786
 51
52.9259908136816222
  0
ARC
  5
9CCB
  8
0
 10
484.6102178007569137
 20
-3.2364042962880779
 30
0.0
 40
0.0776369212500756
 50
256.5775334725663015
 51
307.370659946949786
  0
ARC
  5
9CCC
  8
0
 10
484.597599501138518
 20
-3.2391619700759469
 30
0.0
 40
0.0866141731999939
 50
90.0
 51
269.999999338496707
  0
LINE
  5
9CCD
  8
0
 10
484.597599501138518
 20
-3.152547796875957
 30
0.0
 11
484.6527176117385238
 21
-3.152547796875957
 31
0.0
  0
ARC
  5
9CCE
  8
0
 10
484.6527176117385238
 20
-3.2391619700759469
 30
0.0
 40
0.086614173200001
 50
269.9999996030961142
 51
90.0
  0
LINE
  5
9CCF
  8
0
 10
484.6527176111384847
 20
-3.325776143275966
 30
0.0
 11
484.5975995012385056
 21
-3.3257761428941488
 31
0.0
  0
CIRCLE
  5
9CD0
  8
0
 10
484.591173917438482
 20
-3.967507993075948
 30
0.0
 40
0.0294014919894706
  0
CIRCLE
  5
9CD1
  8
0
 10
484.591173917438482
 20
-3.967507993075948
 30
0.0
 40
0.0727653345090967
  0
ARC
  5
9CD2
  8
0
 10
484.6102229182383212
 20
-3.9702805114153601
 30
0.0
 40
0.0776521264514795
 50
52.9259908136816222
 51
103.4236710739626943
  0
ARC
  5
9CD3
  8
0
 10
484.6123206915729043
 20
-3.967504140993817
 30
0.0
 40
0.0741723440328471
 50
307.370659946949786
 51
52.9259908136816222
  0
ARC
  5
9CD4
  8
0
 10
484.6102178007569137
 20
-3.9647507529880741
 30
0.0
 40
0.0776369212500756
 50
256.5775334725663015
 51
307.370659946949786
  0
ARC
  5
9CD5
  8
0
 10
484.597599501138518
 20
-3.967508426775971
 30
0.0
 40
0.0866141731999939
 50
90.0
 51
269.999999338496707
  0
LINE
  5
9CD6
  8
0
 10
484.597599501138518
 20
-3.8808942535759519
 30
0.0
 11
484.6527176117385238
 21
-3.8808942535759519
 31
0.0
  0
ARC
  5
9CD7
  8
0
 10
484.6527176117385238
 20
-3.967508426775971
 30
0.0
 40
0.086614173200001
 50
269.9999996030961142
 51
90.0
  0
LINE
  5
9CD8
  8
0
 10
484.6527176111384847
 20
-4.0541225999759609
 30
0.0
 11
484.5975995012385056
 21
-4.0541225995941437
 31
0.0
  0
CIRCLE
  5
9CD9
  8
0
 10
484.591173917438482
 20
-4.6958544497759434
 30
0.0
 40
0.0294014919894706
  0
CIRCLE
  5
9CDA
  8
0
 10
484.591173917438482
 20
-4.6958544497759434
 30
0.0
 40
0.0727653345090967
  0
ARC
  5
9CDB
  8
0
 10
484.6102229182383212
 20
-4.6986269681153274
 30
0.0
 40
0.0776521264514795
 50
52.9259908136816222
 51
103.4236710739626943
  0
ARC
  5
9CDC
  8
0
 10
484.6123206915729043
 20
-4.6958505976938119
 30
0.0
 40
0.0741723440328471
 50
307.370659946949786
 51
52.9259908136816222
  0
ARC
  5
9CDD
  8
0
 10
484.6102178007569137
 20
-4.6930972096880694
 30
0.0
 40
0.0776369212500756
 50
256.5775334725663015
 51
307.370659946949786
  0
ARC
  5
9CDE
  8
0
 10
484.597599501138518
 20
-4.6958548834759384
 30
0.0
 40
0.0866141731999939
 50
90.0
 51
269.999999338496707
  0
LINE
  5
9CDF
  8
0
 10
484.597599501138518
 20
-4.6092407102759481
 30
0.0
 11
484.6527176117385238
 21
-4.6092407102759481
 31
0.0
  0
ARC
  5
9CE0
  8
0
 10
484.6527176117385238
 20
-4.6958548834759384
 30
0.0
 40
0.086614173200001
 50
269.9999996030961142
 51
90.0
  0
LINE
  5
9CE1
  8
0
 10
484.6527176111384847
 20
-4.7824690566759571
 30
0.0
 11
484.5975995012385056
 21
-4.782469056294139
 31
0.0
  0
ARC
  5
9CE2
  8
0
 10
496.9834148614385185
 20
26.0852474787240389
 30
0.0
 40
0.0393700786999962
 50
138.3530361452478132
 51
164.3911827962689927
  0
LINE
  5
9CE3
  8
0
 10
480.4241285366908869
 20
39.0576884540240385
 30
0.0
 11
488.8261902431860904
 21
39.0576884540240385
 31
0.0
  0
LINE
  5
9CE4
  8
0
 10
480.4090991906479076
 20
39.4394863657385031
 30
0.0
 11
480.4123289859915076
 21
39.0693854817385002
 31
0.0
  0
LINE
  5
9CE5
  8
0
 10
480.4208987413472869
 20
39.4513893380240432
 30
0.0
 11
488.8294200385296904
 21
39.4513893380240432
 31
0.0
  0
LINE
  5
9CE6
  8
0
 10
480.5014006950592034
 20
39.4937177847425218
 30
0.0
 11
480.5017696381390806
 21
39.4513893379674627
 31
0.0
  0
LINE
  5
9CE7
  8
0
 10
480.5369215727188248
 20
39.5345108825539313
 30
0.0
 11
480.5048200599933921
 21
39.5021280062900288
 31
0.0
  0
LINE
  5
9CE8
  8
0
 10
480.5453017595748975
 20
39.5380035082240511
 30
0.0
 11
488.7050170203020798
 21
39.5380035082240511
 31
0.0
  0
ARC
  5
9CE9
  8
0
 10
480.5453017595748975
 20
39.5262035082240288
 30
0.0
 40
0.0118
 50
90.0000000000032543
 51
135.2499960255765075
  0
ARC
  5
9CEA
  8
0
 10
480.5132002468495216
 20
39.4938206319601406
 30
0.0
 40
0.0118
 50
135.2499960255969995
 51
180.4993886537968137
  0
ARC
  5
9CEB
  8
0
 10
480.4208987413472869
 20
39.4395893380240423
 30
0.0
 40
0.0118
 50
90.0
 51
180.4999959534935954
  0
ARC
  5
9CEC
  8
0
 10
480.4241285366908869
 20
39.0694884540240466
 30
0.0
 40
0.0118
 50
180.4999959534935954
 51
269.9999999999902229
  0
LINE
  5
9CED
  8
0
 10
488.8412195892291834
 20
39.4394863657385031
 30
0.0
 11
488.8379897938855834
 21
39.0693854817385002
 31
0.0
  0
LINE
  5
9CEE
  8
0
 10
488.748918084817717
 20
39.4937177847425218
 30
0.0
 11
488.7485491417380103
 21
39.4513893379674627
 31
0.0
  0
LINE
  5
9CEF
  8
0
 10
488.7133972071582093
 20
39.5345108825539313
 30
0.0
 11
488.7454987198836989
 21
39.5021280062900288
 31
0.0
  0
ARC
  5
9CF0
  8
0
 10
488.7050170203020798
 20
39.5262035082240288
 30
0.0
 40
0.0118
 50
44.750003974423457
 51
89.9999999999934914
  0
ARC
  5
9CF1
  8
0
 10
488.7371185330275125
 20
39.4938206319601406
 30
0.0
 40
0.0118
 50
359.5006113462030726
 51
44.7500039744030076
  0
ARC
  5
9CF2
  8
0
 10
488.8294200385296904
 20
39.4395893380240423
 30
0.0
 40
0.0118
 50
359.5000040465063194
 51
90.0
  0
ARC
  5
9CF3
  8
0
 10
488.8261902431860904
 20
39.0694884540240466
 30
0.0
 40
0.0118
 50
270.0000000000064801
 51
359.5000040465063194
  0
LINE
  5
9CF4
  8
0
 10
483.7513499947385753
 20
38.427767025548647
 30
0.0
 11
485.4989183174384948
 21
38.427767025548647
 31
0.0
  0
ARC
  5
9CF5
  8
0
 10
485.4989183174384948
 20
38.4395670255486479
 30
0.0
 40
0.0118
 50
270.0
 51
0.0
  0
LINE
  5
9CF6
  8
0
 10
483.7395499947385247
 20
38.4395670255486479
 30
0.0
 11
483.7395499947385247
 21
39.0379884540240383
 31
0.0
  0
ARC
  5
9CF7
  8
0
 10
483.7513499947385753
 20
38.4395670255486479
 30
0.0
 40
0.0118
 50
179.9999999999913882
 51
270.0
  0
ARC
  5
9CF8
  8
0
 10
483.7198499947385244
 20
39.0379884540240383
 30
0.0
 40
0.0197
 50
0.0
 51
90.0000000000032543
  0
LINE
  5
9CF9
  8
0
 10
485.5107183174384886
 20
39.0379884540240383
 30
0.0
 11
485.5107183174384886
 21
38.4395670255486479
 31
0.0
  0
ARC
  5
9CFA
  8
0
 10
485.5304183174384889
 20
39.0379884540240383
 30
0.0
 40
0.0197
 50
89.9999999999967457
 51
180.0
  0
ARC
  5
9CFB
  8
0
 10
483.7261620275340874
 20
39.0252307988073213
 30
0.0
 40
0.0325369893397595
 50
65.7620993290120595
 51
85.9947777038067613
  0
ARC
  5
9CFC
  8
0
 10
483.7172220570566878
 20
39.0053736035850918
 30
0.0
 40
0.0543138411376868
 50
54.9346484537951696
 51
65.7620993290151148
  0
ARC
  5
9CFD
  8
0
 10
483.7561002212005974
 20
39.0607628057633818
 30
0.0
 40
0.0133579799190967
 50
234.9346484537919082
 51
256.2372883904238847
  0
ARC
  5
9CFE
  8
0
 10
483.7585124503008274
 20
117.6443005972353006
 30
0.0
 40
78.5965124534072856
 50
269.9959248857094281
 51
270.0127322030846244
  0
ARC
  5
9CFF
  8
0
 10
483.7759671903610865
 20
39.0530515476627968
 30
0.0
 40
0.0052614745036056
 50
270.1185623305370882
 51
313.1892104420496139
  0
ARC
  5
9D00
  8
0
 10
483.7751720857424971
 20
39.0542670585656211
 30
0.0
 40
0.0066966285604195
 50
311.0309088416138934
 51
13.0589610450354208
  0
ARC
  5
9D01
  8
0
 10
483.7787143873787272
 20
39.054418241645493
 30
0.0
 40
0.0032775117125432
 50
24.553465812418569
 51
86.1753847144632772
  0
ARC
  5
9D02
  8
0
 10
483.9749317733388239
 20
38.900869269571011
 30
0.0
 40
0.1232698534521406
 50
99.1815716760353467
 51
180.3077558728377028
  0
ARC
  5
9D03
  8
0
 10
483.9750363455631827
 20
38.9002223027558713
 30
0.0
 40
0.1239252170229925
 50
359.000029998282173
 51
99.1815716760353467
  0
ARC
  5
9D04
  8
0
 10
483.9760249262536149
 20
38.9002050475334826
 30
0.0
 40
0.1229364857530564
 50
269.836017328082221
 51
359.000029998282173
  0
ARC
  5
9D05
  8
0
 10
483.9760305146706969
 20
38.9016436642795824
 30
0.0
 40
0.1243751126100563
 50
180.661774013490998
 51
269.8353396723194919
  0
ARC
  5
9D06
  8
0
 10
483.9741143969333166
 20
38.9008517181933513
 30
0.0
 40
0.1157400686857749
 50
127.6686098306177968
 51
187.6392460541337925
  0
ARC
  5
9D07
  8
0
 10
483.9741909790305954
 20
38.9007525202649802
 30
0.0
 40
0.1158653884632264
 50
35.066794730377417
 51
127.6686098306177968
  0
ARC
  5
9D08
  8
0
 10
483.973858062835518
 20
38.90051883096654
 30
0.0
 40
0.116272136396458
 50
301.9081856117571192
 51
35.066794730377417
  0
ARC
  5
9D09
  8
0
 10
483.9741680013822247
 20
38.9000210523998931
 30
0.0
 40
0.1156857530712238
 50
187.2279600507486066
 51
301.9081856117571192
  0
ARC
  5
9D0A
  8
0
 10
485.5241062846429259
 20
39.0252307988073213
 30
0.0
 40
0.0325369893397595
 50
94.0052222961932387
 51
114.2379006709878979
  0
ARC
  5
9D0B
  8
0
 10
485.5330462551203254
 20
39.0053736035850918
 30
0.0
 40
0.0543138411376868
 50
114.2379006709848994
 51
125.0653515462047949
  0
ARC
  5
9D0C
  8
0
 10
485.4941680909764727
 20
39.0607628057633818
 30
0.0
 40
0.0133579799190967
 50
283.7627116095728752
 51
305.0653515462080918
  0
ARC
  5
9D0D
  8
0
 10
485.4917558618762996
 20
117.6443005972353006
 30
0.0
 40
78.5965124534072856
 50
269.9872677969120787
 51
270.0040751142906856
  0
ARC
  5
9D0E
  8
0
 10
485.4743011218159268
 20
39.0530515476627968
 30
0.0
 40
0.0052614745036056
 50
226.8107895579503861
 51
269.8814376694596149
  0
ARC
  5
9D0F
  8
0
 10
485.4750962264345162
 20
39.0542670585656211
 30
0.0
 40
0.0066966285604195
 50
166.9410389549645117
 51
228.9690911583861066
  0
ARC
  5
9D10
  8
0
 10
485.4715539247982861
 20
39.054418241645493
 30
0.0
 40
0.0032775117125432
 50
93.8246152855367086
 51
155.446534187581392
  0
ARC
  5
9D11
  8
0
 10
485.2753365388381894
 20
38.900869269571011
 30
0.0
 40
0.1232698534521406
 50
359.692244127162212
 51
80.8184283239646533
  0
ARC
  5
9D12
  8
0
 10
485.2752319666137737
 20
38.9002223027558713
 30
0.0
 40
0.1239252170229925
 50
80.8184283239646533
 51
180.9999700017177986
  0
ARC
  5
9D13
  8
0
 10
485.2742433859233984
 20
38.9002050475334826
 30
0.0
 40
0.1229364857530564
 50
180.9999700017177986
 51
270.1639826719144821
  0
ARC
  5
9D14
  8
0
 10
485.2742377975062027
 20
38.9016436642795824
 30
0.0
 40
0.1243751126100563
 50
270.1646603276805081
 51
359.3382259865089736
  0
ARC
  5
9D15
  8
0
 10
485.2761539152436967
 20
38.9008517181933513
 30
0.0
 40
0.1157400686857749
 50
352.360753945866179
 51
52.331390169382189
  0
ARC
  5
9D16
  8
0
 10
485.2760773331464179
 20
38.9007525202649802
 30
0.0
 40
0.1158653884632264
 50
52.331390169382189
 51
144.9332052696225901
  0
ARC
  5
9D17
  8
0
 10
485.276410249341609
 20
38.90051883096654
 30
0.0
 40
0.116272136396458
 50
144.9332052696225901
 51
238.0918143882429092
  0
ARC
  5
9D18
  8
0
 10
485.2761003107949023
 20
38.9000210523998931
 30
0.0
 40
0.1156857530712238
 50
238.0918143882429092
 51
352.7720399492513934
  0
ARC
  5
9D19
  8
0
 10
500.9366877619542038
 20
60.6709719343570697
 30
0.0
 40
2.5730659132967721
 50
89.9835007469513357
 51
127.7765582558214987
  0
ARC
  5
9D1A
  8
0
 10
500.9012950047548998
 20
60.7166385695100601
 30
0.0
 40
2.5152897172609929
 50
127.7765582558214987
 51
166.3563873326920088
  0
ARC
  5
9D1B
  8
0
 10
500.9267252096964853
 20
60.7104658616680197
 30
0.0
 40
2.5414583558475878
 50
166.3563873326920088
 51
209.1143839676628033
  0
ARC
  5
9D1C
  8
0
 10
500.7998848360563784
 20
60.6398257017539777
 30
0.0
 40
2.396273946981303
 50
209.1143839676628033
 51
245.7037382872476883
  0
ARC
  5
9D1D
  8
0
 10
500.9902732283193245
 20
61.0615626138963989
 30
0.0
 40
2.8589939086988361
 50
245.7037382872476883
 51
268.9409072117571782
  0
ARC
  5
9D1E
  8
0
 10
500.9369009546742859
 20
60.5762427693459173
 30
0.0
 40
2.6138679967774099
 50
89.9884314654801756
 51
121.5216513299994006
  0
ARC
  5
9D1F
  8
0
 10
500.8874855743969192
 20
60.6568129835205667
 30
0.0
 40
2.519351124103212
 50
121.5216513299990027
 51
151.6650977557189037
  0
ARC
  5
9D20
  8
0
 10
501.5255321597525153
 20
60.3127587727566805
 30
0.0
 40
3.2442488720844218
 50
151.6650977557189037
 51
157.0727671512458983
  0
ARC
  5
9D21
  8
0
 10
500.937153503715308
 20
60.5542517013029169
 30
0.0
 40
2.5516728662738908
 50
89.9938202784520485
 51
104.674667773625103
  0
ARC
  5
9D22
  8
0
 10
500.9298458954713169
 20
60.5821569067750687
 30
0.0
 40
2.5228266944188169
 50
104.674667773625103
 51
128.6634846133019892
  0
ARC
  5
9D23
  8
0
 10
500.8702326992661256
 20
60.6566636011135003
 30
0.0
 40
2.4274066720805458
 50
128.6634846133019892
 51
162.2619502198753025
  0
ARC
  5
9D24
  8
0
 10
500.7986779034935125
 20
60.6795520194679483
 30
0.0
 40
2.3522803218907709
 50
162.2619502198753025
 51
196.8073794535580134
  0
ARC
  5
9D25
  8
0
 10
500.8694669070035843
 20
60.7009344284923174
 30
0.0
 40
2.4262282118785761
 50
196.8073794535580134
 51
234.150685720481107
  0
ARC
  5
9D26
  8
0
 10
500.940461463479096
 20
60.7991924442287086
 30
0.0
 40
2.547450588961309
 50
234.150685720481107
 51
255.3147565511090988
  0
ARC
  5
9D27
  8
0
 10
500.9335688966817202
 20
60.7728919472732088
 30
0.0
 40
2.5202619218891349
 50
255.3147565511090988
 51
270.0877494384772035
  0
ARC
  5
9D28
  8
0
 10
500.9373089637834937
 20
60.5538979917164326
 30
0.0
 40
2.5242482592483131
 50
89.9972817958891937
 51
107.1907203611766022
  0
ARC
  5
9D29
  8
0
 10
500.9284119670206792
 20
60.5826560318132223
 30
0.0
 40
2.494145411848002
 50
107.1907203611766022
 51
119.6560483823073042
  0
ARC
  5
9D2A
  8
0
 10
500.9100958294769157
 20
60.6148249526660905
 30
0.0
 40
2.4571275734000442
 50
119.6560483823073042
 51
138.7795857173667002
  0
ARC
  5
9D2B
  8
0
 10
500.8504108612727919
 20
60.6671127673950394
 30
0.0
 40
2.37777827599513
 50
138.7795857173665013
 51
166.7647360101591119
  0
ARC
  5
9D2C
  8
0
 10
500.8097769549565896
 20
60.6766697527692429
 30
0.0
 40
2.336035608232307
 50
166.7647360101591119
 51
207.1495513963571966
  0
ARC
  5
9D2D
  8
0
 10
500.8923867301880932
 20
60.7190335027904666
 30
0.0
 40
2.4288745132219161
 50
207.1495513963567987
 51
236.5831132150829887
  0
ARC
  5
9D2E
  8
0
 10
500.9332566639351967
 20
60.7809762778905878
 30
0.0
 40
2.5030854212583278
 50
236.5831132150829887
 51
270.0954986231269004
  0
ARC
  5
9D2F
  8
0
 10
500.9358281276197999
 20
60.5303123360284374
 30
0.0
 40
1.3230726903552621
 50
89.9306862673885519
 51
93.539023637186574
  0
ARC
  5
9D30
  8
0
 10
500.9360421429402095
 20
60.5268518967878322
 30
0.0
 40
1.326539741306048
 50
93.539023637186574
 51
107.8260817069323991
  0
ARC
  5
9D31
  8
0
 10
500.9343711566266961
 20
60.5320482815895318
 30
0.0
 40
1.3210812973641239
 50
107.8260817069323991
 51
123.3498452524184046
  0
ARC
  5
9D32
  8
0
 10
500.9035563905940762
 20
60.5788704608068471
 30
0.0
 40
1.2650289444045519
 50
123.3498452524184046
 51
192.61617983041711
  0
ARC
  5
9D33
  8
0
 10
500.8777709710612953
 20
60.5730990907899027
 30
0.0
 40
1.2386055348524949
 50
192.61617983041711
 51
248.4980162151514094
  0
ARC
  5
9D34
  8
0
 10
500.936795495538604
 20
60.6473637986240277
 30
0.0
 40
1.329624731899995
 50
247.3044534858082955
 51
270.0272866364750257
  0
ARC
  5
9D35
  8
0
 10
500.9353609841228945
 20
60.5539614117786513
 30
0.0
 40
1.1946628521468921
 50
89.9008318589174138
 51
122.3604097586358961
  0
ARC
  5
9D36
  8
0
 10
500.924497506684304
 20
60.5711056864185409
 30
0.0
 40
1.1743665151624609
 50
122.3604097586358961
 51
153.3655168928353021
  0
ARC
  5
9D37
  8
0
 10
500.8593714728806958
 20
60.6037674141231477
 30
0.0
 40
1.101509197509067
 50
153.3655168928353021
 51
220.044892766916206
  0
ARC
  5
9D38
  8
0
 10
500.9484228711555147
 20
60.6786093891053682
 30
0.0
 40
1.2178340562191701
 50
220.044892766916206
 51
254.0561965327586904
  0
ARC
  5
9D39
  8
0
 10
500.9701526496644988
 20
60.7546716168746812
 30
0.0
 40
1.2969393390217949
 50
254.0561965327586904
 51
268.5541789764848772
  0
ARC
  5
9D3A
  8
0
 10
500.8740106802845844
 20
61.006389157296887
 30
0.0
 40
1.0034128084548339
 50
174.7862506620699889
 51
220.4770639469747948
  0
ARC
  5
9D3B
  8
0
 10
500.8837669736550993
 20
61.0147150668862821
 30
0.0
 40
1.016238798896913
 50
220.4770639469749085
 51
260.2759552173650945
  0
ARC
  5
9D3C
  8
0
 10
500.9756643394815114
 20
61.5509816379470394
 30
0.0
 40
1.560322396410305
 50
260.2759552173650945
 51
268.5958292688268898
  0
ARC
  5
9D3D
  8
0
 10
513.3473116628007347
 20
59.1236818878909034
 30
0.0
 40
12.6774120152340295
 50
175.9683610796489859
 51
178.3364707435605965
  0
ARC
  5
9D3E
  8
0
 10
504.0442222254998228
 20
59.4619675201657785
 30
0.0
 40
3.6192730295957518
 50
170.1237987240648977
 51
178.1606671728287949
  0
ARC
  5
9D3F
  8
0
 10
502.6543685207656722
 20
59.5964609005530903
 30
0.0
 40
2.4534354567025751
 50
165.7591589827273992
 51
177.2319435862308126
  0
ARC
  5
9D40
  8
0
 10
501.8205754812562986
 20
59.7821620091563304
 30
0.0
 40
1.807982964377429
 50
161.386077198195494
 51
176.4195652574341864
  0
ARC
  5
9D41
  8
0
 10
501.3430663890626988
 20
59.9943445449232087
 30
0.0
 40
1.4738590849646891
 50
157.7401447274951067
 51
175.4334341658558003
  0
ARC
  5
9D42
  8
0
 10
500.9517321891012784
 20
60.2589456675503783
 30
0.0
 40
1.1692810515923771
 50
154.1733417628441032
 51
175.3007964218994914
  0
ARC
  5
9D43
  8
0
 10
500.6758841990251767
 20
60.555201047317837
 30
0.0
 40
0.9179981707226617
 50
151.3018416468158023
 51
178.5839783268627912
  0
LINE
  5
9D44
  8
0
 10
500.9367883805218185
 20
61.8533846779199408
 30
0.0
 11
500.9363130136384825
 21
61.8722672645240266
 31
0.0
  0
ARC
  5
9D45
  8
0
 10
508.8221355740014928
 20
62.9877064065511618
 30
0.0
 40
7.9643205569022486
 50
186.7202891782712868
 51
188.0510014541142141
  0
ARC
  5
9D46
  8
0
 10
492.526394478299494
 20
61.0041127285706608
 30
0.0
 40
8.4518166745068388
 50
7.1473621462931431
 51
9.9967883318813371
  0
ARC
  5
9D47
  8
0
 10
498.8728246380993028
 20
62.1672691312104106
 30
0.0
 40
2.000305122447926
 50
8.7420711575547116
 51
20.9986177123627407
  0
ARC
  5
9D48
  8
0
 10
500.6003840001164917
 20
62.8303250950015908
 30
0.0
 40
0.149871514408099
 50
21.0143662408751304
 51
51.4309735989330719
  0
ARC
  5
9D49
  8
0
 10
500.6748487804582055
 20
62.9205090533146887
 30
0.0
 40
0.0329952783045701
 50
54.8974329415317897
 51
61.9175641638369072
  0
ARC
  5
9D4A
  8
0
 10
500.7836287447190102
 20
61.8518187932896524
 30
0.0
 40
0.1384334331965068
 50
182.2232951126999012
 51
192.5035286713599021
  0
ARC
  5
9D4B
  8
0
 10
443.2575038515608981
 20
57.1790095255479685
 30
0.0
 40
57.5772878603293279
 50
4.649720715625242
 51
4.8233283433855503
  0
ARC
  5
9D4C
  8
0
 10
510.0302644049817786
 20
62.809260845048648
 30
0.0
 40
9.4324232899096607
 50
182.2169104453352872
 51
184.7979449192471009
  0
ARC
  5
9D4D
  8
0
 10
503.3233559899064176
 20
62.5703841429602221
 30
0.0
 40
2.7213733639483331
 50
175.4809233632842904
 51
182.6536510091792138
  0
ARC
  5
9D4E
  8
0
 10
500.9849504633440915
 20
62.7741432755203874
 30
0.0
 40
0.3746592115969263
 50
156.1677912459568063
 51
178.3694729541927018
  0
ARC
  5
9D4F
  8
0
 10
500.689697474573677
 20
62.9045636718606787
 30
0.0
 40
0.0518840465680838
 50
124.1103893701478995
 51
156.1677912459587958
  0
ARC
  5
9D50
  8
0
 10
500.6773026060669167
 20
62.9228636674663093
 30
0.0
 40
0.0297814991024901
 50
63.9506096378259272
 51
124.1103893701478
  0
ARC
  5
9D51
  8
0
 10
500.7728017882691915
 20
62.0906200976975029
 30
0.0
 40
0.0534671569205122
 50
179.6885969461220895
 51
223.4478921051259022
  0
ARC
  5
9D52
  8
0
 10
500.7669926292597893
 20
62.0851174438128268
 30
0.0
 40
0.0454655615689016
 50
223.4478921051245095
 51
330.7491790430233891
  0
ARC
  5
9D53
  8
0
 10
500.7578554432607234
 20
62.0902346858236385
 30
0.0
 40
0.0559381130145598
 50
330.7491790430242986
 51
3.489653651248569
  0
ARC
  5
9D54
  8
0
 10
500.7609353477025138
 20
62.0904225026122205
 30
0.0
 40
0.0528524872243534
 50
3.4896536512465381
 51
65.8201703392574871
  0
ARC
  5
9D55
  8
0
 10
500.7653880644429023
 20
62.1003395824848425
 30
0.0
 40
0.041981647350174
 50
65.8201703392574871
 51
141.6146363588790109
  0
ARC
  5
9D56
  8
0
 10
500.7803228572599892
 20
62.0885086220983382
 30
0.0
 40
0.0610347221717312
 50
141.6146363588790109
 51
177.7444978400521052
  0
ARC
  5
9D57
  8
0
 10
500.7665679440858071
 20
62.0989571879655529
 30
0.0
 40
0.0479130185980869
 50
189.6680495221831109
 51
242.7356635940438139
  0
ARC
  5
9D58
  8
0
 10
500.7664101530975813
 20
62.0998460290714434
 30
0.0
 40
0.0486339093795779
 50
243.3806131073388883
 51
319.1816686265815974
  0
ARC
  5
9D59
  8
0
 10
500.770340540347604
 20
62.0964512147686776
 30
0.0
 40
0.0434403837865608
 50
319.1816686265865997
 51
356.2889464920315277
  0
ARC
  5
9D5A
  8
0
 10
500.7663467291242796
 20
62.0966727592935328
 30
0.0
 40
0.0233994476309815
 50
95.9180226732875667
 51
178.0479019125145896
  0
ARC
  5
9D5B
  8
0
 10
500.7655259086556043
 20
62.0967007359152134
 30
0.0
 40
0.0225781505268381
 50
178.0479019125133959
 51
269.85122309400532
  0
ARC
  5
9D5C
  8
0
 10
500.7655340570883027
 20
62.0998387884973084
 30
0.0
 40
0.0257162136882436
 50
269.8512230940020231
 51
329.5960051758955842
  0
ARC
  5
9D5D
  8
0
 10
500.7675319287000093
 20
62.0971152162312166
 30
0.0
 40
0.0226542509034798
 50
332.9817413851703236
 51
58.6204295692675004
  0
ARC
  5
9D5E
  8
0
 10
500.7665872333180914
 20
62.0959634208037414
 30
0.0
 40
0.024130374519042
 50
58.1294516709004796
 51
96.3123840891179981
  0
ARC
  5
9D5F
  8
0
 10
500.7559089487938877
 20
62.2500822081384086
 30
0.0
 40
0.0534671569205122
 50
179.6885969461220895
 51
223.4478921051259022
  0
ARC
  5
9D60
  8
0
 10
500.7500997897843718
 20
62.2445795542537184
 30
0.0
 40
0.0454655615689016
 50
223.4478921051245095
 51
330.7491790430233891
  0
ARC
  5
9D61
  8
0
 10
500.7409626037851922
 20
62.2496967962645513
 30
0.0
 40
0.0559381130145598
 50
330.7491790430242986
 51
3.489653651248569
  0
ARC
  5
9D62
  8
0
 10
500.7440425082270963
 20
62.2498846130531334
 30
0.0
 40
0.0528524872243534
 50
3.4896536512465381
 51
65.8201703392574871
  0
ARC
  5
9D63
  8
0
 10
500.7484952249674848
 20
62.2598016929257412
 30
0.0
 40
0.041981647350174
 50
65.8201703392574871
 51
141.6146363588790109
  0
ARC
  5
9D64
  8
0
 10
500.7634300177845148
 20
62.2479707325392368
 30
0.0
 40
0.0610347221717312
 50
141.6146363588790109
 51
177.7444978400521052
  0
ARC
  5
9D65
  8
0
 10
500.7496751046103896
 20
62.2584192984064586
 30
0.0
 40
0.0479130185980869
 50
189.6680495221831109
 51
242.7356635940438139
  0
ARC
  5
9D66
  8
0
 10
500.7495173136221069
 20
62.2593081395123491
 30
0.0
 40
0.0486339093795779
 50
243.3806131073388883
 51
319.1816686265815974
  0
ARC
  5
9D67
  8
0
 10
500.7534477008721865
 20
62.2559133252095904
 30
0.0
 40
0.0434403837865608
 50
319.1816686265865997
 51
356.2889464920315277
  0
ARC
  5
9D68
  8
0
 10
500.7494538896489189
 20
62.2561348697344314
 30
0.0
 40
0.0233994476309815
 50
95.9180226732875667
 51
178.0479019125145896
  0
ARC
  5
9D69
  8
0
 10
500.7486330691801868
 20
62.2561628463561334
 30
0.0
 40
0.0225781505268381
 50
178.0479019125133959
 51
269.85122309400532
  0
ARC
  5
9D6A
  8
0
 10
500.7486412176128283
 20
62.2593008989382213
 30
0.0
 40
0.0257162136882436
 50
269.8512230940020231
 51
329.5960051758955842
  0
ARC
  5
9D6B
  8
0
 10
500.7506390892244781
 20
62.2565773266721223
 30
0.0
 40
0.0226542509034798
 50
332.9817413851703236
 51
58.6204295692675004
  0
ARC
  5
9D6C
  8
0
 10
500.7496943938426739
 20
62.2554255312446472
 30
0.0
 40
0.024130374519042
 50
58.1294516709004796
 51
96.3123840891179981
  0
ARC
  5
9D6D
  8
0
 10
500.7245992802269825
 20
62.5576605828109678
 30
0.0
 40
0.0534671569205122
 50
179.6885969461220895
 51
223.4478921051259022
  0
ARC
  5
9D6E
  8
0
 10
500.7187901212175802
 20
62.5521579289262988
 30
0.0
 40
0.0454655615689016
 50
223.4478921051245095
 51
330.7491790430233891
  0
ARC
  5
9D6F
  8
0
 10
500.7096529352184007
 20
62.5572751709371104
 30
0.0
 40
0.0559381130145598
 50
330.7491790430242986
 51
3.489653651248569
  0
ARC
  5
9D70
  8
0
 10
500.7127328396603048
 20
62.5574629877256925
 30
0.0
 40
0.0528524872243534
 50
3.4896536512465381
 51
65.8201703392574871
  0
ARC
  5
9D71
  8
0
 10
500.7171855564006933
 20
62.5673800675983216
 30
0.0
 40
0.041981647350174
 50
65.8201703392574871
 51
141.6146363588790109
  0
ARC
  5
9D72
  8
0
 10
500.7321203492177801
 20
62.5555491072118102
 30
0.0
 40
0.0610347221717312
 50
141.6146363588790109
 51
177.7444978400521052
  0
ARC
  5
9D73
  8
0
 10
500.718365436043598
 20
62.5659976730790319
 30
0.0
 40
0.0479130185980869
 50
189.6680495221831109
 51
242.7356635940438139
  0
ARC
  5
9D74
  8
0
 10
500.7182076450553723
 20
62.5668865141849082
 30
0.0
 40
0.0486339093795779
 50
243.3806131073388883
 51
319.1816686265815974
  0
ARC
  5
9D75
  8
0
 10
500.722138032305395
 20
62.5634916998821495
 30
0.0
 40
0.0434403837865608
 50
319.1816686265865997
 51
356.2889464920315277
  0
ARC
  5
9D76
  8
0
 10
500.7181442210821274
 20
62.5637132444069977
 30
0.0
 40
0.0233994476309815
 50
95.9180226732875667
 51
178.0479019125145896
  0
ARC
  5
9D77
  8
0
 10
500.7173234006133953
 20
62.5637412210286925
 30
0.0
 40
0.0225781505268381
 50
178.0479019125133959
 51
269.85122309400532
  0
ARC
  5
9D78
  8
0
 10
500.7173315490460936
 20
62.5668792736107804
 30
0.0
 40
0.0257162136882436
 50
269.8512230940020231
 51
329.5960051758955842
  0
ARC
  5
9D79
  8
0
 10
500.7193294206578003
 20
62.5641557013446885
 30
0.0
 40
0.0226542509034798
 50
332.9817413851703236
 51
58.6204295692675004
  0
ARC
  5
9D7A
  8
0
 10
500.7183847252758824
 20
62.5630039059172134
 30
0.0
 40
0.024130374519042
 50
58.1294516709004796
 51
96.3123840891179981
  0
ARC
  5
9D7B
  8
0
 10
500.7005540126813798
 20
62.7624749712127326
 30
0.0
 40
0.0534671569205122
 50
179.6885969461220895
 51
223.4478921051259022
  0
ARC
  5
9D7C
  8
0
 10
500.6947448536719776
 20
62.7569723173280565
 30
0.0
 40
0.0454655615689016
 50
223.4478921051245095
 51
330.7491790430233891
  0
ARC
  5
9D7D
  8
0
 10
500.685607667672798
 20
62.7620895593388681
 30
0.0
 40
0.0559381130145598
 50
330.7491790430242986
 51
3.489653651248569
  0
ARC
  5
9D7E
  8
0
 10
500.6886875721145884
 20
62.7622773761274502
 30
0.0
 40
0.0528524872243534
 50
3.4896536512465381
 51
65.8201703392574871
  0
ARC
  5
9D7F
  8
0
 10
500.6931402888549769
 20
62.7721944560000722
 30
0.0
 40
0.041981647350174
 50
65.8201703392574871
 51
141.6146363588790109
  0
ARC
  5
9D80
  8
0
 10
500.7080750816721206
 20
62.7603634956135679
 30
0.0
 40
0.0610347221717312
 50
141.6146363588790109
 51
177.7444978400521052
  0
ARC
  5
9D81
  8
0
 10
500.6943201684978817
 20
62.7708120614807825
 30
0.0
 40
0.0479130185980869
 50
189.6680495221831109
 51
242.7356635940438139
  0
ARC
  5
9D82
  8
0
 10
500.6941623775097128
 20
62.771700902586673
 30
0.0
 40
0.0486339093795779
 50
243.3806131073388883
 51
319.1816686265815974
  0
ARC
  5
9D83
  8
0
 10
500.6980927647597923
 20
62.7683060882839072
 30
0.0
 40
0.0434403837865608
 50
319.1816686265865997
 51
356.2889464920315277
  0
ARC
  5
9D84
  8
0
 10
500.694098953536411
 20
62.7685276328087625
 30
0.0
 40
0.0233994476309815
 50
95.9180226732875667
 51
178.0479019125145896
  0
ARC
  5
9D85
  8
0
 10
500.6932781330677926
 20
62.7685556094304431
 30
0.0
 40
0.0225781505268381
 50
178.0479019125133959
 51
269.85122309400532
  0
ARC
  5
9D86
  8
0
 10
500.693286281500491
 20
62.7716936620125381
 30
0.0
 40
0.0257162136882436
 50
269.8512230940020231
 51
329.5960051758955842
  0
ARC
  5
9D87
  8
0
 10
500.6952841531120839
 20
62.7689700897464533
 30
0.0
 40
0.0226542509034798
 50
332.9817413851703236
 51
58.6204295692675004
  0
ARC
  5
9D88
  8
0
 10
500.6943394577302797
 20
62.7678182943189711
 30
0.0
 40
0.024130374519042
 50
58.1294516709004796
 51
96.3123840891179981
  0
ARC
  5
9D89
  8
0
 10
500.5201326268673938
 20
58.7675693332359899
 30
0.0
 40
0.2523838398855872
 50
106.8352682184964948
 51
144.9691802901174924
  0
ARC
  5
9D8A
  8
0
 10
500.5389473386853751
 20
58.7053903523226879
 30
0.0
 40
0.3173470529234497
 50
81.5659708146456381
 51
106.8352682184962958
  0
ARC
  5
9D8B
  8
0
 10
500.5429537010738841
 20
58.7324103307403007
 30
0.0
 40
0.2900316694687754
 50
50.9879814652923997
 51
81.5659708146456381
  0
ARC
  5
9D8C
  8
0
 10
500.5740218736830798
 20
58.7707598778978095
 30
0.0
 40
0.240676638150073
 50
10.0584464009435308
 51
50.9879814652923997
  0
ARC
  5
9D8D
  8
0
 10
500.5995848935608024
 20
58.7752942199828325
 30
0.0
 40
0.2147145842365463
 50
314.0105343348300266
 51
10.0584464009443302
  0
ARC
  5
9D8E
  8
0
 10
500.5390558779510002
 20
58.8379507924446727
 30
0.0
 40
0.3018329393825974
 50
271.8244223364175127
 51
314.0105343348300266
  0
ARC
  5
9D8F
  8
0
 10
500.540005609689274
 20
58.8081346545732373
 30
0.0
 40
0.2720016794704924
 50
216.8350225665319044
 51
271.8244223364175127
  0
ARC
  5
9D90
  8
0
 10
500.5092222266782187
 20
58.7850765152208723
 30
0.0
 40
0.2335400822599707
 50
146.9501439951895918
 51
216.835048898540208
  0
ARC
  5
9D91
  8
0
 10
490.6353129467037775
 20
66.8228828360027478
 30
0.0
 40
12.2172731563272201
 50
321.2970968902316145
 51
322.8372988424503092
  0
ARC
  5
9D92
  8
0
 10
492.8495655108442861
 20
65.0487478120385845
 30
0.0
 40
9.3799382270212934
 50
320.0826984895085161
 51
321.2970968902316145
  0
ARC
  5
9D93
  8
0
 10
497.4973559607457219
 20
61.1602065110316389
 30
0.0
 40
3.3200116997578362
 50
316.6521538297878919
 51
320.0826984895085161
  0
ARC
  5
9D94
  8
0
 10
498.9526331937444183
 20
59.7865263636000819
 30
0.0
 40
1.3188048208140859
 50
309.7910979730709755
 51
316.6521538297878919
  0
ARC
  5
9D95
  8
0
 10
499.5890271177977979
 20
59.0224612926527215
 30
0.0
 40
0.324424280369928
 50
299.8028219029030765
 51
309.7910979730709755
  0
ARC
  5
9D96
  8
0
 10
499.6764671408050731
 20
58.8697998408391285
 30
0.0
 40
0.1484945316253242
 50
284.5560499647518213
 51
299.8028219029001775
  0
ARC
  5
9D97
  8
0
 10
499.7039741938805264
 20
58.7638655784533697
 30
0.0
 40
0.0390472570310663
 50
235.2846501227357976
 51
284.5560499647518782
  0
ARC
  5
9D98
  8
0
 10
499.7083175512187267
 20
58.7619131890806798
 30
0.0
 40
0.0401896137753853
 50
183.8265456573261076
 51
228.5945025615799011
  0
ARC
  5
9D99
  8
0
 10
499.8365425053344211
 20
58.7716845953081801
 30
0.0
 40
0.1687850285261321
 50
164.5857721579031079
 51
184.2313138574955929
  0
ARC
  5
9D9A
  8
0
 10
500.5300379121388232
 20
58.5736720741639516
 30
0.0
 40
0.8899900421199646
 50
153.4959335606868081
 51
164.163324491010286
  0
ARC
  5
9D9B
  8
0
 10
501.9081108243859717
 20
57.9114898671060772
 30
0.0
 40
2.4188411586959631
 50
148.990323161013805
 51
154.0263470200295046
  0
ARC
  5
9D9C
  8
0
 10
504.136093952476017
 20
56.5797839974394918
 30
0.0
 40
5.0144777545843553
 50
145.3203699179640864
 51
149.06390478337849
  0
ARC
  5
9D9D
  8
0
 10
507.9078368728970077
 20
53.9855033734199026
 30
0.0
 40
9.5922777298970132
 50
144.2441048428167107
 51
145.3960860498455929
  0
ARC
  5
9D9E
  8
0
 10
504.1097750313077768
 20
54.8013502401115531
 30
0.0
 40
6.5185739690275977
 50
130.0377912497822024
 51
134.7110512616883966
  0
ARC
  5
9D9F
  8
0
 10
500.9671345782552976
 20
57.9758489711583991
 30
0.0
 40
2.0516252105818169
 50
134.7110512616883966
 51
141.8857696343926023
  0
ARC
  5
9DA0
  8
0
 10
500.054682609360384
 20
58.691668728843382
 30
0.0
 40
0.8918982940051526
 50
141.8857696343926023
 51
149.0452113511421999
  0
ARC
  5
9DA1
  8
0
 10
499.4927216705082742
 20
59.0287256810311618
 30
0.0
 40
0.2366063851479825
 50
149.0452113511425978
 51
163.0515320645307895
  0
ARC
  5
9DA2
  8
0
 10
499.3403100558402912
 20
59.0751727363592991
 30
0.0
 40
0.0772745639873662
 50
163.0515320645297948
 51
183.6432694398407932
  0
ARC
  5
9DA3
  8
0
 10
499.2946209200270005
 20
59.0722635771836977
 30
0.0
 40
0.0314929045758125
 50
183.6432694398419869
 51
265.288356851046899
  0
ARC
  5
9DA4
  8
0
 10
499.3019487645498202
 20
59.1611726304914498
 30
0.0
 40
0.1207034256225695
 50
265.288356851046899
 51
291.02435366589458
  0
ARC
  5
9DA5
  8
0
 10
499.0541414656372012
 20
59.8059134642276078
 30
0.0
 40
0.8114271041519028
 50
291.02435366589458
 51
297.0572150288184048
  0
ARC
  5
9DA6
  8
0
 10
498.8751056000331232
 20
60.1564254022148006
 30
0.0
 40
1.2050163060415999
 50
297.0572150288184048
 51
306.9711938646988187
  0
ARC
  5
9DA7
  8
0
 10
501.1022746393389866
 20
57.1977785532775584
 30
0.0
 40
2.498208384193795
 50
124.1998809571644955
 51
126.9711938646988045
  0
ARC
  5
9DA8
  8
0
 10
493.1803353187495986
 20
68.08629249041104
 30
0.0
 40
10.9687642385068607
 50
306.4562885530789913
 51
308.0896534384006031
  0
ARC
  5
9DA9
  8
0
 10
461.2695276163846074
 20
108.8277543304088937
 30
0.0
 40
62.7197671781042985
 50
308.0733323710272771
 51
308.2773801049476106
  0
ARC
  5
9DAA
  8
0
 10
477.3684279465148848
 20
108.7050255130390042
 30
0.0
 40
53.8587436572746867
 50
294.3595929616885769
 51
294.7485622147087838
  0
ARC
  5
9DAB
  8
0
 10
496.6596370362610742
 20
66.0979457183887433
 30
0.0
 40
7.0878766910530553
 50
291.6776025154450735
 51
294.3595929616885769
  0
ARC
  5
9DAC
  8
0
 10
498.6140044446628963
 20
61.1812435677820829
 30
0.0
 40
1.796987162362881
 50
285.7333123568697033
 51
291.6776025154450735
  0
ARC
  5
9DAD
  8
0
 10
498.954642644431317
 20
59.9720836938554029
 30
0.0
 40
0.5407618705239431
 50
275.2094785863200741
 51
285.7333123568697033
  0
ARC
  5
9DAE
  8
0
 10
498.9946905502806089
 20
59.5328363796073816
 30
0.0
 40
0.0996926720561577
 50
246.0078758399988033
 51
275.2094785863200741
  0
ARC
  5
9DAF
  8
0
 10
498.9649739215868749
 20
59.4660670396551865
 30
0.0
 40
0.0266090023441666
 50
164.4245937659192975
 51
246.007875840005795
  0
ARC
  5
9DB0
  8
0
 10
499.0723194916741932
 20
59.4361452812296918
 30
0.0
 40
0.1380468013381915
 50
139.7171634763627139
 51
164.4245937659192975
  0
ARC
  5
9DB1
  8
0
 10
499.4274168679496029
 20
59.1351836366602797
 30
0.0
 40
0.603527260798759
 50
128.0806294626891884
 51
139.7171634763627139
  0
ARC
  5
9DB2
  8
0
 10
500.709020908757509
 20
57.4995548988937628
 30
0.0
 40
2.6814565871289129
 50
122.1170959572946941
 51
128.0806294626891884
  0
ARC
  5
9DB3
  8
0
 10
501.7811386851473117
 20
55.7915850306348915
 30
0.0
 40
4.698037256809938
 50
115.4446254678268957
 51
122.1170959572946941
  0
ARC
  5
9DB4
  8
0
 10
495.0115082302997962
 20
82.3941660535438132
 30
0.0
 40
22.8582188542236793
 50
280.5773989940507818
 51
281.9952107061134825
  0
ARC
  5
9DB5
  8
0
 10
498.5456040311468087
 20
63.46860699824677
 30
0.0
 40
3.6055146627315029
 50
277.1665083022464273
 51
280.5773989940507818
  0
ARC
  5
9DB6
  8
0
 10
498.8160108236265273
 20
61.3180076980215176
 30
0.0
 40
1.437982152352812
 50
269.5688426516090885
 51
277.1665083022464273
  0
ARC
  5
9DB7
  8
0
 10
498.8066662107651723
 20
60.0762411506633711
 30
0.0
 40
0.1961804451840306
 50
252.3396219019051046
 51
269.5688426516090885
  0
ARC
  5
9DB8
  8
0
 10
498.767203621474323
 20
59.9522926482529428
 30
0.0
 40
0.0661015183614055
 50
222.6083345299242922
 51
252.3396219019053035
  0
ARC
  5
9DB9
  8
0
 10
498.7366976341214126
 20
59.9242327639965993
 30
0.0
 40
0.0246530881275352
 50
145.6365499543537112
 51
222.6083345299257132
  0
ARC
  5
9DBA
  8
0
 10
498.891005828822415
 20
59.8187202607182016
 30
0.0
 40
0.2115859833064389
 50
123.2523516912115014
 51
145.6365499543537112
  0
ARC
  5
9DBB
  8
0
 10
499.2246980196272261
 20
59.30980064231413
 30
0.0
 40
0.8201495840915743
 50
112.6256294428795002
 51
123.2523516912115014
  0
ARC
  5
9DBC
  8
0
 10
500.7506455486675918
 20
55.6485641489734206
 30
0.0
 40
4.7866554168812296
 50
109.8409084717334991
 51
112.6256294428795002
  0
ARC
  5
9DBD
  8
0
 10
500.4156996991703181
 20
56.5768319696594304
 30
0.0
 40
3.7998069639683099
 50
101.3317849510227973
 51
109.8409084717334991
  0
ARC
  5
9DBE
  8
0
 10
499.8380663724058763
 20
80.7064597622339761
 30
0.0
 40
20.4028579698877905
 50
267.8904757045855263
 51
269.5242848275781853
  0
ARC
  5
9DBF
  8
0
 10
499.2189784474522867
 20
63.8993075795701699
 30
0.0
 40
3.584307665237751
 50
263.0544904236713819
 51
267.8904757045855263
  0
ARC
  5
9DC0
  8
0
 10
498.8723325245526894
 20
61.0537327963255905
 30
0.0
 40
0.7176965575183488
 50
252.0128064898200932
 51
263.0544904236713819
  0
ARC
  5
9DC1
  8
0
 10
498.6870978457537262
 20
60.4832052005879106
 30
0.0
 40
0.1178518911854862
 50
226.5652490953195013
 51
252.012806489820008
  0
ARC
  5
9DC2
  8
0
 10
498.6259026486001744
 20
60.4185716642780406
 30
0.0
 40
0.0288443287507487
 50
141.695017899064112
 51
226.5652490953231109
  0
ARC
  5
9DC3
  8
0
 10
498.6807096964712969
 20
60.3752799273736471
 30
0.0
 40
0.0986869159059775
 50
115.7917002355821978
 51
141.695017899064112
  0
ARC
  5
9DC4
  8
0
 10
498.876829877213595
 20
59.9694358257316225
 30
0.0
 40
0.5494335854799667
 50
108.3098136983655024
 51
115.7917002355821978
  0
ARC
  5
9DC5
  8
0
 10
499.0181319361898886
 20
59.542423225256492
 30
0.0
 40
0.9992180147741072
 50
97.3854877082754484
 51
108.3098136983655024
  0
ARC
  5
9DC6
  8
0
 10
499.3296037771223723
 20
57.8771463743233809
 30
0.0
 40
2.6923876801781268
 50
95.7587888041696118
 51
99.4038595364094277
  0
ARC
  5
9DC7
  8
0
 10
499.6433595517312938
 20
54.6958161427871303
 30
0.0
 40
5.8891488599350641
 50
90.0468690261198077
 51
95.69025203102224
  0
ARC
  5
9DC8
  8
0
 10
500.7822840708197987
 20
65.8923172901990029
 30
0.0
 40
5.4281204765467184
 50
256.1838699443645169
 51
257.8362858657253014
  0
ARC
  5
9DC9
  8
0
 10
534.3449279659738522
 20
202.3690543404337916
 30
0.0
 40
145.9711772994002956
 50
256.0113829069912867
 51
256.1838699443645169
  0
ARC
  5
9DCA
  8
0
 10
499.7691334142988921
 20
63.5756544724773889
 30
0.0
 40
2.935889989638623
 50
249.3731256731385031
 51
256.0113829069912867
  0
ARC
  5
9DCB
  8
0
 10
498.9272896179384134
 20
61.3391510894006871
 30
0.0
 40
0.5461936993154834
 50
237.3495171666828867
 51
249.3731256731383041
  0
ARC
  5
9DCC
  8
0
 10
498.6883456076815264
 20
60.9662490417830796
 30
0.0
 40
0.1033052515601991
 50
213.9953367718503898
 51
237.3495171666828867
  0
ARC
  5
9DCD
  8
0
 10
498.6280224140089103
 20
60.9255676768127969
 30
0.0
 40
0.0305463266732366
 50
124.894313748408095
 51
213.9953367718489119
  0
ARC
  5
9DCE
  8
0
 10
498.6793917166398273
 20
60.8519159323834415
 30
0.0
 40
0.1203426779926347
 50
100.5609718924306009
 51
124.8943137484086066
  0
ARC
  5
9DCF
  8
0
 10
498.8036632880869092
 20
60.1853659076924714
 30
0.0
 40
0.7983783399496182
 50
94.519335275119019
 51
100.5609718924306009
  0
ARC
  5
9DD0
  8
0
 10
498.8168119808225924
 20
60.019013663041882
 30
0.0
 40
0.9652494201910807
 50
85.6980927142591185
 51
94.519335275119019
  0
ARC
  5
9DD1
  8
0
 10
498.3798166973339221
 20
54.2097489426693002
 30
0.0
 40
6.7909271892714331
 50
82.940707277314786
 51
85.6980927142591185
  0
ARC
  5
9DD2
  8
0
 10
498.7197887770183229
 20
56.9551090529054989
 30
0.0
 40
4.0245969215989073
 50
76.3223059411912601
 51
82.940707277314786
  0
ARC
  5
9DD3
  8
0
 10
503.9308376856288874
 20
70.3941030394940839
 30
0.0
 40
10.4343826637636692
 50
242.5819315833392977
 51
245.9117083396604073
  0
ARC
  5
9DD4
  8
0
 10
501.2049929338372181
 20
65.1394718337317613
 30
0.0
 40
4.5148067735970647
 50
238.2388946225813129
 51
242.5819315833392977
  0
ARC
  5
9DD5
  8
0
 10
499.0718335634983873
 20
61.6938174061443405
 30
0.0
 40
0.4622886263684278
 50
223.3872622163063113
 51
238.2388946225813129
  0
ARC
  5
9DD6
  8
0
 10
498.8095580791608086
 20
61.4459062373835323
 30
0.0
 40
0.1013892258690553
 50
201.63241576899199
 51
223.3872622163036112
  0
ARC
  5
9DD7
  8
0
 10
498.7435893196105212
 20
61.4197441748289208
 30
0.0
 40
0.0304221155028374
 50
112.4836776531213047
 51
201.6324157689905121
  0
ARC
  5
9DD8
  8
0
 10
498.7760720473722245
 20
61.3412607016478901
 30
0.0
 40
0.115361995214288
 50
93.6946945015448591
 51
112.4836776531211058
  0
ARC
  5
9DD9
  8
0
 10
498.7921029905563159
 20
61.0930042073513206
 30
0.0
 40
0.3641355430440342
 50
79.6287611752814968
 51
93.6946945015448591
  0
ARC
  5
9DDA
  8
0
 10
498.4323323584754917
 20
59.1272110364379202
 30
0.0
 40
2.3625793622487681
 50
74.2890611352629122
 51
79.6287611752814968
  0
ARC
  5
9DDB
  8
0
 10
498.4949061232035774
 20
59.3496612558185888
 30
0.0
 40
2.1314958792068799
 50
70.4700837827340933
 51
74.2890611352629122
  0
ARC
  5
9DDC
  8
0
 10
496.7679096122600981
 20
54.4808541838656879
 30
0.0
 40
7.2975194227759523
 50
65.7364358109742994
 51
70.4700837827340933
  0
ARC
  5
9DDD
  8
0
 10
506.5481932095422053
 20
70.3551389563621967
 30
0.0
 40
11.4443742178478498
 50
230.5956849992033142
 51
233.6670307064970871
  0
ARC
  5
9DDE
  8
0
 10
501.5264677470225934
 20
64.2425289487717635
 30
0.0
 40
3.53351284086669
 50
224.220436364330908
 51
230.5956849992033142
  0
ARC
  5
9DDF
  8
0
 10
499.1663515866782177
 20
61.9457778122695188
 30
0.0
 40
0.2403055784333573
 50
200.3242200003311098
 51
224.220436364330709
  0
ARC
  5
9DE0
  8
0
 10
498.9728999087956822
 20
61.8741248837994888
 30
0.0
 40
0.0340104165079072
 50
87.9202542403681946
 51
200.324220000330314
  0
ARC
  5
9DE1
  8
0
 10
498.9626554527985718
 20
61.5920200750708418
 30
0.0
 40
0.3163011743915073
 50
68.6784529711196967
 51
87.9202542403681946
  0
ARC
  5
9DE2
  8
0
 10
498.4303732827348767
 20
60.2283024686327195
 30
0.0
 40
1.780217161966275
 50
61.1490640745370229
 51
68.6784529711196967
  0
ARC
  5
9DE3
  8
0
 10
497.2889944595050906
 20
58.156507050868008
 30
0.0
 40
4.1456097025794669
 50
56.5643074173035032
 51
61.1490640745370229
  0
ARC
  5
9DE4
  8
0
 10
494.5191822027811099
 20
53.9615549512776767
 30
0.0
 40
9.17248577578391
 50
53.9236852892668495
 51
56.5643074173035032
  0
ARC
  5
9DE5
  8
0
 10
511.5298357049675246
 20
71.5374741130438565
 30
0.0
 40
15.4276507035387294
 50
220.0808287325494064
 51
221.1970120029943985
  0
ARC
  5
9DE6
  8
0
 10
508.5503047564807844
 20
69.0812349430723884
 30
0.0
 40
11.5664747073562797
 50
218.7022966973113967
 51
220.2743388501752975
  0
ARC
  5
9DE7
  8
0
 10
501.3668708967991279
 20
63.3843915929360975
 30
0.0
 40
2.3988334830193412
 50
210.1617537712554906
 51
219.7955008319283934
  0
ARC
  5
9DE8
  8
0
 10
499.6098895601854792
 20
62.3412377371001298
 30
0.0
 40
0.3561185699347678
 50
193.4672939288336124
 51
207.0810289368741053
  0
ARC
  5
9DE9
  8
0
 10
499.2993343968424256
 20
62.266867504638121
 30
0.0
 40
0.0367826324715914
 50
73.9055370296674283
 51
193.4672939288327882
  0
ARC
  5
9DEA
  8
0
 10
499.2140072788351972
 20
61.9711375088198295
 30
0.0
 40
0.3445763092976673
 50
61.9300946853054484
 51
73.9055370296674283
  0
ARC
  5
9DEB
  8
0
 10
499.0056552437753226
 20
61.5804350473457376
 30
0.0
 40
0.7873617922524546
 50
47.1054690611143627
 51
61.9300946853054484
  0
ARC
  5
9DEC
  8
0
 10
497.5344352902990863
 20
59.729317275404668
 30
0.0
 40
3.1501623678397919
 50
46.619295832924962
 51
50.4200749481593533
  0
ARC
  5
9DED
  8
0
 10
496.8892468832573854
 20
58.8769772761522816
 30
0.0
 40
4.2144016530806363
 50
39.8306952392655802
 51
48.2032982958174472
  0
ARC
  5
9DEE
  8
0
 10
515.5024524379036848
 20
70.1108792943754793
 30
0.0
 40
17.5852139212855185
 50
207.0077456652205967
 51
209.0305272515344939
  0
ARC
  5
9DEF
  8
0
 10
502.4273328031902111
 20
63.4465464457928121
 30
0.0
 40
2.9096530877511171
 50
200.0384875777382092
 51
207.0077456652205967
  0
ARC
  5
9DF0
  8
0
 10
500.1440852172132736
 20
62.6137749439896396
 30
0.0
 40
0.4792770030504514
 50
186.4282161001783038
 51
200.0384875777382092
  0
ARC
  5
9DF1
  8
0
 10
499.7579575522904065
 20
62.5702712298333807
 30
0.0
 40
0.0907063572675331
 50
160.6478158344177984
 51
186.4282161001783038
  0
ARC
  5
9DF2
  8
0
 10
499.6999344567831827
 20
62.5906499753639096
 30
0.0
 40
0.0292086103036568
 50
74.0266964419490563
 51
160.647815834416491
  0
ARC
  5
9DF3
  8
0
 10
499.6671752233373809
 20
62.4762037205918119
 30
0.0
 40
0.1482510926674022
 50
51.3295929666357509
 51
74.0266964419490563
  0
ARC
  5
9DF4
  8
0
 10
499.3083550749237816
 20
62.0278485838490923
 30
0.0
 40
0.7225108140053408
 50
38.8585858429777318
 51
51.3295929666358788
  0
ARC
  5
9DF5
  8
0
 10
496.1544627227094111
 20
59.4867400153807111
 30
0.0
 40
4.7727292928160958
 50
35.4229639702246715
 51
38.8585858429777318
  0
ARC
  5
9DF6
  8
0
 10
495.7961349950858789
 20
59.2318735434672305
 30
0.0
 40
5.2124515675411853
 50
28.6069190715681714
 51
35.4229639702246715
  0
ARC
  5
9DF7
  8
0
 10
512.0252961306229054
 20
65.3990208608442458
 30
0.0
 40
12.2163492977761905
 50
194.5640408262237031
 51
197.4868628313060128
  0
ARC
  5
9DF8
  8
0
 10
502.7513428751308879
 20
63.0112097492083407
 30
0.0
 40
2.6400338542874429
 50
187.1522317005550917
 51
195.0189885510685883
  0
ARC
  5
9DF9
  8
0
 10
500.4876443234358021
 20
62.7330244306987126
 30
0.0
 40
0.3593609162103453
 50
167.3225286699303922
 51
188.0807512747198018
  0
ARC
  5
9DFA
  8
0
 10
500.1714019813990717
 20
62.8033087646754424
 30
0.0
 40
0.0354132775460048
 50
54.5453591063492311
 51
165.9754829169067989
  0
ARC
  5
9DFB
  8
0
 10
500.0703940142809074
 20
62.6614634223263565
 30
0.0
 40
0.2095474515828264
 50
38.1640904682019269
 51
54.5453591063492311
  0
ARC
  5
9DFC
  8
0
 10
499.6615840985585919
 20
62.3401764154585365
 30
0.0
 40
0.7295002263374438
 50
25.7290235732341017
 51
38.1640904682025734
  0
ARC
  5
9DFD
  8
0
 10
493.0825177624719231
 20
59.1697800323352325
 30
0.0
 40
8.032617853813349
 50
23.7619276679147404
 51
25.7290235732333699
  0
ARC
  5
9DFE
  8
0
 10
496.0870969399849741
 20
60.4925731638528603
 30
0.0
 40
4.7497414164896199
 50
16.2482213857721902
 51
23.7619276679147404
  0
ARC
  5
9DFF
  8
0
 10
500.4391875675722758
 20
62.0162797214199699
 30
0.0
 40
0.0534671569205122
 50
179.6885969461220895
 51
223.4478921051259022
  0
ARC
  5
9E00
  8
0
 10
500.4333784085628736
 20
62.0107770675353009
 30
0.0
 40
0.0454655615689016
 50
223.4478921051245095
 51
330.7491790430233891
  0
ARC
  5
9E01
  8
0
 10
500.4242412225635803
 20
62.0158943095461197
 30
0.0
 40
0.0559381130145598
 50
330.7491790430242986
 51
3.489653651248569
  0
ARC
  5
9E02
  8
0
 10
500.4273211270054844
 20
62.0160821263347017
 30
0.0
 40
0.0528524872243534
 50
3.4896536512465381
 51
65.8201703392574871
  0
ARC
  5
9E03
  8
0
 10
500.4317738437458729
 20
62.0259992062073024
 30
0.0
 40
0.041981647350174
 50
65.8201703392574871
 51
141.6146363588790109
  0
ARC
  5
9E04
  8
0
 10
500.4467086365630166
 20
62.0141682458207981
 30
0.0
 40
0.0610347221717312
 50
141.6146363588790109
 51
177.7444978400521052
  0
ARC
  5
9E05
  8
0
 10
500.4329537233887208
 20
62.0246168116880199
 30
0.0
 40
0.0479130185980869
 50
189.6680495221831109
 51
242.7356635940438139
  0
ARC
  5
9E06
  8
0
 10
500.4327959324004951
 20
62.0255056527939104
 30
0.0
 40
0.0486339093795779
 50
243.3806131073388883
 51
319.1816686265815974
  0
ARC
  5
9E07
  8
0
 10
500.4367263196505746
 20
62.022110838491173
 30
0.0
 40
0.0434403837865608
 50
319.1816686265865997
 51
356.2889464920315277
  0
ARC
  5
9E08
  8
0
 10
500.4327325084274207
 20
62.0223323830159998
 30
0.0
 40
0.0233994476309815
 50
95.9180226732875667
 51
178.0479019125145896
  0
ARC
  5
9E09
  8
0
 10
500.4319116879585749
 20
62.0223603596376876
 30
0.0
 40
0.0225781505268381
 50
178.0479019125133959
 51
269.85122309400532
  0
ARC
  5
9E0A
  8
0
 10
500.4319198363912733
 20
62.0254984122197968
 30
0.0
 40
0.0257162136882436
 50
269.8512230940020231
 51
329.5960051758955842
  0
ARC
  5
9E0B
  8
0
 10
500.4339177080029231
 20
62.0227748399536907
 30
0.0
 40
0.0226542509034798
 50
332.9817413851703236
 51
58.6204295692675004
  0
ARC
  5
9E0C
  8
0
 10
500.4329730126211757
 20
62.0216230445262084
 30
0.0
 40
0.024130374519042
 50
58.1294516709004796
 51
96.3123840891179981
  0
ARC
  5
9E0D
  8
0
 10
500.3909711341635216
 20
62.1659639991381567
 30
0.0
 40
0.0534671569205122
 50
179.6885969461220895
 51
223.4478921051259022
  0
ARC
  5
9E0E
  8
0
 10
500.3851619751541762
 20
62.1604613452534664
 30
0.0
 40
0.0454655615689016
 50
223.4478921051245095
 51
330.7491790430233891
  0
ARC
  5
9E0F
  8
0
 10
500.3760247891548829
 20
62.1655785872642994
 30
0.0
 40
0.0559381130145598
 50
330.7491790430242986
 51
3.489653651248569
  0
ARC
  5
9E10
  8
0
 10
500.379104693596787
 20
62.1657664040528815
 30
0.0
 40
0.0528524872243534
 50
3.4896536512465381
 51
65.8201703392574871
  0
ARC
  5
9E11
  8
0
 10
500.3835574103371755
 20
62.1756834839254893
 30
0.0
 40
0.041981647350174
 50
65.8201703392574871
 51
141.6146363588790109
  0
ARC
  5
9E12
  8
0
 10
500.3984922031543192
 20
62.1638525235389778
 30
0.0
 40
0.0610347221717312
 50
141.6146363588790109
 51
177.7444978400521052
  0
ARC
  5
9E13
  8
0
 10
500.3847372899800803
 20
62.1743010894062067
 30
0.0
 40
0.0479130185980869
 50
189.6680495221831109
 51
242.7356635940438139
  0
ARC
  5
9E14
  8
0
 10
500.3845794989919114
 20
62.1751899305120972
 30
0.0
 40
0.0486339093795779
 50
243.3806131073388883
 51
319.1816686265815974
  0
ARC
  5
9E15
  8
0
 10
500.3885098862418772
 20
62.1717951162093385
 30
0.0
 40
0.0434403837865608
 50
319.1816686265865997
 51
356.2889464920315277
  0
ARC
  5
9E16
  8
0
 10
500.3845160750186096
 20
62.1720166607341724
 30
0.0
 40
0.0233994476309815
 50
95.9180226732875667
 51
178.0479019125145896
  0
ARC
  5
9E17
  8
0
 10
500.3836952545498775
 20
62.1720446373558673
 30
0.0
 40
0.0225781505268381
 50
178.0479019125133959
 51
269.85122309400532
  0
ARC
  5
9E18
  8
0
 10
500.3837034029825759
 20
62.1751826899379623
 30
0.0
 40
0.0257162136882436
 50
269.8512230940020231
 51
329.5960051758955842
  0
ARC
  5
9E19
  8
0
 10
500.3857012745942257
 20
62.1724591176718704
 30
0.0
 40
0.0226542509034798
 50
332.9817413851703236
 51
58.6204295692675004
  0
ARC
  5
9E1A
  8
0
 10
500.3847565792124783
 20
62.1713073222444024
 30
0.0
 40
0.024130374519042
 50
58.1294516709004796
 51
96.3123840891179981
  0
ARC
  5
9E1B
  8
0
 10
500.2942000838519903
 20
62.4665459890930208
 30
0.0
 40
0.0534671569205122
 50
179.6885969461220895
 51
223.4478921051259022
  0
ARC
  5
9E1C
  8
0
 10
500.288390924842588
 20
62.4610433352083305
 30
0.0
 40
0.0454655615689016
 50
223.4478921051245095
 51
330.7491790430233891
  0
ARC
  5
9E1D
  8
0
 10
500.2792537388434084
 20
62.4661605772191493
 30
0.0
 40
0.0559381130145598
 50
330.7491790430242986
 51
3.489653651248569
  0
ARC
  5
9E1E
  8
0
 10
500.2823336432851988
 20
62.4663483940077313
 30
0.0
 40
0.0528524872243534
 50
3.4896536512465381
 51
65.8201703392574871
  0
ARC
  5
9E1F
  8
0
 10
500.286786360025701
 20
62.476265473880332
 30
0.0
 40
0.041981647350174
 50
65.8201703392574871
 51
141.6146363588790109
  0
ARC
  5
9E20
  8
0
 10
500.3017211528427879
 20
62.4644345134938277
 30
0.0
 40
0.0610347221717312
 50
141.6146363588790109
 51
177.7444978400521052
  0
ARC
  5
9E21
  8
0
 10
500.2879662396686058
 20
62.4748830793610495
 30
0.0
 40
0.0479130185980869
 50
189.6680495221831109
 51
242.7356635940438139
  0
ARC
  5
9E22
  8
0
 10
500.28780844868038
 20
62.4757719204669399
 30
0.0
 40
0.0486339093795779
 50
243.3806131073388883
 51
319.1816686265815974
  0
ARC
  5
9E23
  8
0
 10
500.291738835930289
 20
62.4723771061642026
 30
0.0
 40
0.0434403837865608
 50
319.1816686265865997
 51
356.2889464920315277
  0
ARC
  5
9E24
  8
0
 10
500.2877450247070215
 20
62.4725986506890294
 30
0.0
 40
0.0233994476309815
 50
95.9180226732875667
 51
178.0479019125145896
  0
ARC
  5
9E25
  8
0
 10
500.2869242042382893
 20
62.4726266273107171
 30
0.0
 40
0.0225781505268381
 50
178.0479019125133959
 51
269.85122309400532
  0
ARC
  5
9E26
  8
0
 10
500.2869323526709877
 20
62.4757646798928334
 30
0.0
 40
0.0257162136882436
 50
269.8512230940020231
 51
329.5960051758955842
  0
ARC
  5
9E27
  8
0
 10
500.2889302242825806
 20
62.4730411076267202
 30
0.0
 40
0.0226542509034798
 50
332.9817413851703236
 51
58.6204295692675004
  0
ARC
  5
9E28
  8
0
 10
500.2879855289008901
 20
62.471889312199238
 30
0.0
 40
0.024130374519042
 50
58.1294516709004796
 51
96.3123840891179981
  0
ARC
  5
9E29
  8
0
 10
500.2291468253972084
 20
62.654186254781763
 30
0.0
 40
0.0534671569205122
 50
179.6885969461220895
 51
223.4478921051259022
  0
ARC
  5
9E2A
  8
0
 10
500.2233376663878062
 20
62.6486836008970727
 30
0.0
 40
0.0454655615689016
 50
223.4478921051245095
 51
330.7491790430233891
  0
ARC
  5
9E2B
  8
0
 10
500.2142004803886266
 20
62.6538008429078914
 30
0.0
 40
0.0559381130145598
 50
330.7491790430242986
 51
3.489653651248569
  0
ARC
  5
9E2C
  8
0
 10
500.2172803848304738
 20
62.6539886596964735
 30
0.0
 40
0.0528524872243534
 50
3.4896536512465381
 51
65.8201703392574871
  0
ARC
  5
9E2D
  8
0
 10
500.2217331015708055
 20
62.6639057395690813
 30
0.0
 40
0.041981647350174
 50
65.8201703392574871
 51
141.6146363588790109
  0
ARC
  5
9E2E
  8
0
 10
500.2366678943878924
 20
62.6520747791825769
 30
0.0
 40
0.0610347221717312
 50
141.6146363588790109
 51
177.7444978400521052
  0
ARC
  5
9E2F
  8
0
 10
500.2229129812135966
 20
62.6625233450497916
 30
0.0
 40
0.0479130185980869
 50
189.6680495221831109
 51
242.7356635940438139
  0
ARC
  5
9E30
  8
0
 10
500.2227551902254845
 20
62.6634121861556821
 30
0.0
 40
0.0486339093795779
 50
243.3806131073388883
 51
319.1816686265815974
  0
ARC
  5
9E31
  8
0
 10
500.2266855774755072
 20
62.6600173718529376
 30
0.0
 40
0.0434403837865608
 50
319.1816686265865997
 51
356.2889464920315277
  0
ARC
  5
9E32
  8
0
 10
500.2226917662522965
 20
62.6602389163777715
 30
0.0
 40
0.0233994476309815
 50
95.9180226732875667
 51
178.0479019125145896
  0
ARC
  5
9E33
  8
0
 10
500.2218709457833938
 20
62.6602668929994593
 30
0.0
 40
0.0225781505268381
 50
178.0479019125133959
 51
269.85122309400532
  0
ARC
  5
9E34
  8
0
 10
500.2218790942162059
 20
62.6634049455815472
 30
0.0
 40
0.0257162136882436
 50
269.8512230940020231
 51
329.5960051758955842
  0
ARC
  5
9E35
  8
0
 10
500.2238769658279125
 20
62.6606813733154624
 30
0.0
 40
0.0226542509034798
 50
332.9817413851703236
 51
58.6204295692675004
  0
ARC
  5
9E36
  8
0
 10
500.2229322704461083
 20
62.6595295778879802
 30
0.0
 40
0.024130374519042
 50
58.1294516709004796
 51
96.3123840891179981
  0
ARC
  5
9E37
  8
0
 10
499.7923835422765251
 20
62.4486766188055782
 30
0.0
 40
0.0534671569205122
 50
179.6885969461220895
 51
223.4478921051259022
  0
ARC
  5
9E38
  8
0
 10
499.7865743832671228
 20
62.4431739649208879
 30
0.0
 40
0.0454655615689016
 50
223.4478921051245095
 51
330.7491790430233891
  0
ARC
  5
9E39
  8
0
 10
499.7774371972678864
 20
62.4482912069317209
 30
0.0
 40
0.0559381130145598
 50
330.7491790430242986
 51
3.489653651248569
  0
ARC
  5
9E3A
  8
0
 10
499.7805171017096768
 20
62.4484790237203029
 30
0.0
 40
0.0528524872243534
 50
3.4896536512465381
 51
65.8201703392574871
  0
ARC
  5
9E3B
  8
0
 10
499.7849698184501221
 20
62.4583961035929107
 30
0.0
 40
0.041981647350174
 50
65.8201703392574871
 51
141.6146363588790109
  0
ARC
  5
9E3C
  8
0
 10
499.7999046112670953
 20
62.4465651432064135
 30
0.0
 40
0.0610347221717312
 50
141.6146363588790109
 51
177.7444978400521052
  0
ARC
  5
9E3D
  8
0
 10
499.7861496980929132
 20
62.457013709073621
 30
0.0
 40
0.0479130185980869
 50
189.6680495221831109
 51
242.7356635940438139
  0
ARC
  5
9E3E
  8
0
 10
499.7859919071046875
 20
62.4579025501795186
 30
0.0
 40
0.0486339093795779
 50
243.3806131073388883
 51
319.1816686265815974
  0
ARC
  5
9E3F
  8
0
 10
499.7899222943548239
 20
62.4545077358767671
 30
0.0
 40
0.0434403837865608
 50
319.1816686265865997
 51
356.2889464920315277
  0
ARC
  5
9E40
  8
0
 10
499.7859284831314994
 20
62.454729280401601
 30
0.0
 40
0.0233994476309815
 50
95.9180226732875667
 51
178.0479019125145896
  0
ARC
  5
9E41
  8
0
 10
499.7851076626627105
 20
62.4547572570233029
 30
0.0
 40
0.0225781505268381
 50
178.0479019125133959
 51
269.85122309400532
  0
ARC
  5
9E42
  8
0
 10
499.7851158110954088
 20
62.4578953096053766
 30
0.0
 40
0.0257162136882436
 50
269.8512230940020231
 51
329.5960051758955842
  0
ARC
  5
9E43
  8
0
 10
499.7871136827071155
 20
62.4551717373392918
 30
0.0
 40
0.0226542509034798
 50
332.9817413851703236
 51
58.6204295692675004
  0
ARC
  5
9E44
  8
0
 10
499.7861689873253113
 20
62.4540199419118167
 30
0.0
 40
0.024130374519042
 50
58.1294516709004796
 51
96.3123840891179981
  0
ARC
  5
9E45
  8
0
 10
499.8967990176136027
 20
62.2752736697412317
 30
0.0
 40
0.0534671569205122
 50
179.6885969461220895
 51
223.4478921051259022
  0
ARC
  5
9E46
  8
0
 10
499.8909898586040867
 20
62.2697710158565627
 30
0.0
 40
0.0454655615689016
 50
223.4478921051245095
 51
330.7491790430233891
  0
ARC
  5
9E47
  8
0
 10
499.8818526726049072
 20
62.2748882578673815
 30
0.0
 40
0.0559381130145598
 50
330.7491790430242986
 51
3.489653651248569
  0
ARC
  5
9E48
  8
0
 10
499.8849325770468113
 20
62.2750760746559706
 30
0.0
 40
0.0528524872243534
 50
3.4896536512465381
 51
65.8201703392574871
  0
ARC
  5
9E49
  8
0
 10
499.8893852937871998
 20
62.2849931545285713
 30
0.0
 40
0.041981647350174
 50
65.8201703392574871
 51
141.6146363588790109
  0
ARC
  5
9E4A
  8
0
 10
499.9043200866042866
 20
62.2731621941420599
 30
0.0
 40
0.0610347221717312
 50
141.6146363588790109
 51
177.7444978400521052
  0
ARC
  5
9E4B
  8
0
 10
499.8905651734299909
 20
62.2836107600092888
 30
0.0
 40
0.0479130185980869
 50
189.6680495221831109
 51
242.7356635940438139
  0
ARC
  5
9E4C
  8
0
 10
499.8904073824418788
 20
62.2844996011151792
 30
0.0
 40
0.0486339093795779
 50
243.3806131073388883
 51
319.1816686265815974
  0
ARC
  5
9E4D
  8
0
 10
499.8943377696917878
 20
62.2811047868124277
 30
0.0
 40
0.0434403837865608
 50
319.1816686265865997
 51
356.2889464920315277
  0
ARC
  5
9E4E
  8
0
 10
499.8903439584685771
 20
62.2813263313372616
 30
0.0
 40
0.0233994476309815
 50
95.9180226732875667
 51
178.0479019125145896
  0
ARC
  5
9E4F
  8
0
 10
499.8895231379997881
 20
62.2813543079589493
 30
0.0
 40
0.0225781505268381
 50
178.0479019125133959
 51
269.85122309400532
  0
ARC
  5
9E50
  8
0
 10
499.8895312864324865
 20
62.2844923605410585
 30
0.0
 40
0.0257162136882436
 50
269.8512230940020231
 51
329.5960051758955842
  0
ARC
  5
9E51
  8
0
 10
499.8915291580441931
 20
62.2817687882749524
 30
0.0
 40
0.0226542509034798
 50
332.9817413851703236
 51
58.6204295692675004
  0
ARC
  5
9E52
  8
0
 10
499.8905844626623889
 20
62.2806169928474702
 30
0.0
 40
0.024130374519042
 50
58.1294516709004796
 51
96.3123840891179981
  0
ARC
  5
9E53
  8
0
 10
500.0539985750663163
 20
62.0076770096282388
 30
0.0
 40
0.0534671569205122
 50
179.6885969461220895
 51
223.4478921051259022
  0
ARC
  5
9E54
  8
0
 10
500.0481894160570278
 20
62.0021743557435698
 30
0.0
 40
0.0454655615689016
 50
223.4478921051245095
 51
330.7491790430233891
  0
ARC
  5
9E55
  8
0
 10
500.0390522300576208
 20
62.0072915977543886
 30
0.0
 40
0.0559381130145598
 50
330.7491790430242986
 51
3.489653651248569
  0
ARC
  5
9E56
  8
0
 10
500.0421321344995818
 20
62.0074794145429777
 30
0.0
 40
0.0528524872243534
 50
3.4896536512465381
 51
65.8201703392574871
  0
ARC
  5
9E57
  8
0
 10
500.0465848512400271
 20
62.0173964944155927
 30
0.0
 40
0.041981647350174
 50
65.8201703392574871
 51
141.6146363588790109
  0
ARC
  5
9E58
  8
0
 10
500.0615196440570003
 20
62.0055655340290812
 30
0.0
 40
0.0610347221717312
 50
141.6146363588790109
 51
177.7444978400521052
  0
ARC
  5
9E59
  8
0
 10
500.0477647308827045
 20
62.016014099896303
 30
0.0
 40
0.0479130185980869
 50
189.6680495221831109
 51
242.7356635940438139
  0
ARC
  5
9E5A
  8
0
 10
500.0476069398945924
 20
62.0169029410021935
 30
0.0
 40
0.0486339093795779
 50
243.3806131073388883
 51
319.1816686265815974
  0
ARC
  5
9E5B
  8
0
 10
500.0515373271446151
 20
62.0135081266994419
 30
0.0
 40
0.0434403837865608
 50
319.1816686265865997
 51
356.2889464920315277
  0
ARC
  5
9E5C
  8
0
 10
500.0475435159214044
 20
62.0137296712242687
 30
0.0
 40
0.0233994476309815
 50
95.9180226732875667
 51
178.0479019125145896
  0
ARC
  5
9E5D
  8
0
 10
500.0467226954526154
 20
62.0137576478459707
 30
0.0
 40
0.0225781505268381
 50
178.0479019125133959
 51
269.85122309400532
  0
ARC
  5
9E5E
  8
0
 10
500.0467308438853138
 20
62.0168957004280728
 30
0.0
 40
0.0257162136882436
 50
269.8512230940020231
 51
329.5960051758955842
  0
ARC
  5
9E5F
  8
0
 10
500.0487287154970204
 20
62.0141721281619596
 30
0.0
 40
0.0226542509034798
 50
332.9817413851703236
 51
58.6204295692675004
  0
ARC
  5
9E60
  8
0
 10
500.0477840201152731
 20
62.0130203327344915
 30
0.0
 40
0.024130374519042
 50
58.1294516709004796
 51
96.3123840891179981
  0
ARC
  5
9E61
  8
0
 10
500.1310037921077765
 20
61.8720875274903221
 30
0.0
 40
0.0534671569205122
 50
179.6885969461220895
 51
223.4478921051259022
  0
ARC
  5
9E62
  8
0
 10
500.1251946330983742
 20
61.8665848736056532
 30
0.0
 40
0.0454655615689016
 50
223.4478921051245095
 51
330.7491790430233891
  0
ARC
  5
9E63
  8
0
 10
500.1160574470993083
 20
61.8717021156164577
 30
0.0
 40
0.0559381130145598
 50
330.7491790430242986
 51
3.489653651248569
  0
ARC
  5
9E64
  8
0
 10
500.119137351540985
 20
61.8718899324050398
 30
0.0
 40
0.0528524872243534
 50
3.4896536512465381
 51
65.8201703392574871
  0
ARC
  5
9E65
  8
0
 10
500.1235900682813735
 20
61.8818070122776476
 30
0.0
 40
0.041981647350174
 50
65.8201703392574871
 51
141.6146363588790109
  0
ARC
  5
9E66
  8
0
 10
500.1385248610985172
 20
61.8699760518911503
 30
0.0
 40
0.0610347221717312
 50
141.6146363588790109
 51
177.7444978400521052
  0
ARC
  5
9E67
  8
0
 10
500.1247699479242783
 20
61.8804246177583721
 30
0.0
 40
0.0479130185980869
 50
189.6680495221831109
 51
242.7356635940438139
  0
ARC
  5
9E68
  8
0
 10
500.1246121569361094
 20
61.8813134588642626
 30
0.0
 40
0.0486339093795779
 50
243.3806131073388883
 51
319.1816686265815974
  0
ARC
  5
9E69
  8
0
 10
500.1285425441861889
 20
61.877918644561511
 30
0.0
 40
0.0434403837865608
 50
319.1816686265865997
 51
356.2889464920315277
  0
ARC
  5
9E6A
  8
0
 10
500.1245487329629213
 20
61.8781401890863521
 30
0.0
 40
0.0233994476309815
 50
95.9180226732875667
 51
178.0479019125145896
  0
ARC
  5
9E6B
  8
0
 10
500.1237279124940756
 20
61.8781681657080398
 30
0.0
 40
0.0225781505268381
 50
178.0479019125133959
 51
269.85122309400532
  0
ARC
  5
9E6C
  8
0
 10
500.1237360609267739
 20
61.8813062182901419
 30
0.0
 40
0.0257162136882436
 50
269.8512230940020231
 51
329.5960051758955842
  0
ARC
  5
9E6D
  8
0
 10
500.1257339325384805
 20
61.8785826460240429
 30
0.0
 40
0.0226542509034798
 50
332.9817413851703236
 51
58.6204295692675004
  0
ARC
  5
9E6E
  8
0
 10
500.1247892371566763
 20
61.8774308505965607
 30
0.0
 40
0.024130374519042
 50
58.1294516709004796
 51
96.3123840891179981
  0
ARC
  5
9E6F
  8
0
 10
499.8649385622194927
 20
61.6644945849455368
 30
0.0
 40
0.0534671569205122
 50
179.6885969461220895
 51
223.4478921051259022
  0
ARC
  5
9E70
  8
0
 10
499.8591294032100905
 20
61.6589919310608465
 30
0.0
 40
0.0454655615689016
 50
223.4478921051245095
 51
330.7491790430233891
  0
ARC
  5
9E71
  8
0
 10
499.8499922172109109
 20
61.6641091730716724
 30
0.0
 40
0.0559381130145598
 50
330.7491790430242986
 51
3.489653651248569
  0
ARC
  5
9E72
  8
0
 10
499.8530721216527013
 20
61.6642969898602473
 30
0.0
 40
0.0528524872243534
 50
3.4896536512465381
 51
65.8201703392574871
  0
ARC
  5
9E73
  8
0
 10
499.8575248383930898
 20
61.6742140697328622
 30
0.0
 40
0.041981647350174
 50
65.8201703392574871
 51
141.6146363588790109
  0
ARC
  5
9E74
  8
0
 10
499.8724596312101767
 20
61.6623831093463579
 30
0.0
 40
0.0610347221717312
 50
141.6146363588790109
 51
177.7444978400521052
  0
ARC
  5
9E75
  8
0
 10
499.8587047180358809
 20
61.6728316752135726
 30
0.0
 40
0.0479130185980869
 50
189.6680495221831109
 51
242.7356635940438139
  0
ARC
  5
9E76
  8
0
 10
499.8585469270478256
 20
61.6737205163194702
 30
0.0
 40
0.0486339093795779
 50
243.3806131073388883
 51
319.1816686265815974
  0
ARC
  5
9E77
  8
0
 10
499.8624773142977915
 20
61.6703257020167186
 30
0.0
 40
0.0434403837865608
 50
319.1816686265865997
 51
356.2889464920315277
  0
ARC
  5
9E78
  8
0
 10
499.8584835030745808
 20
61.6705472465415525
 30
0.0
 40
0.0233994476309815
 50
95.9180226732875667
 51
178.0479019125145896
  0
ARC
  5
9E79
  8
0
 10
499.8576626826056781
 20
61.6705752231632474
 30
0.0
 40
0.0225781505268381
 50
178.0479019125133959
 51
269.85122309400532
  0
ARC
  5
9E7A
  8
0
 10
499.8576708310384902
 20
61.6737132757453281
 30
0.0
 40
0.0257162136882436
 50
269.8512230940020231
 51
329.5960051758955842
  0
ARC
  5
9E7B
  8
0
 10
499.8596687026501968
 20
61.6709897034792434
 30
0.0
 40
0.0226542509034798
 50
332.9817413851703236
 51
58.6204295692675004
  0
ARC
  5
9E7C
  8
0
 10
499.8587240072683926
 20
61.6698379080517682
 30
0.0
 40
0.024130374519042
 50
58.1294516709004796
 51
96.3123840891179981
  0
ARC
  5
9E7D
  8
0
 10
499.7604612257251233
 20
61.7802492648443291
 30
0.0
 40
0.0534671569205122
 50
179.6885969461220895
 51
223.4478921051259022
  0
ARC
  5
9E7E
  8
0
 10
499.754652066715721
 20
61.7747466109596388
 30
0.0
 40
0.0454655615689016
 50
223.4478921051245095
 51
330.7491790430233891
  0
ARC
  5
9E7F
  8
0
 10
499.7455148807164846
 20
61.7798638529704718
 30
0.0
 40
0.0559381130145598
 50
330.7491790430242986
 51
3.489653651248569
  0
ARC
  5
9E80
  8
0
 10
499.7485947851583887
 20
61.7800516697590467
 30
0.0
 40
0.0528524872243534
 50
3.4896536512465381
 51
65.8201703392574871
  0
ARC
  5
9E81
  8
0
 10
499.7530475018987204
 20
61.7899687496316616
 30
0.0
 40
0.041981647350174
 50
65.8201703392574871
 51
141.6146363588790109
  0
ARC
  5
9E82
  8
0
 10
499.7679822947159209
 20
61.7781377892451573
 30
0.0
 40
0.0610347221717312
 50
141.6146363588790109
 51
177.7444978400521052
  0
ARC
  5
9E83
  8
0
 10
499.7542273815416252
 20
61.7885863551123791
 30
0.0
 40
0.0479130185980869
 50
189.6680495221831109
 51
242.7356635940438139
  0
ARC
  5
9E84
  8
0
 10
499.7540695905533994
 20
61.7894751962182696
 30
0.0
 40
0.0486339093795779
 50
243.3806131073388883
 51
319.1816686265815974
  0
ARC
  5
9E85
  8
0
 10
499.7579999778034221
 20
61.7860803819155109
 30
0.0
 40
0.0434403837865608
 50
319.1816686265865997
 51
356.2889464920315277
  0
ARC
  5
9E86
  8
0
 10
499.7540061665802114
 20
61.7863019264403519
 30
0.0
 40
0.0233994476309815
 50
95.9180226732875667
 51
178.0479019125145896
  0
ARC
  5
9E87
  8
0
 10
499.7531853461114224
 20
61.7863299030620468
 30
0.0
 40
0.0225781505268381
 50
178.0479019125133959
 51
269.85122309400532
  0
ARC
  5
9E88
  8
0
 10
499.7531934945441208
 20
61.7894679556441417
 30
0.0
 40
0.0257162136882436
 50
269.8512230940020231
 51
329.5960051758955842
  0
ARC
  5
9E89
  8
0
 10
499.7551913661558274
 20
61.7867443833780428
 30
0.0
 40
0.0226542509034798
 50
332.9817413851703236
 51
58.6204295692675004
  0
ARC
  5
9E8A
  8
0
 10
499.7542466707740232
 20
61.7855925879505676
 30
0.0
 40
0.024130374519042
 50
58.1294516709004796
 51
96.3123840891179981
  0
ARC
  5
9E8B
  8
0
 10
499.5516635849048726
 20
62.0073577317135332
 30
0.0
 40
0.0534671569205122
 50
179.6885969461220895
 51
223.4478921051259022
  0
ARC
  5
9E8C
  8
0
 10
499.5458544258955271
 20
62.0018550778288571
 30
0.0
 40
0.0454655615689016
 50
223.4478921051245095
 51
330.7491790430233891
  0
ARC
  5
9E8D
  8
0
 10
499.536717239896177
 20
62.0069723198396829
 30
0.0
 40
0.0559381130145598
 50
330.7491790430242986
 51
3.489653651248569
  0
ARC
  5
9E8E
  8
0
 10
499.5397971443380811
 20
62.0071601366282721
 30
0.0
 40
0.0528524872243534
 50
3.4896536512465381
 51
65.8201703392574871
  0
ARC
  5
9E8F
  8
0
 10
499.5442498610785265
 20
62.0170772165008728
 30
0.0
 40
0.041981647350174
 50
65.8201703392574871
 51
141.6146363588790109
  0
ARC
  5
9E90
  8
0
 10
499.5591846538956133
 20
62.0052462561143685
 30
0.0
 40
0.0610347221717312
 50
141.6146363588790109
 51
177.7444978400521052
  0
ARC
  5
9E91
  8
0
 10
499.5454297407213744
 20
62.0156948219815902
 30
0.0
 40
0.0479130185980869
 50
189.6680495221831109
 51
242.7356635940438139
  0
ARC
  5
9E92
  8
0
 10
499.5452719497332055
 20
62.0165836630874807
 30
0.0
 40
0.0486339093795779
 50
243.3806131073388883
 51
319.1816686265815974
  0
ARC
  5
9E93
  8
0
 10
499.5492023369832282
 20
62.0131888487847291
 30
0.0
 40
0.0434403837865608
 50
319.1816686265865997
 51
356.2889464920315277
  0
ARC
  5
9E94
  8
0
 10
499.5452085257599038
 20
62.0134103933095631
 30
0.0
 40
0.0233994476309815
 50
95.9180226732875667
 51
178.0479019125145896
  0
ARC
  5
9E95
  8
0
 10
499.5443877052911716
 20
62.0134383699312508
 30
0.0
 40
0.0225781505268381
 50
178.0479019125133959
 51
269.85122309400532
  0
ARC
  5
9E96
  8
0
 10
499.5443958537239268
 20
62.01657642251336
 30
0.0
 40
0.0257162136882436
 50
269.8512230940020231
 51
329.5960051758955842
  0
ARC
  5
9E97
  8
0
 10
499.5463937253355198
 20
62.0138528502472468
 30
0.0
 40
0.0226542509034798
 50
332.9817413851703236
 51
58.6204295692675004
  0
ARC
  5
9E98
  8
0
 10
499.5454490299537724
 20
62.0127010548197717
 30
0.0
 40
0.024130374519042
 50
58.1294516709004796
 51
96.3123840891179981
  0
ARC
  5
9E99
  8
0
 10
499.4126674427424746
 20
62.1541465937790605
 30
0.0
 40
0.0534671569205122
 50
179.6885969461220895
 51
223.4478921051259022
  0
ARC
  5
9E9A
  8
0
 10
499.4068582837330723
 20
62.1486439398943702
 30
0.0
 40
0.0454655615689016
 50
223.4478921051245095
 51
330.7491790430233891
  0
ARC
  5
9E9B
  8
0
 10
499.3977210977337791
 20
62.1537611819052032
 30
0.0
 40
0.0559381130145598
 50
330.7491790430242986
 51
3.489653651248569
  0
ARC
  5
9E9C
  8
0
 10
499.4008010021756832
 20
62.1539489986937781
 30
0.0
 40
0.0528524872243534
 50
3.4896536512465381
 51
65.8201703392574871
  0
ARC
  5
9E9D
  8
0
 10
499.4052537189160716
 20
62.163866078566393
 30
0.0
 40
0.041981647350174
 50
65.8201703392574871
 51
141.6146363588790109
  0
ARC
  5
9E9E
  8
0
 10
499.4201885117332154
 20
62.1520351181798887
 30
0.0
 40
0.0610347221717312
 50
141.6146363588790109
 51
177.7444978400521052
  0
ARC
  5
9E9F
  8
0
 10
499.4064335985589764
 20
62.1624836840471104
 30
0.0
 40
0.0479130185980869
 50
189.6680495221831109
 51
242.7356635940438139
  0
ARC
  5
9EA0
  8
0
 10
499.4062758075708075
 20
62.1633725251530009
 30
0.0
 40
0.0486339093795779
 50
243.3806131073388883
 51
319.1816686265815974
  0
ARC
  5
9EA1
  8
0
 10
499.410206194820887
 20
62.1599777108502423
 30
0.0
 40
0.0434403837865608
 50
319.1816686265865997
 51
356.2889464920315277
  0
ARC
  5
9EA2
  8
0
 10
499.4062123835976195
 20
62.1601992553750904
 30
0.0
 40
0.0233994476309815
 50
95.9180226732875667
 51
178.0479019125145896
  0
ARC
  5
9EA3
  8
0
 10
499.4053915631288874
 20
62.1602272319967781
 30
0.0
 40
0.0225781505268381
 50
178.0479019125133959
 51
269.85122309400532
  0
ARC
  5
9EA4
  8
0
 10
499.405399711561472
 20
62.1633652845788731
 30
0.0
 40
0.0257162136882436
 50
269.8512230940020231
 51
329.5960051758955842
  0
ARC
  5
9EA5
  8
0
 10
499.4073975831731786
 20
62.160641712312767
 30
0.0
 40
0.0226542509034798
 50
332.9817413851703236
 51
58.6204295692675004
  0
ARC
  5
9EA6
  8
0
 10
499.4064528877913745
 20
62.159489916885299
 30
0.0
 40
0.024130374519042
 50
58.1294516709004796
 51
96.3123840891179981
  0
ARC
  5
9EA7
  8
0
 10
499.6521353414876216
 20
61.4047119344700079
 30
0.0
 40
0.0534671569205122
 50
179.6885969461220895
 51
223.4478921051259022
  0
ARC
  5
9EA8
  8
0
 10
499.6463261824782762
 20
61.3992092805853176
 30
0.0
 40
0.0454655615689016
 50
223.4478921051245095
 51
330.7491790430233891
  0
ARC
  5
9EA9
  8
0
 10
499.637188996478983
 20
61.4043265225961434
 30
0.0
 40
0.0559381130145598
 50
330.7491790430242986
 51
3.489653651248569
  0
ARC
  5
9EAA
  8
0
 10
499.6402689009208871
 20
61.4045143393847326
 30
0.0
 40
0.0528524872243534
 50
3.4896536512465381
 51
65.8201703392574871
  0
ARC
  5
9EAB
  8
0
 10
499.6447216176612756
 20
61.4144314192573404
 30
0.0
 40
0.041981647350174
 50
65.8201703392574871
 51
141.6146363588790109
  0
ARC
  5
9EAC
  8
0
 10
499.6596564104784193
 20
61.402600458870829
 30
0.0
 40
0.0610347221717312
 50
141.6146363588790109
 51
177.7444978400521052
  0
ARC
  5
9EAD
  8
0
 10
499.6459014973041803
 20
61.4130490247380507
 30
0.0
 40
0.0479130185980869
 50
189.6680495221831109
 51
242.7356635940438139
  0
ARC
  5
9EAE
  8
0
 10
499.6457437063160114
 20
61.4139378658439412
 30
0.0
 40
0.0486339093795779
 50
243.3806131073388883
 51
319.1816686265815974
  0
ARC
  5
9EAF
  8
0
 10
499.6496740935659773
 20
61.4105430515411896
 30
0.0
 40
0.0434403837865608
 50
319.1816686265865997
 51
356.2889464920315277
  0
ARC
  5
9EB0
  8
0
 10
499.6456802823427097
 20
61.4107645960660165
 30
0.0
 40
0.0233994476309815
 50
95.9180226732875667
 51
178.0479019125145896
  0
ARC
  5
9EB1
  8
0
 10
499.6448594618739776
 20
61.4107925726877184
 30
0.0
 40
0.0225781505268381
 50
178.0479019125133959
 51
269.85122309400532
  0
ARC
  5
9EB2
  8
0
 10
499.6448676103066759
 20
61.4139306252697992
 30
0.0
 40
0.0257162136882436
 50
269.8512230940020231
 51
329.5960051758955842
  0
ARC
  5
9EB3
  8
0
 10
499.6468654819183257
 20
61.4112070530037073
 30
0.0
 40
0.0226542509034798
 50
332.9817413851703236
 51
58.6204295692675004
  0
ARC
  5
9EB4
  8
0
 10
499.6459207865365784
 20
61.4100552575762322
 30
0.0
 40
0.024130374519042
 50
58.1294516709004796
 51
96.3123840891179981
  0
ARC
  5
9EB5
  8
0
 10
499.5270095344599213
 20
61.4944589709796716
 30
0.0
 40
0.0534671569205122
 50
179.6885969461220895
 51
223.4478921051259022
  0
ARC
  5
9EB6
  8
0
 10
499.521200375450519
 20
61.4889563170949813
 30
0.0
 40
0.0454655615689016
 50
223.4478921051245095
 51
330.7491790430233891
  0
ARC
  5
9EB7
  8
0
 10
499.5120631894512258
 20
61.4940735591058072
 30
0.0
 40
0.0559381130145598
 50
330.7491790430242986
 51
3.489653651248569
  0
ARC
  5
9EB8
  8
0
 10
499.515143093893073
 20
61.4942613758943892
 30
0.0
 40
0.0528524872243534
 50
3.4896536512465381
 51
65.8201703392574871
  0
ARC
  5
9EB9
  8
0
 10
499.5195958106335183
 20
61.504178455766997
 30
0.0
 40
0.041981647350174
 50
65.8201703392574871
 51
141.6146363588790109
  0
ARC
  5
9EBA
  8
0
 10
499.5345306034506052
 20
61.4923474953804927
 30
0.0
 40
0.0610347221717312
 50
141.6146363588790109
 51
177.7444978400521052
  0
ARC
  5
9EBB
  8
0
 10
499.5207756902764231
 20
61.5027960612477074
 30
0.0
 40
0.0479130185980869
 50
189.6680495221831109
 51
242.7356635940438139
  0
ARC
  5
9EBC
  8
0
 10
499.5206178992881973
 20
61.5036849023536121
 30
0.0
 40
0.0486339093795779
 50
243.3806131073388883
 51
319.1816686265815974
  0
ARC
  5
9EBD
  8
0
 10
499.5245482865382201
 20
61.5002900880508534
 30
0.0
 40
0.0434403837865608
 50
319.1816686265865997
 51
356.2889464920315277
  0
ARC
  5
9EBE
  8
0
 10
499.5205544753150093
 20
61.5005116325756802
 30
0.0
 40
0.0233994476309815
 50
95.9180226732875667
 51
178.0479019125145896
  0
ARC
  5
9EBF
  8
0
 10
499.5197336548462204
 20
61.5005396091973822
 30
0.0
 40
0.0225781505268381
 50
178.0479019125133959
 51
269.85122309400532
  0
ARC
  5
9EC0
  8
0
 10
499.5197418032789187
 20
61.50367766177947
 30
0.0
 40
0.0257162136882436
 50
269.8512230940020231
 51
329.5960051758955842
  0
ARC
  5
9EC1
  8
0
 10
499.5217396748905117
 20
61.5009540895133711
 30
0.0
 40
0.0226542509034798
 50
332.9817413851703236
 51
58.6204295692675004
  0
ARC
  5
9EC2
  8
0
 10
499.5207949795088211
 20
61.4998022940859101
 30
0.0
 40
0.024130374519042
 50
58.1294516709004796
 51
96.3123840891179981
  0
ARC
  5
9EC3
  8
0
 10
499.2771744335357198
 20
61.6721400054292701
 30
0.0
 40
0.0534671569205122
 50
179.6885969461220895
 51
223.4478921051259022
  0
ARC
  5
9EC4
  8
0
 10
499.2713652745262038
 20
61.6666373515445727
 30
0.0
 40
0.0454655615689016
 50
223.4478921051245095
 51
330.7491790430233891
  0
ARC
  5
9EC5
  8
0
 10
499.2622280885270243
 20
61.6717545935553986
 30
0.0
 40
0.0559381130145598
 50
330.7491790430242986
 51
3.489653651248569
  0
ARC
  5
9EC6
  8
0
 10
499.2653079929689284
 20
61.6719424103439806
 30
0.0
 40
0.0528524872243534
 50
3.4896536512465381
 51
65.8201703392574871
  0
ARC
  5
9EC7
  8
0
 10
499.2697607097093169
 20
61.6818594902165813
 30
0.0
 40
0.041981647350174
 50
65.8201703392574871
 51
141.6146363588790109
  0
ARC
  5
9EC8
  8
0
 10
499.2846955025264037
 20
61.670028529830077
 30
0.0
 40
0.0610347221717312
 50
141.6146363588790109
 51
177.7444978400521052
  0
ARC
  5
9EC9
  8
0
 10
499.270940589352108
 20
61.6804770956972988
 30
0.0
 40
0.0479130185980869
 50
189.6680495221831109
 51
242.7356635940438139
  0
ARC
  5
9ECA
  8
0
 10
499.2707827983639959
 20
61.6813659368031892
 30
0.0
 40
0.0486339093795779
 50
243.3806131073388883
 51
319.1816686265815974
  0
ARC
  5
9ECB
  8
0
 10
499.2747131856140186
 20
61.6779711225004519
 30
0.0
 40
0.0434403837865608
 50
319.1816686265865997
 51
356.2889464920315277
  0
ARC
  5
9ECC
  8
0
 10
499.2707193743906942
 20
61.6781926670252787
 30
0.0
 40
0.0233994476309815
 50
95.9180226732875667
 51
178.0479019125145896
  0
ARC
  5
9ECD
  8
0
 10
499.2698985539219052
 20
61.6782206436469735
 30
0.0
 40
0.0225781505268381
 50
178.0479019125133959
 51
269.85122309400532
  0
ARC
  5
9ECE
  8
0
 10
499.2699067023546036
 20
61.6813586962290614
 30
0.0
 40
0.0257162136882436
 50
269.8512230940020231
 51
329.5960051758955842
  0
ARC
  5
9ECF
  8
0
 10
499.2719045739663102
 20
61.6786351239629695
 30
0.0
 40
0.0226542509034798
 50
332.9817413851703236
 51
58.6204295692675004
  0
ARC
  5
9ED0
  8
0
 10
499.270959878584506
 20
61.6774833285354873
 30
0.0
 40
0.024130374519042
 50
58.1294516709004796
 51
96.3123840891179981
  0
ARC
  5
9ED1
  8
0
 10
499.1102959842464202
 20
61.7843254554965569
 30
0.0
 40
0.0534671569205122
 50
179.6885969461220895
 51
223.4478921051259022
  0
ARC
  5
9ED2
  8
0
 10
499.1044868252370179
 20
61.7788228016118808
 30
0.0
 40
0.0454655615689016
 50
223.4478921051245095
 51
330.7491790430233891
  0
ARC
  5
9ED3
  8
0
 10
499.0953496392377815
 20
61.7839400436227066
 30
0.0
 40
0.0559381130145598
 50
330.7491790430242986
 51
3.489653651248569
  0
ARC
  5
9ED4
  8
0
 10
499.0984295436795719
 20
61.7841278604112887
 30
0.0
 40
0.0528524872243534
 50
3.4896536512465381
 51
65.8201703392574871
  0
ARC
  5
9ED5
  8
0
 10
499.1028822604200172
 20
61.7940449402838965
 30
0.0
 40
0.041981647350174
 50
65.8201703392574871
 51
141.6146363588790109
  0
ARC
  5
9ED6
  8
0
 10
499.1178170532371041
 20
61.7822139798973993
 30
0.0
 40
0.0610347221717312
 50
141.6146363588790109
 51
177.7444978400521052
  0
ARC
  5
9ED7
  8
0
 10
499.104062140062922
 20
61.792662545764621
 30
0.0
 40
0.0479130185980869
 50
189.6680495221831109
 51
242.7356635940438139
  0
ARC
  5
9ED8
  8
0
 10
499.1039043490746963
 20
61.7935513868705115
 30
0.0
 40
0.0486339093795779
 50
243.3806131073388883
 51
319.1816686265815974
  0
ARC
  5
9ED9
  8
0
 10
499.1078347363247758
 20
61.79015657256776
 30
0.0
 40
0.0434403837865608
 50
319.1816686265865997
 51
356.2889464920315277
  0
ARC
  5
9EDA
  8
0
 10
499.1038409251013945
 20
61.7903781170925868
 30
0.0
 40
0.0233994476309815
 50
95.9180226732875667
 51
178.0479019125145896
  0
ARC
  5
9EDB
  8
0
 10
499.1030201046327193
 20
61.7904060937142887
 30
0.0
 40
0.0225781505268381
 50
178.0479019125133959
 51
269.85122309400532
  0
ARC
  5
9EDC
  8
0
 10
499.1030282530654176
 20
61.7935441462963908
 30
0.0
 40
0.0257162136882436
 50
269.8512230940020231
 51
329.5960051758955842
  0
ARC
  5
9EDD
  8
0
 10
499.1050261246771242
 20
61.7908205740302918
 30
0.0
 40
0.0226542509034798
 50
332.9817413851703236
 51
58.6204295692675004
  0
ARC
  5
9EDE
  8
0
 10
499.1040814292952064
 20
61.7896687786028096
 30
0.0
 40
0.024130374519042
 50
58.1294516709004796
 51
96.3123840891179981
  0
ARC
  5
9EDF
  8
0
 10
499.5027082219132808
 20
61.1037702692687432
 30
0.0
 40
0.0534671569205122
 50
179.6885969461220895
 51
223.4478921051259022
  0
ARC
  5
9EE0
  8
0
 10
499.4968990629038785
 20
61.0982676153840671
 30
0.0
 40
0.0454655615689016
 50
223.4478921051245095
 51
330.7491790430233891
  0
ARC
  5
9EE1
  8
0
 10
499.487761876904699
 20
61.1033848573949001
 30
0.0
 40
0.0559381130145598
 50
330.7491790430242986
 51
3.489653651248569
  0
ARC
  5
9EE2
  8
0
 10
499.4908417813466031
 20
61.1035726741834679
 30
0.0
 40
0.0528524872243534
 50
3.4896536512465381
 51
65.8201703392574871
  0
ARC
  5
9EE3
  8
0
 10
499.4952944980869916
 20
61.1134897540560829
 30
0.0
 40
0.041981647350174
 50
65.8201703392574871
 51
141.6146363588790109
  0
ARC
  5
9EE4
  8
0
 10
499.5102292909040216
 20
61.1016587936695785
 30
0.0
 40
0.0610347221717312
 50
141.6146363588790109
 51
177.7444978400521052
  0
ARC
  5
9EE5
  8
0
 10
499.4964743777297258
 20
61.1121073595368003
 30
0.0
 40
0.0479130185980869
 50
189.6680495221831109
 51
242.7356635940438139
  0
ARC
  5
9EE6
  8
0
 10
499.4963165867416137
 20
61.1129962006426908
 30
0.0
 40
0.0486339093795779
 50
243.3806131073388883
 51
319.1816686265815974
  0
ARC
  5
9EE7
  8
0
 10
499.5002469739915796
 20
61.1096013863399392
 30
0.0
 40
0.0434403837865608
 50
319.1816686265865997
 51
356.2889464920315277
  0
ARC
  5
9EE8
  8
0
 10
499.4962531627684257
 20
61.1098229308647731
 30
0.0
 40
0.0233994476309815
 50
95.9180226732875667
 51
178.0479019125145896
  0
ARC
  5
9EE9
  8
0
 10
499.4954323422995799
 20
61.109850907486468
 30
0.0
 40
0.0225781505268381
 50
178.0479019125133959
 51
269.85122309400532
  0
ARC
  5
9EEA
  8
0
 10
499.4954404907322782
 20
61.1129889600685701
 30
0.0
 40
0.0257162136882436
 50
269.8512230940020231
 51
329.5960051758955842
  0
ARC
  5
9EEB
  8
0
 10
499.4974383623439849
 20
61.1102653878024569
 30
0.0
 40
0.0226542509034798
 50
332.9817413851703236
 51
58.6204295692675004
  0
ARC
  5
9EEC
  8
0
 10
499.4964936669621807
 20
61.1091135923749889
 30
0.0
 40
0.024130374519042
 50
58.1294516709004796
 51
96.3123840891179981
  0
ARC
  5
9EED
  8
0
 10
499.3628305774677756
 20
61.1625351946874432
 30
0.0
 40
0.0534671569205122
 50
179.6885969461220895
 51
223.4478921051259022
  0
ARC
  5
9EEE
  8
0
 10
499.3570214184583733
 20
61.15703254080276
 30
0.0
 40
0.0454655615689016
 50
223.4478921051245095
 51
330.7491790430233891
  0
ARC
  5
9EEF
  8
0
 10
499.3478842324590801
 20
61.1621497828135929
 30
0.0
 40
0.0559381130145598
 50
330.7491790430242986
 51
3.489653651248569
  0
ARC
  5
9EF0
  8
0
 10
499.3509641369009842
 20
61.1623375996021679
 30
0.0
 40
0.0528524872243534
 50
3.4896536512465381
 51
65.8201703392574871
  0
ARC
  5
9EF1
  8
0
 10
499.3554168536413727
 20
61.1722546794747828
 30
0.0
 40
0.041981647350174
 50
65.8201703392574871
 51
141.6146363588790109
  0
ARC
  5
9EF2
  8
0
 10
499.3703516464584027
 20
61.1604237190882785
 30
0.0
 40
0.0610347221717312
 50
141.6146363588790109
 51
177.7444978400521052
  0
ARC
  5
9EF3
  8
0
 10
499.3565967332842206
 20
61.1708722849555002
 30
0.0
 40
0.0479130185980869
 50
189.6680495221831109
 51
242.7356635940438139
  0
ARC
  5
9EF4
  8
0
 10
499.3564389422961085
 20
61.1717611260613907
 30
0.0
 40
0.0486339093795779
 50
243.3806131073388883
 51
319.1816686265815974
  0
ARC
  5
9EF5
  8
0
 10
499.3603693295461881
 20
61.1683663117586391
 30
0.0
 40
0.0434403837865608
 50
319.1816686265865997
 51
356.2889464920315277
  0
ARC
  5
9EF6
  8
0
 10
499.3563755183229205
 20
61.1685878562834731
 30
0.0
 40
0.0233994476309815
 50
95.9180226732875667
 51
178.0479019125145896
  0
ARC
  5
9EF7
  8
0
 10
499.3555546978540747
 20
61.1686158329051679
 30
0.0
 40
0.0225781505268381
 50
178.0479019125133959
 51
269.85122309400532
  0
ARC
  5
9EF8
  8
0
 10
499.355562846286773
 20
61.1717538854872629
 30
0.0
 40
0.0257162136882436
 50
269.8512230940020231
 51
329.5960051758955842
  0
ARC
  5
9EF9
  8
0
 10
499.3575607178984797
 20
61.169030313221171
 30
0.0
 40
0.0226542509034798
 50
332.9817413851703236
 51
58.6204295692675004
  0
ARC
  5
9EFA
  8
0
 10
499.3566160225166755
 20
61.1678785177936888
 30
0.0
 40
0.024130374519042
 50
58.1294516709004796
 51
96.3123840891179981
  0
ARC
  5
9EFB
  8
0
 10
499.0868034046488901
 20
61.2861260097362006
 30
0.0
 40
0.0534671569205122
 50
179.6885969461220895
 51
223.4478921051259022
  0
ARC
  5
9EFC
  8
0
 10
499.0809942456394879
 20
61.2806233558515174
 30
0.0
 40
0.0454655615689016
 50
223.4478921051245095
 51
330.7491790430233891
  0
ARC
  5
9EFD
  8
0
 10
499.0718570596401946
 20
61.2857405978623433
 30
0.0
 40
0.0559381130145598
 50
330.7491790430242986
 51
3.489653651248569
  0
ARC
  5
9EFE
  8
0
 10
499.0749369640822124
 20
61.2859284146509324
 30
0.0
 40
0.0528524872243534
 50
3.4896536512465381
 51
65.8201703392574871
  0
ARC
  5
9EFF
  8
0
 10
499.0793896808224872
 20
61.2958454945235403
 30
0.0
 40
0.041981647350174
 50
65.8201703392574871
 51
141.6146363588790109
  0
ARC
  5
9F00
  8
0
 10
499.0943244736395741
 20
61.284014534137043
 30
0.0
 40
0.0610347221717312
 50
141.6146363588790109
 51
177.7444978400521052
  0
ARC
  5
9F01
  8
0
 10
499.0805695604652783
 20
61.2944631000042506
 30
0.0
 40
0.0479130185980869
 50
189.6680495221831109
 51
242.7356635940438139
  0
ARC
  5
9F02
  8
0
 10
499.0804117694771094
 20
61.2953519411101411
 30
0.0
 40
0.0486339093795779
 50
243.3806131073388883
 51
319.1816686265815974
  0
ARC
  5
9F03
  8
0
 10
499.0843421567273026
 20
61.2919571268073966
 30
0.0
 40
0.0434403837865608
 50
319.1816686265865997
 51
356.2889464920315277
  0
ARC
  5
9F04
  8
0
 10
499.0803483455039782
 20
61.2921786713322305
 30
0.0
 40
0.0233994476309815
 50
95.9180226732875667
 51
178.0479019125145896
  0
ARC
  5
9F05
  8
0
 10
499.0795275250351892
 20
61.2922066479539112
 30
0.0
 40
0.0225781505268381
 50
178.0479019125133959
 51
269.85122309400532
  0
ARC
  5
9F06
  8
0
 10
499.0795356734678876
 20
61.2953447005360132
 30
0.0
 40
0.0257162136882436
 50
269.8512230940020231
 51
329.5960051758955842
  0
ARC
  5
9F07
  8
0
 10
499.0815335450795942
 20
61.2926211282699214
 30
0.0
 40
0.0226542509034798
 50
332.9817413851703236
 51
58.6204295692675004
  0
ARC
  5
9F08
  8
0
 10
499.08058884969779
 20
61.291469332842432
 30
0.0
 40
0.024130374519042
 50
58.1294516709004796
 51
96.3123840891179981
  0
ARC
  5
9F09
  8
0
 10
498.8990577668188848
 20
61.3594090780067276
 30
0.0
 40
0.0534671569205122
 50
179.6885969461220895
 51
223.4478921051259022
  0
ARC
  5
9F0A
  8
0
 10
498.8932486078095963
 20
61.3539064241220373
 30
0.0
 40
0.0454655615689016
 50
223.4478921051245095
 51
330.7491790430233891
  0
ARC
  5
9F0B
  8
0
 10
498.884111421810303
 20
61.3590236661328703
 30
0.0
 40
0.0559381130145598
 50
330.7491790430242986
 51
3.489653651248569
  0
ARC
  5
9F0C
  8
0
 10
498.8871913262522071
 20
61.3592114829214381
 30
0.0
 40
0.0528524872243534
 50
3.4896536512465381
 51
65.8201703392574871
  0
ARC
  5
9F0D
  8
0
 10
498.8916440429924819
 20
61.369128562794053
 30
0.0
 40
0.041981647350174
 50
65.8201703392574871
 51
141.6146363588790109
  0
ARC
  5
9F0E
  8
0
 10
498.9065788358096825
 20
61.3572976024075487
 30
0.0
 40
0.0610347221717312
 50
141.6146363588790109
 51
177.7444978400521052
  0
ARC
  5
9F0F
  8
0
 10
498.8928239226353867
 20
61.3677461682747705
 30
0.0
 40
0.0479130185980869
 50
189.6680495221831109
 51
242.7356635940438139
  0
ARC
  5
9F10
  8
0
 10
498.8926661316472178
 20
61.368635009380661
 30
0.0
 40
0.0486339093795779
 50
243.3806131073388883
 51
319.1816686265815974
  0
ARC
  5
9F11
  8
0
 10
498.8965965188972973
 20
61.3652401950779094
 30
0.0
 40
0.0434403837865608
 50
319.1816686265865997
 51
356.2889464920315277
  0
ARC
  5
9F12
  8
0
 10
498.8926027076739729
 20
61.3654617396027433
 30
0.0
 40
0.0233994476309815
 50
95.9180226732875667
 51
178.0479019125145896
  0
ARC
  5
9F13
  8
0
 10
498.8917818872051839
 20
61.3654897162244382
 30
0.0
 40
0.0225781505268381
 50
178.0479019125133959
 51
269.85122309400532
  0
ARC
  5
9F14
  8
0
 10
498.891790035637996
 20
61.3686277688065189
 30
0.0
 40
0.0257162136882436
 50
269.8512230940020231
 51
329.5960051758955842
  0
ARC
  5
9F15
  8
0
 10
498.8937879072495889
 20
61.3659041965404271
 30
0.0
 40
0.0226542509034798
 50
332.9817413851703236
 51
58.6204295692675004
  0
ARC
  5
9F16
  8
0
 10
498.8928432118678984
 20
61.364752401112959
 30
0.0
 40
0.024130374519042
 50
58.1294516709004796
 51
96.3123840891179981
  0
ARC
  5
9F17
  8
0
 10
499.4267201447950129
 20
60.7791090455104595
 30
0.0
 40
0.0534671569205122
 50
179.6885969461220895
 51
223.4478921051259022
  0
ARC
  5
9F18
  8
0
 10
499.4209109857854969
 20
60.7736063916257834
 30
0.0
 40
0.0454655615689016
 50
223.4478921051245095
 51
330.7491790430233891
  0
ARC
  5
9F19
  8
0
 10
499.4117737997863173
 20
60.7787236336366092
 30
0.0
 40
0.0559381130145598
 50
330.7491790430242986
 51
3.489653651248569
  0
ARC
  5
9F1A
  8
0
 10
499.4148537042282214
 20
60.7789114504251913
 30
0.0
 40
0.0528524872243534
 50
3.4896536512465381
 51
65.8201703392574871
  0
ARC
  5
9F1B
  8
0
 10
499.4193064209686099
 20
60.7888285302977991
 30
0.0
 40
0.041981647350174
 50
65.8201703392574871
 51
141.6146363588790109
  0
ARC
  5
9F1C
  8
0
 10
499.4342412137856968
 20
60.7769975699113019
 30
0.0
 40
0.0610347221717312
 50
141.6146363588790109
 51
177.7444978400521052
  0
ARC
  5
9F1D
  8
0
 10
499.4204863006115147
 20
60.7874461357785165
 30
0.0
 40
0.0479130185980869
 50
189.6680495221831109
 51
242.7356635940438139
  0
ARC
  5
9F1E
  8
0
 10
499.4203285096232889
 20
60.788334976884407
 30
0.0
 40
0.0486339093795779
 50
243.3806131073388883
 51
319.1816686265815974
  0
ARC
  5
9F1F
  8
0
 10
499.4242588968734253
 20
60.7849401625816483
 30
0.0
 40
0.0434403837865608
 50
319.1816686265865997
 51
356.2889464920315277
  0
ARC
  5
9F20
  8
0
 10
499.4202650856499872
 20
60.7851617071064894
 30
0.0
 40
0.0233994476309815
 50
95.9180226732875667
 51
178.0479019125145896
  0
ARC
  5
9F21
  8
0
 10
499.4194442651813119
 20
60.7851896837281913
 30
0.0
 40
0.0225781505268381
 50
178.0479019125133959
 51
269.85122309400532
  0
ARC
  5
9F22
  8
0
 10
499.4194524136140103
 20
60.7883277363102792
 30
0.0
 40
0.0257162136882436
 50
269.8512230940020231
 51
329.5960051758955842
  0
ARC
  5
9F23
  8
0
 10
499.4214502852257169
 20
60.7856041640441802
 30
0.0
 40
0.0226542509034798
 50
332.9817413851703236
 51
58.6204295692675004
  0
ARC
  5
9F24
  8
0
 10
499.4205055898439127
 20
60.7844523686167122
 30
0.0
 40
0.024130374519042
 50
58.1294516709004796
 51
96.3123840891179981
  0
ARC
  5
9F25
  8
0
 10
499.2815069538619923
 20
60.8099358008123687
 30
0.0
 40
0.0534671569205122
 50
179.6885969461220895
 51
223.4478921051259022
  0
ARC
  5
9F26
  8
0
 10
499.2756977948527037
 20
60.8044331469276997
 30
0.0
 40
0.0454655615689016
 50
223.4478921051245095
 51
330.7491790430233891
  0
ARC
  5
9F27
  8
0
 10
499.2665606088534105
 20
60.8095503889385185
 30
0.0
 40
0.0559381130145598
 50
330.7491790430242986
 51
3.489653651248569
  0
ARC
  5
9F28
  8
0
 10
499.2696405132953146
 20
60.8097382057271076
 30
0.0
 40
0.0528524872243534
 50
3.4896536512465381
 51
65.8201703392574871
  0
ARC
  5
9F29
  8
0
 10
499.2740932300357031
 20
60.8196552855997226
 30
0.0
 40
0.041981647350174
 50
65.8201703392574871
 51
141.6146363588790109
  0
ARC
  5
9F2A
  8
0
 10
499.2890280228527899
 20
60.8078243252132111
 30
0.0
 40
0.0610347221717312
 50
141.6146363588790109
 51
177.7444978400521052
  0
ARC
  5
9F2B
  8
0
 10
499.2752731096784942
 20
60.8182728910804329
 30
0.0
 40
0.0479130185980869
 50
189.6680495221831109
 51
242.7356635940438139
  0
ARC
  5
9F2C
  8
0
 10
499.2751153186903821
 20
60.8191617321863234
 30
0.0
 40
0.0486339093795779
 50
243.3806131073388883
 51
319.1816686265815974
  0
ARC
  5
9F2D
  8
0
 10
499.2790457059402911
 20
60.8157669178835718
 30
0.0
 40
0.0434403837865608
 50
319.1816686265865997
 51
356.2889464920315277
  0
ARC
  5
9F2E
  8
0
 10
499.2750518947170804
 20
60.8159884624083986
 30
0.0
 40
0.0233994476309815
 50
95.9180226732875667
 51
178.0479019125145896
  0
ARC
  5
9F2F
  8
0
 10
499.2742310742482914
 20
60.8160164390301006
 30
0.0
 40
0.0225781505268381
 50
178.0479019125133959
 51
269.85122309400532
  0
ARC
  5
9F30
  8
0
 10
499.2742392226809898
 20
60.8191544916122027
 30
0.0
 40
0.0257162136882436
 50
269.8512230940020231
 51
329.5960051758955842
  0
ARC
  5
9F31
  8
0
 10
499.2762370942926964
 20
60.8164309193460895
 30
0.0
 40
0.0226542509034798
 50
332.9817413851703236
 51
58.6204295692675004
  0
ARC
  5
9F32
  8
0
 10
499.2752923989110059
 20
60.8152791239186215
 30
0.0
 40
0.024130374519042
 50
58.1294516709004796
 51
96.3123840891179981
  0
ARC
  5
9F33
  8
0
 10
498.9880908076028163
 20
60.8658872212303521
 30
0.0
 40
0.0534671569205122
 50
179.6885969461220895
 51
223.4478921051259022
  0
ARC
  5
9F34
  8
0
 10
498.9822816485933004
 20
60.8603845673456831
 30
0.0
 40
0.0454655615689016
 50
223.4478921051245095
 51
330.7491790430233891
  0
ARC
  5
9F35
  8
0
 10
498.9731444625941776
 20
60.865501809356509
 30
0.0
 40
0.0559381130145598
 50
330.7491790430242986
 51
3.489653651248569
  0
ARC
  5
9F36
  8
0
 10
498.9762243670360249
 20
60.865689626145091
 30
0.0
 40
0.0528524872243534
 50
3.4896536512465381
 51
65.8201703392574871
  0
ARC
  5
9F37
  8
0
 10
498.9806770837764134
 20
60.8756067060176989
 30
0.0
 40
0.041981647350174
 50
65.8201703392574871
 51
141.6146363588790109
  0
ARC
  5
9F38
  8
0
 10
498.9956118765935003
 20
60.8637757456311874
 30
0.0
 40
0.0610347221717312
 50
141.6146363588790109
 51
177.7444978400521052
  0
ARC
  5
9F39
  8
0
 10
498.9818569634192045
 20
60.8742243114984234
 30
0.0
 40
0.0479130185980869
 50
189.6680495221831109
 51
242.7356635940438139
  0
ARC
  5
9F3A
  8
0
 10
498.9816991724309787
 20
60.8751131526043068
 30
0.0
 40
0.0486339093795779
 50
243.3806131073388883
 51
319.1816686265815974
  0
ARC
  5
9F3B
  8
0
 10
498.9856295596811151
 20
60.8717183383015481
 30
0.0
 40
0.0434403837865608
 50
319.1816686265865997
 51
356.2889464920315277
  0
ARC
  5
9F3C
  8
0
 10
498.9816357484577907
 20
60.871939882826382
 30
0.0
 40
0.0233994476309815
 50
95.9180226732875667
 51
178.0479019125145896
  0
ARC
  5
9F3D
  8
0
 10
498.9808149279890017
 20
60.8719678594480769
 30
0.0
 40
0.0225781505268381
 50
178.0479019125133959
 51
269.85122309400532
  0
ARC
  5
9F3E
  8
0
 10
498.9808230764217001
 20
60.875105912030179
 30
0.0
 40
0.0257162136882436
 50
269.8512230940020231
 51
329.5960051758955842
  0
ARC
  5
9F3F
  8
0
 10
498.9828209480334067
 20
60.87238233976408
 30
0.0
 40
0.0226542509034798
 50
332.9817413851703236
 51
58.6204295692675004
  0
ARC
  5
9F40
  8
0
 10
498.9818762526517162
 20
60.871230544336612
 30
0.0
 40
0.024130374519042
 50
58.1294516709004796
 51
96.3123840891179981
  0
ARC
  5
9F41
  8
0
 10
498.7903210422770144
 20
60.8958876666866473
 30
0.0
 40
0.0534671569205122
 50
179.6885969461220895
 51
223.4478921051259022
  0
ARC
  5
9F42
  8
0
 10
498.7845118832674984
 20
60.890385012801957
 30
0.0
 40
0.0454655615689016
 50
223.4478921051245095
 51
330.7491790430233891
  0
ARC
  5
9F43
  8
0
 10
498.7753746972683757
 20
60.8955022548127829
 30
0.0
 40
0.0559381130145598
 50
330.7491790430242986
 51
3.489653651248569
  0
ARC
  5
9F44
  8
0
 10
498.778454601710223
 20
60.895690071601372
 30
0.0
 40
0.0528524872243534
 50
3.4896536512465381
 51
65.8201703392574871
  0
ARC
  5
9F45
  8
0
 10
498.7829073184506115
 20
60.9056071514739799
 30
0.0
 40
0.041981647350174
 50
65.8201703392574871
 51
141.6146363588790109
  0
ARC
  5
9F46
  8
0
 10
498.7978421112676983
 20
60.8937761910874826
 30
0.0
 40
0.0610347221717312
 50
141.6146363588790109
 51
177.7444978400521052
  0
ARC
  5
9F47
  8
0
 10
498.7840871980934025
 20
60.9042247569546902
 30
0.0
 40
0.0479130185980869
 50
189.6680495221831109
 51
242.7356635940438139
  0
ARC
  5
9F48
  8
0
 10
498.7839294071051768
 20
60.9051135980605807
 30
0.0
 40
0.0486339093795779
 50
243.3806131073388883
 51
319.1816686265815974
  0
ARC
  5
9F49
  8
0
 10
498.7878597943553132
 20
60.9017187837578433
 30
0.0
 40
0.0434403837865608
 50
319.1816686265865997
 51
356.2889464920315277
  0
ARC
  5
9F4A
  8
0
 10
498.7838659831319887
 20
60.9019403282826701
 30
0.0
 40
0.0233994476309815
 50
95.9180226732875667
 51
178.0479019125145896
  0
ARC
  5
9F4B
  8
0
 10
498.7830451626631998
 20
60.9019683049043721
 30
0.0
 40
0.0225781505268381
 50
178.0479019125133959
 51
269.85122309400532
  0
ARC
  5
9F4C
  8
0
 10
498.7830533110958982
 20
60.9051063574864529
 30
0.0
 40
0.0257162136882436
 50
269.8512230940020231
 51
329.5960051758955842
  0
ARC
  5
9F4D
  8
0
 10
498.7850511827076048
 20
60.902382785220361
 30
0.0
 40
0.0226542509034798
 50
332.9817413851703236
 51
58.6204295692675004
  0
ARC
  5
9F4E
  8
0
 10
498.7841064873258006
 20
60.9012309897928787
 30
0.0
 40
0.024130374519042
 50
58.1294516709004796
 51
96.3123840891179981
  0
ARC
  5
9F4F
  8
0
 10
499.4268682001520006
 20
60.4468540148585234
 30
0.0
 40
0.0534671569205122
 50
179.6885969461220895
 51
223.4478921051259022
  0
ARC
  5
9F50
  8
0
 10
499.421059041142712
 20
60.4413513609738331
 30
0.0
 40
0.0454655615689016
 50
223.4478921051245095
 51
330.7491790430233891
  0
ARC
  5
9F51
  8
0
 10
499.4119218551434187
 20
60.446468602984659
 30
0.0
 40
0.0559381130145598
 50
330.7491790430242986
 51
3.489653651248569
  0
ARC
  5
9F52
  8
0
 10
499.4150017595853228
 20
60.446656419773241
 30
0.0
 40
0.0528524872243534
 50
3.4896536512465381
 51
65.8201703392574871
  0
ARC
  5
9F53
  8
0
 10
499.4194544763257113
 20
60.4565734996458488
 30
0.0
 40
0.041981647350174
 50
65.8201703392574871
 51
141.6146363588790109
  0
ARC
  5
9F54
  8
0
 10
499.4343892691427982
 20
60.4447425392593374
 30
0.0
 40
0.0610347221717312
 50
141.6146363588790109
 51
177.7444978400521052
  0
ARC
  5
9F55
  8
0
 10
499.4206343559685024
 20
60.4551911051265733
 30
0.0
 40
0.0479130185980869
 50
189.6680495221831109
 51
242.7356635940438139
  0
ARC
  5
9F56
  8
0
 10
499.4204765649802766
 20
60.4560799462324567
 30
0.0
 40
0.0486339093795779
 50
243.3806131073388883
 51
319.1816686265815974
  0
ARC
  5
9F57
  8
0
 10
499.424406952230413
 20
60.4526851319296981
 30
0.0
 40
0.0434403837865608
 50
319.1816686265865997
 51
356.2889464920315277
  0
ARC
  5
9F58
  8
0
 10
499.4204131410070886
 20
60.4529066764545391
 30
0.0
 40
0.0233994476309815
 50
95.9180226732875667
 51
178.0479019125145896
  0
ARC
  5
9F59
  8
0
 10
499.4195923205384133
 20
60.4529346530762268
 30
0.0
 40
0.0225781505268381
 50
178.0479019125133959
 51
269.85122309400532
  0
ARC
  5
9F5A
  8
0
 10
499.4196004689711117
 20
60.4560727056583431
 30
0.0
 40
0.0257162136882436
 50
269.8512230940020231
 51
329.5960051758955842
  0
ARC
  5
9F5B
  8
0
 10
499.4215983405828183
 20
60.4533491333922299
 30
0.0
 40
0.0226542509034798
 50
332.9817413851703236
 51
58.6204295692675004
  0
ARC
  5
9F5C
  8
0
 10
499.4206536452010141
 20
60.4521973379647477
 30
0.0
 40
0.024130374519042
 50
58.1294516709004796
 51
96.3123840891179981
  0
ARC
  5
9F5D
  8
0
 10
499.281009686706625
 20
60.4446096159024719
 30
0.0
 40
0.0534671569205122
 50
179.6885969461220895
 51
223.4478921051259022
  0
ARC
  5
9F5E
  8
0
 10
499.2752005276972227
 20
60.439106962017803
 30
0.0
 40
0.0454655615689016
 50
223.4478921051245095
 51
330.7491790430233891
  0
ARC
  5
9F5F
  8
0
 10
499.2660633416979863
 20
60.4442242040286004
 30
0.0
 40
0.0559381130145598
 50
330.7491790430242986
 51
3.489653651248569
  0
ARC
  5
9F60
  8
0
 10
499.2691432461397767
 20
60.4444120208171896
 30
0.0
 40
0.0528524872243534
 50
3.4896536512465381
 51
65.8201703392574871
  0
ARC
  5
9F61
  8
0
 10
499.2735959628801083
 20
60.4543291006898116
 30
0.0
 40
0.041981647350174
 50
65.8201703392574871
 51
141.6146363588790109
  0
ARC
  5
9F62
  8
0
 10
499.2885307556973089
 20
60.4424981403033001
 30
0.0
 40
0.0610347221717312
 50
141.6146363588790109
 51
177.7444978400521052
  0
ARC
  5
9F63
  8
0
 10
499.2747758425231268
 20
60.452946706170529
 30
0.0
 40
0.0479130185980869
 50
189.6680495221831109
 51
242.7356635940438139
  0
ARC
  5
9F64
  8
0
 10
499.2746180515347874
 20
60.4538355472763982
 30
0.0
 40
0.0486339093795779
 50
243.3806131073388883
 51
319.1816686265815974
  0
ARC
  5
9F65
  8
0
 10
499.2785484387849237
 20
60.4504407329736466
 30
0.0
 40
0.0434403837865608
 50
319.1816686265865997
 51
356.2889464920315277
  0
ARC
  5
9F66
  8
0
 10
499.2745546275615993
 20
60.4506622774985019
 30
0.0
 40
0.0233994476309815
 50
95.9180226732875667
 51
178.0479019125145896
  0
ARC
  5
9F67
  8
0
 10
499.2737338070928104
 20
60.4506902541201825
 30
0.0
 40
0.0225781505268381
 50
178.0479019125133959
 51
269.85122309400532
  0
ARC
  5
9F68
  8
0
 10
499.2737419555255087
 20
60.4538283067022775
 30
0.0
 40
0.0257162136882436
 50
269.8512230940020231
 51
329.5960051758955842
  0
ARC
  5
9F69
  8
0
 10
499.2757398271372153
 20
60.4511047344361927
 30
0.0
 40
0.0226542509034798
 50
332.9817413851703236
 51
58.6204295692675004
  0
ARC
  5
9F6A
  8
0
 10
499.2747951317554111
 20
60.4499529390087034
 30
0.0
 40
0.024130374519042
 50
58.1294516709004796
 51
96.3123840891179981
  0
ARC
  5
9F6B
  8
0
 10
498.9872477044095831
 20
60.4369932679793678
 30
0.0
 40
0.0534671569205122
 50
179.6885969461220895
 51
223.4478921051259022
  0
ARC
  5
9F6C
  8
0
 10
498.9814385454001808
 20
60.4314906140946917
 30
0.0
 40
0.0454655615689016
 50
223.4478921051245095
 51
330.7491790430233891
  0
ARC
  5
9F6D
  8
0
 10
498.9723013594010013
 20
60.4366078561055105
 30
0.0
 40
0.0559381130145598
 50
330.7491790430242986
 51
3.489653651248569
  0
ARC
  5
9F6E
  8
0
 10
498.9753812638427917
 20
60.4367956728940996
 30
0.0
 40
0.0528524872243534
 50
3.4896536512465381
 51
65.8201703392574871
  0
ARC
  5
9F6F
  8
0
 10
498.9798339805831802
 20
60.4467127527667003
 30
0.0
 40
0.041981647350174
 50
65.8201703392574871
 51
141.6146363588790109
  0
ARC
  5
9F70
  8
0
 10
498.9947687734003239
 20
60.4348817923802031
 30
0.0
 40
0.0610347221717312
 50
141.6146363588790109
 51
177.7444978400521052
  0
ARC
  5
9F71
  8
0
 10
498.9810138602260849
 20
60.4453303582474177
 30
0.0
 40
0.0479130185980869
 50
189.6680495221831109
 51
242.7356635940438139
  0
ARC
  5
9F72
  8
0
 10
498.980856069237916
 20
60.4462191993533082
 30
0.0
 40
0.0486339093795779
 50
243.3806131073388883
 51
319.1816686265815974
  0
ARC
  5
9F73
  8
0
 10
498.9847864564879956
 20
60.4428243850505709
 30
0.0
 40
0.0434403837865608
 50
319.1816686265865997
 51
356.2889464920315277
  0
ARC
  5
9F74
  8
0
 10
498.980792645264728
 20
60.4430459295753977
 30
0.0
 40
0.0233994476309815
 50
95.9180226732875667
 51
178.0479019125145896
  0
ARC
  5
9F75
  8
0
 10
498.9799718247958822
 20
60.4430739061970925
 30
0.0
 40
0.0225781505268381
 50
178.0479019125133959
 51
269.85122309400532
  0
ARC
  5
9F76
  8
0
 10
498.9799799732285805
 20
60.4462119587791875
 30
0.0
 40
0.0257162136882436
 50
269.8512230940020231
 51
329.5960051758955842
  0
ARC
  5
9F77
  8
0
 10
498.9819778448402872
 20
60.4434883865130885
 30
0.0
 40
0.0226542509034798
 50
332.9817413851703236
 51
58.6204295692675004
  0
ARC
  5
9F78
  8
0
 10
498.981033149458483
 20
60.4423365910856134
 30
0.0
 40
0.024130374519042
 50
58.1294516709004796
 51
96.3123840891179981
  0
ARC
  5
9F79
  8
0
 10
498.7931300700490169
 20
60.4252312369073721
 30
0.0
 40
0.0534671569205122
 50
179.6885969461220895
 51
223.4478921051259022
  0
ARC
  5
9F7A
  8
0
 10
498.7873209110396147
 20
60.4197285830226889
 30
0.0
 40
0.0454655615689016
 50
223.4478921051245095
 51
330.7491790430233891
  0
ARC
  5
9F7B
  8
0
 10
498.7781837250403782
 20
60.4248458250335077
 30
0.0
 40
0.0559381130145598
 50
330.7491790430242986
 51
3.489653651248569
  0
ARC
  5
9F7C
  8
0
 10
498.7812636294822255
 20
60.4250336418220897
 30
0.0
 40
0.0528524872243534
 50
3.4896536512465381
 51
65.8201703392574871
  0
ARC
  5
9F7D
  8
0
 10
498.7857163462227277
 20
60.4349507216947117
 30
0.0
 40
0.041981647350174
 50
65.8201703392574871
 51
141.6146363588790109
  0
ARC
  5
9F7E
  8
0
 10
498.8006511390397009
 20
60.4231197613082074
 30
0.0
 40
0.0610347221717312
 50
141.6146363588790109
 51
177.7444978400521052
  0
ARC
  5
9F7F
  8
0
 10
498.7868962258655188
 20
60.4335683271754291
 30
0.0
 40
0.0479130185980869
 50
189.6680495221831109
 51
242.7356635940438139
  0
ARC
  5
9F80
  8
0
 10
498.786738434877293
 20
60.4344571682813125
 30
0.0
 40
0.0486339093795779
 50
243.3806131073388883
 51
319.1816686265815974
  0
ARC
  5
9F81
  8
0
 10
498.7906688221273726
 20
60.4310623539785468
 30
0.0
 40
0.0434403837865608
 50
319.1816686265865997
 51
356.2889464920315277
  0
ARC
  5
9F82
  8
0
 10
498.786675010904105
 20
60.431283898503402
 30
0.0
 40
0.0233994476309815
 50
95.9180226732875667
 51
178.0479019125145896
  0
ARC
  5
9F83
  8
0
 10
498.785854190435316
 20
60.4313118751250826
 30
0.0
 40
0.0225781505268381
 50
178.0479019125133959
 51
269.85122309400532
  0
ARC
  5
9F84
  8
0
 10
498.7858623388681281
 20
60.4344499277071918
 30
0.0
 40
0.0257162136882436
 50
269.8512230940020231
 51
329.5960051758955842
  0
ARC
  5
9F85
  8
0
 10
498.7878602104797778
 20
60.4317263554410928
 30
0.0
 40
0.0226542509034798
 50
332.9817413851703236
 51
58.6204295692675004
  0
ARC
  5
9F86
  8
0
 10
498.7869155150979168
 20
60.4305745600136035
 30
0.0
 40
0.024130374519042
 50
58.1294516709004796
 51
96.3123840891179981
  0
ARC
  5
9F87
  8
0
 10
499.5037071131453104
 20
60.1195985965526987
 30
0.0
 40
0.0534671569205122
 50
179.6885969461220895
 51
223.4478921051259022
  0
ARC
  5
9F88
  8
0
 10
499.4978979541357944
 20
60.1140959426680226
 30
0.0
 40
0.0454655615689016
 50
223.4478921051245095
 51
330.7491790430233891
  0
ARC
  5
9F89
  8
0
 10
499.4887607681366148
 20
60.1192131846788413
 30
0.0
 40
0.0559381130145598
 50
330.7491790430242986
 51
3.489653651248569
  0
ARC
  5
9F8A
  8
0
 10
499.4918406725785189
 20
60.1194010014674092
 30
0.0
 40
0.0528524872243534
 50
3.4896536512465381
 51
65.8201703392574871
  0
ARC
  5
9F8B
  8
0
 10
499.4962933893189074
 20
60.1293180813400383
 30
0.0
 40
0.041981647350174
 50
65.8201703392574871
 51
141.6146363588790109
  0
ARC
  5
9F8C
  8
0
 10
499.5112281821359943
 20
60.1174871209535411
 30
0.0
 40
0.0610347221717312
 50
141.6146363588790109
 51
177.7444978400521052
  0
ARC
  5
9F8D
  8
0
 10
499.4974732689618122
 20
60.1279356868207486
 30
0.0
 40
0.0479130185980869
 50
189.6680495221831109
 51
242.7356635940438139
  0
ARC
  5
9F8E
  8
0
 10
499.4973154779735864
 20
60.128824527926632
 30
0.0
 40
0.0486339093795779
 50
243.3806131073388883
 51
319.1816686265815974
  0
ARC
  5
9F8F
  8
0
 10
499.5012458652236091
 20
60.1254297136238804
 30
0.0
 40
0.0434403837865608
 50
319.1816686265865997
 51
356.2889464920315277
  0
ARC
  5
9F90
  8
0
 10
499.4972520540002847
 20
60.1256512581487286
 30
0.0
 40
0.0233994476309815
 50
95.9180226732875667
 51
178.0479019125145896
  0
ARC
  5
9F91
  8
0
 10
499.4964312335316095
 20
60.1256792347704092
 30
0.0
 40
0.0225781505268381
 50
178.0479019125133959
 51
269.85122309400532
  0
ARC
  5
9F92
  8
0
 10
499.4964393819643078
 20
60.1288172873525113
 30
0.0
 40
0.0257162136882436
 50
269.8512230940020231
 51
329.5960051758955842
  0
ARC
  5
9F93
  8
0
 10
499.4984372535760144
 20
60.1260937150864123
 30
0.0
 40
0.0226542509034798
 50
332.9817413851703236
 51
58.6204295692675004
  0
ARC
  5
9F94
  8
0
 10
499.4974925581940965
 20
60.1249419196589301
 30
0.0
 40
0.024130374519042
 50
58.1294516709004796
 51
96.3123840891179981
  0
ARC
  5
9F95
  8
0
 10
499.3626494543642025
 20
60.0888751218021895
 30
0.0
 40
0.0534671569205122
 50
179.6885969461220895
 51
223.4478921051259022
  0
ARC
  5
9F96
  8
0
 10
499.3568402953549139
 20
60.0833724679174992
 30
0.0
 40
0.0454655615689016
 50
223.4478921051245095
 51
330.7491790430233891
  0
ARC
  5
9F97
  8
0
 10
499.3477031093556207
 20
60.0884897099283322
 30
0.0
 40
0.0559381130145598
 50
330.7491790430242986
 51
3.489653651248569
  0
ARC
  5
9F98
  8
0
 10
499.3507830137975247
 20
60.0886775267169071
 30
0.0
 40
0.0528524872243534
 50
3.4896536512465381
 51
65.8201703392574871
  0
ARC
  5
9F99
  8
0
 10
499.3552357305380269
 20
60.098594606589522
 30
0.0
 40
0.041981647350174
 50
65.8201703392574871
 51
141.6146363588790109
  0
ARC
  5
9F9A
  8
0
 10
499.3701705233550001
 20
60.0867636462030177
 30
0.0
 40
0.0610347221717312
 50
141.6146363588790109
 51
177.7444978400521052
  0
ARC
  5
9F9B
  8
0
 10
499.356415610180818
 20
60.0972122120702394
 30
0.0
 40
0.0479130185980869
 50
189.6680495221831109
 51
242.7356635940438139
  0
ARC
  5
9F9C
  8
0
 10
499.3562578191925923
 20
60.0981010531761299
 30
0.0
 40
0.0486339093795779
 50
243.3806131073388883
 51
319.1816686265815974
  0
ARC
  5
9F9D
  8
0
 10
499.360188206442615
 20
60.0947062388733784
 30
0.0
 40
0.0434403837865608
 50
319.1816686265865997
 51
356.2889464920315277
  0
ARC
  5
9F9E
  8
0
 10
499.3561943952192905
 20
60.0949277833982123
 30
0.0
 40
0.0233994476309815
 50
95.9180226732875667
 51
178.0479019125145896
  0
ARC
  5
9F9F
  8
0
 10
499.3553735747505016
 20
60.0949557600199071
 30
0.0
 40
0.0225781505268381
 50
178.0479019125133959
 51
269.85122309400532
  0
ARC
  5
9FA0
  8
0
 10
499.3553817231833136
 20
60.0980938126020021
 30
0.0
 40
0.0257162136882436
 50
269.8512230940020231
 51
329.5960051758955842
  0
ARC
  5
9FA1
  8
0
 10
499.3573795947950202
 20
60.0953702403359102
 30
0.0
 40
0.0226542509034798
 50
332.9817413851703236
 51
58.6204295692675004
  0
ARC
  5
9FA2
  8
0
 10
499.356434899413216
 20
60.094218444908428
 30
0.0
 40
0.024130374519042
 50
58.1294516709004796
 51
96.3123840891179981
  0
ARC
  5
9FA3
  8
0
 10
499.0827660699221155
 20
60.0150646336936617
 30
0.0
 40
0.0534671569205122
 50
179.6885969461220895
 51
223.4478921051259022
  0
ARC
  5
9FA4
  8
0
 10
499.076956910912827
 20
60.0095619798089785
 30
0.0
 40
0.0454655615689016
 50
223.4478921051245095
 51
330.7491790430233891
  0
ARC
  5
9FA5
  8
0
 10
499.0678197249134769
 20
60.0146792218198115
 30
0.0
 40
0.0559381130145598
 50
330.7491790430242986
 51
3.489653651248569
  0
ARC
  5
9FA6
  8
0
 10
499.070899629355381
 20
60.0148670386083865
 30
0.0
 40
0.0528524872243534
 50
3.4896536512465381
 51
65.8201703392574871
  0
ARC
  5
9FA7
  8
0
 10
499.0753523460958263
 20
60.0247841184810014
 30
0.0
 40
0.041981647350174
 50
65.8201703392574871
 51
141.6146363588790109
  0
ARC
  5
9FA8
  8
0
 10
499.0902871389129132
 20
60.012953158094497
 30
0.0
 40
0.0610347221717312
 50
141.6146363588790109
 51
177.7444978400521052
  0
ARC
  5
9FA9
  8
0
 10
499.0765322257386174
 20
60.0234017239617188
 30
0.0
 40
0.0479130185980869
 50
189.6680495221831109
 51
242.7356635940438139
  0
ARC
  5
9FAA
  8
0
 10
499.0763744347503916
 20
60.0242905650676093
 30
0.0
 40
0.0486339093795779
 50
243.3806131073388883
 51
319.1816686265815974
  0
ARC
  5
9FAB
  8
0
 10
499.080304822000528
 20
60.0208957507648506
 30
0.0
 40
0.0434403837865608
 50
319.1816686265865997
 51
356.2889464920315277
  0
ARC
  5
9FAC
  8
0
 10
499.0763110107772036
 20
60.0211172952896916
 30
0.0
 40
0.0233994476309815
 50
95.9180226732875667
 51
178.0479019125145896
  0
ARC
  5
9FAD
  8
0
 10
499.0754901903084146
 20
60.0211452719113865
 30
0.0
 40
0.0225781505268381
 50
178.0479019125133959
 51
269.85122309400532
  0
ARC
  5
9FAE
  8
0
 10
499.075498338741113
 20
60.0242833244934886
 30
0.0
 40
0.0257162136882436
 50
269.8512230940020231
 51
329.5960051758955842
  0
ARC
  5
9FAF
  8
0
 10
499.0774962103528196
 20
60.0215597522273825
 30
0.0
 40
0.0226542509034798
 50
332.9817413851703236
 51
58.6204295692675004
  0
ARC
  5
9FB0
  8
0
 10
499.0765515149710723
 20
60.0204079567999074
 30
0.0
 40
0.024130374519042
 50
58.1294516709004796
 51
96.3123840891179981
  0
ARC
  5
9FB1
  8
0
 10
498.9004629667069821
 20
59.9654812100805188
 30
0.0
 40
0.0534671569205122
 50
179.6885969461220895
 51
223.4478921051259022
  0
ARC
  5
9FB2
  8
0
 10
498.8946538076975799
 20
59.9599785561958427
 30
0.0
 40
0.0454655615689016
 50
223.4478921051245095
 51
330.7491790430233891
  0
ARC
  5
9FB3
  8
0
 10
498.885516621698514
 20
59.9650957982066686
 30
0.0
 40
0.0559381130145598
 50
330.7491790430242986
 51
3.489653651248569
  0
ARC
  5
9FB4
  8
0
 10
498.8885965261403044
 20
59.9652836149952506
 30
0.0
 40
0.0528524872243534
 50
3.4896536512465381
 51
65.8201703392574871
  0
ARC
  5
9FB5
  8
0
 10
498.8930492428805792
 20
59.9752006948678513
 30
0.0
 40
0.041981647350174
 50
65.8201703392574871
 51
141.6146363588790109
  0
ARC
  5
9FB6
  8
0
 10
498.9079840356977797
 20
59.963369734481347
 30
0.0
 40
0.0610347221717312
 50
141.6146363588790109
 51
177.7444978400521052
  0
ARC
  5
9FB7
  8
0
 10
498.894229122523484
 20
59.9738183003485688
 30
0.0
 40
0.0479130185980869
 50
189.6680495221831109
 51
242.7356635940438139
  0
ARC
  5
9FB8
  8
0
 10
498.894071331535315
 20
59.9747071414544592
 30
0.0
 40
0.0486339093795779
 50
243.3806131073388883
 51
319.1816686265815974
  0
ARC
  5
9FB9
  8
0
 10
498.8980017187853946
 20
59.9713123271517219
 30
0.0
 40
0.0434403837865608
 50
319.1816686265865997
 51
356.2889464920315277
  0
ARC
  5
9FBA
  8
0
 10
498.894007907562127
 20
59.9715338716765487
 30
0.0
 40
0.0233994476309815
 50
95.9180226732875667
 51
178.0479019125145896
  0
ARC
  5
9FBB
  8
0
 10
498.8931870870932812
 20
59.9715618482982435
 30
0.0
 40
0.0225781505268381
 50
178.0479019125133959
 51
269.85122309400532
  0
ARC
  5
9FBC
  8
0
 10
498.8931952355259796
 20
59.9746999008803527
 30
0.0
 40
0.0257162136882436
 50
269.8512230940020231
 51
329.5960051758955842
  0
ARC
  5
9FBD
  8
0
 10
498.8951931071376862
 20
59.9719763286142395
 30
0.0
 40
0.0226542509034798
 50
332.9817413851703236
 51
58.6204295692675004
  0
ARC
  5
9FBE
  8
0
 10
498.894248411755882
 20
59.9708245331867573
 30
0.0
 40
0.024130374519042
 50
58.1294516709004796
 51
96.3123840891179981
  0
ARC
  5
9FBF
  8
0
 10
499.6532794766403072
 20
59.81960780571832
 30
0.0
 40
0.0534671569205122
 50
179.6885969461220895
 51
223.4478921051259022
  0
ARC
  5
9FC0
  8
0
 10
499.6474703176310186
 20
59.8141051518336297
 30
0.0
 40
0.0454655615689016
 50
223.4478921051245095
 51
330.7491790430233891
  0
ARC
  5
9FC1
  8
0
 10
499.6383331316317822
 20
59.8192223938444485
 30
0.0
 40
0.0559381130145598
 50
330.7491790430242986
 51
3.489653651248569
  0
ARC
  5
9FC2
  8
0
 10
499.6414130360736863
 20
59.8194102106330305
 30
0.0
 40
0.0528524872243534
 50
3.4896536512465381
 51
65.8201703392574871
  0
ARC
  5
9FC3
  8
0
 10
499.6458657528140179
 20
59.8293272905056313
 30
0.0
 40
0.041981647350174
 50
65.8201703392574871
 51
141.6146363588790109
  0
ARC
  5
9FC4
  8
0
 10
499.6608005456312185
 20
59.8174963301191269
 30
0.0
 40
0.0610347221717312
 50
141.6146363588790109
 51
177.7444978400521052
  0
ARC
  5
9FC5
  8
0
 10
499.6470456324569227
 20
59.8279448959863487
 30
0.0
 40
0.0479130185980869
 50
189.6680495221831109
 51
242.7356635940438139
  0
ARC
  5
9FC6
  8
0
 10
499.6468878414686969
 20
59.8288337370922392
 30
0.0
 40
0.0486339093795779
 50
243.3806131073388883
 51
319.1816686265815974
  0
ARC
  5
9FC7
  8
0
 10
499.6508182287187196
 20
59.8254389227895018
 30
0.0
 40
0.0434403837865608
 50
319.1816686265865997
 51
356.2889464920315277
  0
ARC
  5
9FC8
  8
0
 10
499.6468244174955089
 20
59.8256604673143286
 30
0.0
 40
0.0233994476309815
 50
95.9180226732875667
 51
178.0479019125145896
  0
ARC
  5
9FC9
  8
0
 10
499.6460035970267199
 20
59.8256884439360235
 30
0.0
 40
0.0225781505268381
 50
178.0479019125133959
 51
269.85122309400532
  0
ARC
  5
9FCA
  8
0
 10
499.6460117454594183
 20
59.8288264965181327
 30
0.0
 40
0.0257162136882436
 50
269.8512230940020231
 51
329.5960051758955842
  0
ARC
  5
9FCB
  8
0
 10
499.6480096170711249
 20
59.8261029242520195
 30
0.0
 40
0.0226542509034798
 50
332.9817413851703236
 51
58.6204295692675004
  0
ARC
  5
9FCC
  8
0
 10
499.6470649216893207
 20
59.8249511288245372
 30
0.0
 40
0.024130374519042
 50
58.1294516709004796
 51
96.3123840891179981
  0
ARC
  5
9FCD
  8
0
 10
499.5272576522467034
 20
59.7609594206739914
 30
0.0
 40
0.0534671569205122
 50
179.6885969461220895
 51
223.4478921051259022
  0
ARC
  5
9FCE
  8
0
 10
499.5214484932373011
 20
59.7554567667893011
 30
0.0
 40
0.0454655615689016
 50
223.4478921051245095
 51
330.7491790430233891
  0
ARC
  5
9FCF
  8
0
 10
499.5123113072380079
 20
59.7605740088001198
 30
0.0
 40
0.0559381130145598
 50
330.7491790430242986
 51
3.489653651248569
  0
ARC
  5
9FD0
  8
0
 10
499.515391211679912
 20
59.760761825588709
 30
0.0
 40
0.0528524872243534
 50
3.4896536512465381
 51
65.8201703392574871
  0
ARC
  5
9FD1
  8
0
 10
499.5198439284203005
 20
59.7706789054613097
 30
0.0
 40
0.041981647350174
 50
65.8201703392574871
 51
141.6146363588790109
  0
ARC
  5
9FD2
  8
0
 10
499.5347787212373873
 20
59.7588479450748125
 30
0.0
 40
0.0610347221717312
 50
141.6146363588790109
 51
177.7444978400521052
  0
ARC
  5
9FD3
  8
0
 10
499.5210238080630916
 20
59.7692965109420271
 30
0.0
 40
0.0479130185980869
 50
189.6680495221831109
 51
242.7356635940438139
  0
ARC
  5
9FD4
  8
0
 10
499.5208660170749795
 20
59.7701853520479176
 30
0.0
 40
0.0486339093795779
 50
243.3806131073388883
 51
319.1816686265815974
  0
ARC
  5
9FD5
  8
0
 10
499.5247964043250022
 20
59.7667905377451802
 30
0.0
 40
0.0434403837865608
 50
319.1816686265865997
 51
356.2889464920315277
  0
ARC
  5
9FD6
  8
0
 10
499.5208025931016778
 20
59.7670120822700071
 30
0.0
 40
0.0233994476309815
 50
95.9180226732875667
 51
178.0479019125145896
  0
ARC
  5
9FD7
  8
0
 10
499.5199817726328888
 20
59.7670400588917019
 30
0.0
 40
0.0225781505268381
 50
178.0479019125133959
 51
269.85122309400532
  0
ARC
  5
9FD8
  8
0
 10
499.5199899210657009
 20
59.7701781114737969
 30
0.0
 40
0.0257162136882436
 50
269.8512230940020231
 51
329.5960051758955842
  0
ARC
  5
9FD9
  8
0
 10
499.5219877926772938
 20
59.7674545392076979
 30
0.0
 40
0.0226542509034798
 50
332.9817413851703236
 51
58.6204295692675004
  0
ARC
  5
9FDA
  8
0
 10
499.5210430972954896
 20
59.7663027437802228
 30
0.0
 40
0.024130374519042
 50
58.1294516709004796
 51
96.3123840891179981
  0
ARC
  5
9FDB
  8
0
 10
499.2761135149297047
 20
59.6327350544097072
 30
0.0
 40
0.0534671569205122
 50
179.6885969461220895
 51
223.4478921051259022
  0
ARC
  5
9FDC
  8
0
 10
499.2703043559203024
 20
59.6272324005250169
 30
0.0
 40
0.0454655615689016
 50
223.4478921051245095
 51
330.7491790430233891
  0
ARC
  5
9FDD
  8
0
 10
499.2611671699211229
 20
59.6323496425358499
 30
0.0
 40
0.0559381130145598
 50
330.7491790430242986
 51
3.489653651248569
  0
ARC
  5
9FDE
  8
0
 10
499.264247074363027
 20
59.6325374593244319
 30
0.0
 40
0.0528524872243534
 50
3.4896536512465381
 51
65.8201703392574871
  0
ARC
  5
9FDF
  8
0
 10
499.2686997911034155
 20
59.6424545391970398
 30
0.0
 40
0.041981647350174
 50
65.8201703392574871
 51
141.6146363588790109
  0
ARC
  5
9FE0
  8
0
 10
499.2836345839203886
 20
59.6306235788105283
 30
0.0
 40
0.0610347221717312
 50
141.6146363588790109
 51
177.7444978400521052
  0
ARC
  5
9FE1
  8
0
 10
499.2698796707462066
 20
59.6410721446777572
 30
0.0
 40
0.0479130185980869
 50
189.6680495221831109
 51
242.7356635940438139
  0
ARC
  5
9FE2
  8
0
 10
499.2697218797579808
 20
59.6419609857836477
 30
0.0
 40
0.0486339093795779
 50
243.3806131073388883
 51
319.1816686265815974
  0
ARC
  5
9FE3
  8
0
 10
499.2736522670081172
 20
59.638566171480889
 30
0.0
 40
0.0434403837865608
 50
319.1816686265865997
 51
356.2889464920315277
  0
ARC
  5
9FE4
  8
0
 10
499.2696584557846791
 20
59.63878771600573
 30
0.0
 40
0.0233994476309815
 50
95.9180226732875667
 51
178.0479019125145896
  0
ARC
  5
9FE5
  8
0
 10
499.2688376353161175
 20
59.6388156926274178
 30
0.0
 40
0.0225781505268381
 50
178.0479019125133959
 51
269.85122309400532
  0
ARC
  5
9FE6
  8
0
 10
499.2688457837488158
 20
59.6419537452095128
 30
0.0
 40
0.0257162136882436
 50
269.8512230940020231
 51
329.5960051758955842
  0
ARC
  5
9FE7
  8
0
 10
499.2708436553605225
 20
59.6392301729434209
 30
0.0
 40
0.0226542509034798
 50
332.9817413851703236
 51
58.6204295692675004
  0
ARC
  5
9FE8
  8
0
 10
499.2698989599786046
 20
59.6380783775159529
 30
0.0
 40
0.024130374519042
 50
58.1294516709004796
 51
96.3123840891179981
  0
ARC
  5
9FE9
  8
0
 10
499.1111789919646071
 20
59.5417560195835378
 30
0.0
 40
0.0534671569205122
 50
179.6885969461220895
 51
223.4478921051259022
  0
ARC
  5
9FEA
  8
0
 10
499.1053698329550912
 20
59.5362533656988617
 30
0.0
 40
0.0454655615689016
 50
223.4478921051245095
 51
330.7491790430233891
  0
ARC
  5
9FEB
  8
0
 10
499.0962326469559116
 20
59.5413706077096805
 30
0.0
 40
0.0559381130145598
 50
330.7491790430242986
 51
3.489653651248569
  0
ARC
  5
9FEC
  8
0
 10
499.0993125513978157
 20
59.5415584244982696
 30
0.0
 40
0.0528524872243534
 50
3.4896536512465381
 51
65.8201703392574871
  0
ARC
  5
9FED
  8
0
 10
499.1037652681382042
 20
59.5514755043708774
 30
0.0
 40
0.041981647350174
 50
65.8201703392574871
 51
141.6146363588790109
  0
ARC
  5
9FEE
  8
0
 10
499.1187000609552911
 20
59.5396445439843802
 30
0.0
 40
0.0610347221717312
 50
141.6146363588790109
 51
177.7444978400521052
  0
ARC
  5
9FEF
  8
0
 10
499.1049451477809953
 20
59.5500931098515878
 30
0.0
 40
0.0479130185980869
 50
189.6680495221831109
 51
242.7356635940438139
  0
ARC
  5
9FF0
  8
0
 10
499.1047873567928832
 20
59.5509819509574783
 30
0.0
 40
0.0486339093795779
 50
243.3806131073388883
 51
319.1816686265815974
  0
ARC
  5
9FF1
  8
0
 10
499.1087177440427922
 20
59.5475871366547267
 30
0.0
 40
0.0434403837865608
 50
319.1816686265865997
 51
356.2889464920315277
  0
ARC
  5
9FF2
  8
0
 10
499.1047239328195815
 20
59.5478086811795677
 30
0.0
 40
0.0233994476309815
 50
95.9180226732875667
 51
178.0479019125145896
  0
ARC
  5
9FF3
  8
0
 10
499.1039031123507925
 20
59.5478366578012626
 30
0.0
 40
0.0225781505268381
 50
178.0479019125133959
 51
269.85122309400532
  0
ARC
  5
9FF4
  8
0
 10
499.1039112607834909
 20
59.5509747103833575
 30
0.0
 40
0.0257162136882436
 50
269.8512230940020231
 51
329.5960051758955842
  0
ARC
  5
9FF5
  8
0
 10
499.1059091323951975
 20
59.5482511381172515
 30
0.0
 40
0.0226542509034798
 50
332.9817413851703236
 51
58.6204295692675004
  0
ARC
  5
9FF6
  8
0
 10
499.1049644370133933
 20
59.5470993426897834
 30
0.0
 40
0.024130374519042
 50
58.1294516709004796
 51
96.3123840891179981
  0
ARC
  5
9FF7
  8
0
 10
499.8628467176307026
 20
59.5639391800364422
 30
0.0
 40
0.0534671569205122
 50
179.6885969461220895
 51
223.4478921051259022
  0
ARC
  5
9FF8
  8
0
 10
499.8570375586214141
 20
59.5584365261517519
 30
0.0
 40
0.0454655615689016
 50
223.4478921051245095
 51
330.7491790430233891
  0
ARC
  5
9FF9
  8
0
 10
499.8479003726221208
 20
59.5635537681625706
 30
0.0
 40
0.0559381130145598
 50
330.7491790430242986
 51
3.489653651248569
  0
ARC
  5
9FFA
  8
0
 10
499.8509802770640249
 20
59.5637415849511527
 30
0.0
 40
0.0528524872243534
 50
3.4896536512465381
 51
65.8201703392574871
  0
ARC
  5
9FFB
  8
0
 10
499.8554329938044134
 20
59.5736586648237605
 30
0.0
 40
0.041981647350174
 50
65.8201703392574871
 51
141.6146363588790109
  0
ARC
  5
9FFC
  8
0
 10
499.8703677866215003
 20
59.5618277044372491
 30
0.0
 40
0.0610347221717312
 50
141.6146363588790109
 51
177.7444978400521052
  0
ARC
  5
9FFD
  8
0
 10
499.8566128734473182
 20
59.5722762703044779
 30
0.0
 40
0.0479130185980869
 50
189.6680495221831109
 51
242.7356635940438139
  0
ARC
  5
9FFE
  8
0
 10
499.8564550824590924
 20
59.5731651114103684
 30
0.0
 40
0.0486339093795779
 50
243.3806131073388883
 51
319.1816686265815974
  0
ARC
  5
9FFF
  8
0
 10
499.8603854697091151
 20
59.5697702971076168
 30
0.0
 40
0.0434403837865608
 50
319.1816686265865997
 51
356.2889464920315277
  0
ARC
  5
A000
  8
0
 10
499.856391658485677
 20
59.5699918416324508
 30
0.0
 40
0.0233994476309815
 50
95.9180226732875667
 51
178.0479019125145896
  0
ARC
  5
A001
  8
0
 10
499.8555708380171154
 20
59.5700198182541385
 30
0.0
 40
0.0225781505268381
 50
178.0479019125133959
 51
269.85122309400532
  0
ARC
  5
A002
  8
0
 10
499.8555789864497001
 20
59.5731578708362335
 30
0.0
 40
0.0257162136882436
 50
269.8512230940020231
 51
329.5960051758955842
  0
ARC
  5
A003
  8
0
 10
499.8575768580614067
 20
59.5704342985701416
 30
0.0
 40
0.0226542509034798
 50
332.9817413851703236
 51
58.6204295692675004
  0
ARC
  5
A004
  8
0
 10
499.8566321626796025
 20
59.5692825031426594
 30
0.0
 40
0.024130374519042
 50
58.1294516709004796
 51
96.3123840891179981
  0
ARC
  5
A005
  8
0
 10
499.7610018633915843
 20
59.4766693513504023
 30
0.0
 40
0.0534671569205122
 50
179.6885969461220895
 51
223.4478921051259022
  0
ARC
  5
A006
  8
0
 10
499.755192704382182
 20
59.4711666974657334
 30
0.0
 40
0.0454655615689016
 50
223.4478921051245095
 51
330.7491790430233891
  0
ARC
  5
A007
  8
0
 10
499.7460555183828887
 20
59.4762839394765521
 30
0.0
 40
0.0559381130145598
 50
330.7491790430242986
 51
3.489653651248569
  0
ARC
  5
A008
  8
0
 10
499.7491354228249065
 20
59.4764717562651413
 30
0.0
 40
0.0528524872243534
 50
3.4896536512465381
 51
65.8201703392574871
  0
ARC
  5
A009
  8
0
 10
499.753588139565295
 20
59.486388836137742
 30
0.0
 40
0.041981647350174
 50
65.8201703392574871
 51
141.6146363588790109
  0
ARC
  5
A00A
  8
0
 10
499.7685229323823251
 20
59.4745578757512305
 30
0.0
 40
0.0610347221717312
 50
141.6146363588790109
 51
177.7444978400521052
  0
ARC
  5
A00B
  8
0
 10
499.7547680192080861
 20
59.4850064416184594
 30
0.0
 40
0.0479130185980869
 50
189.6680495221831109
 51
242.7356635940438139
  0
ARC
  5
A00C
  8
0
 10
499.7546102282199172
 20
59.4858952827243499
 30
0.0
 40
0.0486339093795779
 50
243.3806131073388883
 51
319.1816686265815974
  0
ARC
  5
A00D
  8
0
 10
499.7585406154699967
 20
59.4825004684215983
 30
0.0
 40
0.0434403837865608
 50
319.1816686265865997
 51
356.2889464920315277
  0
ARC
  5
A00E
  8
0
 10
499.7545468042466723
 20
59.4827220129464322
 30
0.0
 40
0.0233994476309815
 50
95.9180226732875667
 51
178.0479019125145896
  0
ARC
  5
A00F
  8
0
 10
499.7537259837778834
 20
59.48274998956812
 30
0.0
 40
0.0225781505268381
 50
178.0479019125133959
 51
269.85122309400532
  0
ARC
  5
A010
  8
0
 10
499.7537341322105817
 20
59.4858880421502292
 30
0.0
 40
0.0257162136882436
 50
269.8512230940020231
 51
329.5960051758955842
  0
ARC
  5
A011
  8
0
 10
499.7557320038222883
 20
59.4831644698841231
 30
0.0
 40
0.0226542509034798
 50
332.9817413851703236
 51
58.6204295692675004
  0
ARC
  5
A012
  8
0
 10
499.7547873084404841
 20
59.4820126744566409
 30
0.0
 40
0.024130374519042
 50
58.1294516709004796
 51
96.3123840891179981
  0
ARC
  5
A013
  8
0
 10
499.5517585727661185
 20
59.2930876292027165
 30
0.0
 40
0.0534671569205122
 50
179.6885969461220895
 51
223.4478921051259022
  0
ARC
  5
A014
  8
0
 10
499.5459494137567162
 20
59.2875849753180475
 30
0.0
 40
0.0454655615689016
 50
223.4478921051245095
 51
330.7491790430233891
  0
ARC
  5
A015
  8
0
 10
499.5368122277574798
 20
59.2927022173288591
 30
0.0
 40
0.0559381130145598
 50
330.7491790430242986
 51
3.489653651248569
  0
ARC
  5
A016
  8
0
 10
499.5398921321993271
 20
59.2928900341174625
 30
0.0
 40
0.0528524872243534
 50
3.4896536512465381
 51
65.8201703392574871
  0
ARC
  5
A017
  8
0
 10
499.5443448489397156
 20
59.3028071139900703
 30
0.0
 40
0.041981647350174
 50
65.8201703392574871
 51
141.6146363588790109
  0
ARC
  5
A018
  8
0
 10
499.5592796417568024
 20
59.2909761536035589
 30
0.0
 40
0.0610347221717312
 50
141.6146363588790109
 51
177.7444978400521052
  0
ARC
  5
A019
  8
0
 10
499.5455247285826204
 20
59.3014247194707806
 30
0.0
 40
0.0479130185980869
 50
189.6680495221831109
 51
242.7356635940438139
  0
ARC
  5
A01A
  8
0
 10
499.5453669375943946
 20
59.3023135605766569
 30
0.0
 40
0.0486339093795779
 50
243.3806131073388883
 51
319.1816686265815974
  0
ARC
  5
A01B
  8
0
 10
499.5492973248444173
 20
59.2989187462739196
 30
0.0
 40
0.0434403837865608
 50
319.1816686265865997
 51
356.2889464920315277
  0
ARC
  5
A01C
  8
0
 10
499.5453035136212065
 20
59.2991402907987535
 30
0.0
 40
0.0233994476309815
 50
95.9180226732875667
 51
178.0479019125145896
  0
ARC
  5
A01D
  8
0
 10
499.5444826931524176
 20
59.2991682674204412
 30
0.0
 40
0.0225781505268381
 50
178.0479019125133959
 51
269.85122309400532
  0
ARC
  5
A01E
  8
0
 10
499.5444908415850023
 20
59.3023063200025291
 30
0.0
 40
0.0257162136882436
 50
269.8512230940020231
 51
329.5960051758955842
  0
ARC
  5
A01F
  8
0
 10
499.5464887131968226
 20
59.2995827477364372
 30
0.0
 40
0.0226542509034798
 50
332.9817413851703236
 51
58.6204295692675004
  0
ARC
  5
A020
  8
0
 10
499.5455440178150184
 20
59.2984309523089621
 30
0.0
 40
0.024130374519042
 50
58.1294516709004796
 51
96.3123840891179981
  0
ARC
  5
A021
  8
0
 10
499.4133523523622102
 20
59.1688509321893932
 30
0.0
 40
0.0534671569205122
 50
179.6885969461220895
 51
223.4478921051259022
  0
ARC
  5
A022
  8
0
 10
499.407543193352808
 20
59.16334827830471
 30
0.0
 40
0.0454655615689016
 50
223.4478921051245095
 51
330.7491790430233891
  0
ARC
  5
A023
  8
0
 10
499.3984060073535147
 20
59.168465520315543
 30
0.0
 40
0.0559381130145598
 50
330.7491790430242986
 51
3.489653651248569
  0
ARC
  5
A024
  8
0
 10
499.4014859117954188
 20
59.1686533371041179
 30
0.0
 40
0.0528524872243534
 50
3.4896536512465381
 51
65.8201703392574871
  0
ARC
  5
A025
  8
0
 10
499.4059386285358073
 20
59.1785704169767328
 30
0.0
 40
0.041981647350174
 50
65.8201703392574871
 51
141.6146363588790109
  0
ARC
  5
A026
  8
0
 10
499.4208734213528942
 20
59.1667394565902285
 30
0.0
 40
0.0610347221717312
 50
141.6146363588790109
 51
177.7444978400521052
  0
ARC
  5
A027
  8
0
 10
499.4071185081787121
 20
59.1771880224574502
 30
0.0
 40
0.0479130185980869
 50
189.6680495221831109
 51
242.7356635940438139
  0
ARC
  5
A028
  8
0
 10
499.4069607171904863
 20
59.1780768635633407
 30
0.0
 40
0.0486339093795779
 50
243.3806131073388883
 51
319.1816686265815974
  0
ARC
  5
A029
  8
0
 10
499.410891104440509
 20
59.1746820492605892
 30
0.0
 40
0.0434403837865608
 50
319.1816686265865997
 51
356.2889464920315277
  0
ARC
  5
A02A
  8
0
 10
499.4068972932172983
 20
59.1749035937854231
 30
0.0
 40
0.0233994476309815
 50
95.9180226732875667
 51
178.0479019125145896
  0
ARC
  5
A02B
  8
0
 10
499.4060764727485093
 20
59.1749315704071179
 30
0.0
 40
0.0225781505268381
 50
178.0479019125133959
 51
269.85122309400532
  0
ARC
  5
A02C
  8
0
 10
499.406084621181094
 20
59.17806962298922
 30
0.0
 40
0.0257162136882436
 50
269.8512230940020231
 51
329.5960051758955842
  0
ARC
  5
A02D
  8
0
 10
499.4080824927928006
 20
59.175346050723121
 30
0.0
 40
0.0226542509034798
 50
332.9817413851703236
 51
58.6204295692675004
  0
ARC
  5
A02E
  8
0
 10
499.4071377974111101
 20
59.1741942552956388
 30
0.0
 40
0.024130374519042
 50
58.1294516709004796
 51
96.3123840891179981
  0
ARC
  5
A02F
  8
0
 10
500.1294929102227798
 20
59.3516478798870324
 30
0.0
 40
0.0534671569205122
 50
179.6885969461220895
 51
223.4478921051259022
  0
ARC
  5
A030
  8
0
 10
500.1236837512133775
 20
59.3461452260023492
 30
0.0
 40
0.0454655615689016
 50
223.4478921051245095
 51
330.7491790430233891
  0
ARC
  5
A031
  8
0
 10
500.1145465652141979
 20
59.351262468013168
 30
0.0
 40
0.0559381130145598
 50
330.7491790430242986
 51
3.489653651248569
  0
ARC
  5
A032
  8
0
 10
500.1176264696559883
 20
59.35145028480175
 30
0.0
 40
0.0528524872243534
 50
3.4896536512465381
 51
65.8201703392574871
  0
ARC
  5
A033
  8
0
 10
500.1220791863964905
 20
59.3613673646743507
 30
0.0
 40
0.041981647350174
 50
65.8201703392574871
 51
141.6146363588790109
  0
ARC
  5
A034
  8
0
 10
500.1370139792135774
 20
59.3495364042878535
 30
0.0
 40
0.0610347221717312
 50
141.6146363588790109
 51
177.7444978400521052
  0
ARC
  5
A035
  8
0
 10
500.1232590660393953
 20
59.3599849701550681
 30
0.0
 40
0.0479130185980869
 50
189.6680495221831109
 51
242.7356635940438139
  0
ARC
  5
A036
  8
0
 10
500.1231012750512264
 20
59.3608738112609586
 30
0.0
 40
0.0486339093795779
 50
243.3806131073388883
 51
319.1816686265815974
  0
ARC
  5
A037
  8
0
 10
500.1270316623011922
 20
59.3574789969582071
 30
0.0
 40
0.0434403837865608
 50
319.1816686265865997
 51
356.2889464920315277
  0
ARC
  5
A038
  8
0
 10
500.1230378510779246
 20
59.3577005414830481
 30
0.0
 40
0.0233994476309815
 50
95.9180226732875667
 51
178.0479019125145896
  0
ARC
  5
A039
  8
0
 10
500.1222170306091925
 20
59.3577285181047429
 30
0.0
 40
0.0225781505268381
 50
178.0479019125133959
 51
269.85122309400532
  0
ARC
  5
A03A
  8
0
 10
500.1222251790418909
 20
59.3608665706868521
 30
0.0
 40
0.0257162136882436
 50
269.8512230940020231
 51
329.5960051758955842
  0
ARC
  5
A03B
  8
0
 10
500.1242230506534838
 20
59.3581429984207389
 30
0.0
 40
0.0226542509034798
 50
332.9817413851703236
 51
58.6204295692675004
  0
ARC
  5
A03C
  8
0
 10
500.1232783552716796
 20
59.3569912029932567
 30
0.0
 40
0.024130374519042
 50
58.1294516709004796
 51
96.3123840891179981
  0
ARC
  5
A03D
  8
0
 10
500.0548187596576781
 20
59.2498867326513405
 30
0.0
 40
0.0534671569205122
 50
179.6885969461220895
 51
223.4478921051259022
  0
ARC
  5
A03E
  8
0
 10
500.0490096006482759
 20
59.2443840787666574
 30
0.0
 40
0.0454655615689016
 50
223.4478921051245095
 51
330.7491790430233891
  0
ARC
  5
A03F
  8
0
 10
500.0398724146489826
 20
59.249501320777469
 30
0.0
 40
0.0559381130145598
 50
330.7491790430242986
 51
3.489653651248569
  0
ARC
  5
A040
  8
0
 10
500.0429523190908867
 20
59.2496891375660582
 30
0.0
 40
0.0528524872243534
 50
3.4896536512465381
 51
65.8201703392574871
  0
ARC
  5
A041
  8
0
 10
500.0474050358312752
 20
59.2596062174386589
 30
0.0
 40
0.041981647350174
 50
65.8201703392574871
 51
141.6146363588790109
  0
ARC
  5
A042
  8
0
 10
500.0623398286484189
 20
59.2477752570521616
 30
0.0
 40
0.0610347221717312
 50
141.6146363588790109
 51
177.7444978400521052
  0
ARC
  5
A043
  8
0
 10
500.0485849154741231
 20
59.2582238229193834
 30
0.0
 40
0.0479130185980869
 50
189.6680495221831109
 51
242.7356635940438139
  0
ARC
  5
A044
  8
0
 10
500.0484271244860111
 20
59.2591126640252668
 30
0.0
 40
0.0486339093795779
 50
243.3806131073388883
 51
319.1816686265815974
  0
ARC
  5
A045
  8
0
 10
500.0523575117360906
 20
59.2557178497225223
 30
0.0
 40
0.0434403837865608
 50
319.1816686265865997
 51
356.2889464920315277
  0
ARC
  5
A046
  8
0
 10
500.048363700512823
 20
59.2559393942473633
 30
0.0
 40
0.0233994476309815
 50
95.9180226732875667
 51
178.0479019125145896
  0
ARC
  5
A047
  8
0
 10
500.0475428800439772
 20
59.2559673708690511
 30
0.0
 40
0.0225781505268381
 50
178.0479019125133959
 51
269.85122309400532
  0
ARC
  5
A048
  8
0
 10
500.0475510284766756
 20
59.2591054234511532
 30
0.0
 40
0.0257162136882436
 50
269.8512230940020231
 51
329.5960051758955842
  0
ARC
  5
A049
  8
0
 10
500.0495489000883822
 20
59.25638185118504
 30
0.0
 40
0.0226542509034798
 50
332.9817413851703236
 51
58.6204295692675004
  0
ARC
  5
A04A
  8
0
 10
500.048604204706578
 20
59.255230055757572
 30
0.0
 40
0.024130374519042
 50
58.1294516709004796
 51
96.3123840891179981
  0
ARC
  5
A04B
  8
0
 10
499.8929447907394774
 20
59.0300696026495402
 30
0.0
 40
0.0534671569205122
 50
179.6885969461220895
 51
223.4478921051259022
  0
ARC
  5
A04C
  8
0
 10
499.8871356317300751
 20
59.024566948764857
 30
0.0
 40
0.0454655615689016
 50
223.4478921051245095
 51
330.7491790430233891
  0
ARC
  5
A04D
  8
0
 10
499.8779984457307819
 20
59.02968419077569
 30
0.0
 40
0.0559381130145598
 50
330.7491790430242986
 51
3.489653651248569
  0
ARC
  5
A04E
  8
0
 10
499.881078350172686
 20
59.029872007564272
 30
0.0
 40
0.0528524872243534
 50
3.4896536512465381
 51
65.8201703392574871
  0
ARC
  5
A04F
  8
0
 10
499.8855310669130745
 20
59.0397890874368798
 30
0.0
 40
0.041981647350174
 50
65.8201703392574871
 51
141.6146363588790109
  0
ARC
  5
A050
  8
0
 10
499.9004658597301045
 20
59.0279581270503684
 30
0.0
 40
0.0610347221717312
 50
141.6146363588790109
 51
177.7444978400521052
  0
ARC
  5
A051
  8
0
 10
499.8867109465559224
 20
59.0384066929175972
 30
0.0
 40
0.0479130185980869
 50
189.6680495221831109
 51
242.7356635940438139
  0
ARC
  5
A052
  8
0
 10
499.8865531555678103
 20
59.0392955340234877
 30
0.0
 40
0.0486339093795779
 50
243.3806131073388883
 51
319.1816686265815974
  0
ARC
  5
A053
  8
0
 10
499.8904835428177762
 20
59.0359007197207291
 30
0.0
 40
0.0434403837865608
 50
319.1816686265865997
 51
356.2889464920315277
  0
ARC
  5
A054
  8
0
 10
499.8864897315946223
 20
59.0361222642455701
 30
0.0
 40
0.0233994476309815
 50
95.9180226732875667
 51
178.0479019125145896
  0
ARC
  5
A055
  8
0
 10
499.8856689111257197
 20
59.0361502408672578
 30
0.0
 40
0.0225781505268381
 50
178.0479019125133959
 51
269.85122309400532
  0
ARC
  5
A056
  8
0
 10
499.885677059558418
 20
59.039288293449367
 30
0.0
 40
0.0257162136882436
 50
269.8512230940020231
 51
329.5960051758955842
  0
ARC
  5
A057
  8
0
 10
499.8876749311701246
 20
59.0365647211832609
 30
0.0
 40
0.0226542509034798
 50
332.9817413851703236
 51
58.6204295692675004
  0
ARC
  5
A058
  8
0
 10
499.8867302357883773
 20
59.0354129257557787
 30
0.0
 40
0.024130374519042
 50
58.1294516709004796
 51
96.3123840891179981
  0
ARC
  5
A059
  8
0
 10
499.7925810274447258
 20
58.8807497177531474
 30
0.0
 40
0.0534671569205122
 50
179.6885969461220895
 51
223.4478921051259022
  0
ARC
  5
A05A
  8
0
 10
499.7867718684353235
 20
58.8752470638684571
 30
0.0
 40
0.0454655615689016
 50
223.4478921051245095
 51
330.7491790430233891
  0
ARC
  5
A05B
  8
0
 10
499.7776346824359734
 20
58.88036430587929
 30
0.0
 40
0.0559381130145598
 50
330.7491790430242986
 51
3.489653651248569
  0
ARC
  5
A05C
  8
0
 10
499.7807145868778775
 20
58.8805521226678721
 30
0.0
 40
0.0528524872243534
 50
3.4896536512465381
 51
65.8201703392574871
  0
ARC
  5
A05D
  8
0
 10
499.7851673036183229
 20
58.8904692025404799
 30
0.0
 40
0.041981647350174
 50
65.8201703392574871
 51
141.6146363588790109
  0
ARC
  5
A05E
  8
0
 10
499.8001020964354097
 20
58.8786382421539685
 30
0.0
 40
0.0610347221717312
 50
141.6146363588790109
 51
177.7444978400521052
  0
ARC
  5
A05F
  8
0
 10
499.786347183261114
 20
58.8890868080211973
 30
0.0
 40
0.0479130185980869
 50
189.6680495221831109
 51
242.7356635940438139
  0
ARC
  5
A060
  8
0
 10
499.7861893922728882
 20
58.8899756491270878
 30
0.0
 40
0.0486339093795779
 50
243.3806131073388883
 51
319.1816686265815974
  0
ARC
  5
A061
  8
0
 10
499.7901197795230246
 20
58.8865808348243291
 30
0.0
 40
0.0434403837865608
 50
319.1816686265865997
 51
356.2889464920315277
  0
ARC
  5
A062
  8
0
 10
499.7861259682998138
 20
58.8868023793491702
 30
0.0
 40
0.0233994476309815
 50
95.9180226732875667
 51
178.0479019125145896
  0
ARC
  5
A063
  8
0
 10
499.7853051478309112
 20
58.8868303559708579
 30
0.0
 40
0.0225781505268381
 50
178.0479019125133959
 51
269.85122309400532
  0
ARC
  5
A064
  8
0
 10
499.7853132962636096
 20
58.8899684085529671
 30
0.0
 40
0.0257162136882436
 50
269.8512230940020231
 51
329.5960051758955842
  0
ARC
  5
A065
  8
0
 10
499.7873111678753162
 20
58.887244836286861
 30
0.0
 40
0.0226542509034798
 50
332.9817413851703236
 51
58.6204295692675004
  0
ARC
  5
A066
  8
0
 10
499.7863664724936257
 20
58.886093040859393
 30
0.0
 40
0.024130374519042
 50
58.1294516709004796
 51
96.3123840891179981
  0
ARC
  5
A067
  8
0
 10
499.3099093255966068
 20
57.6138934256240987
 30
0.0
 40
1.010672542078896
 50
28.0107874519496214
 51
51.1397619330878186
  0
ARC
  5
A068
  8
0
 10
498.9634178526040955
 20
57.429576953591301
 30
0.0
 40
1.403137703232272
 50
1.0049041796181399
 51
28.010787451949259
  0
LINE
  5
A069
  8
0
 10
500.3663397499898906
 20
57.4541851649767423
 30
0.0
 11
500.3666688566315202
 21
57.4354226914725032
 31
0.0
  0
LINE
  5
A06A
  8
0
 10
500.3784670417639973
 20
57.4238296397240404
 30
0.0
 11
501.4963903946131154
 21
57.4238296397240404
 31
0.0
  0
ARC
  5
A06B
  8
0
 10
500.3784670417639973
 20
57.4356296397240271
 30
0.0
 40
0.0118
 50
181.004904179628312
 51
269.9999999999902229
  0
LINE
  5
A06C
  8
0
 10
500.3783729935385054
 20
57.4159556251240275
 30
0.0
 11
501.4964844428384936
 21
57.4159556251240275
 31
0.0
  0
LINE
  5
A06D
  8
0
 10
500.3665729935383979
 20
57.4041556251240408
 30
0.0
 11
500.3665729935383979
 21
53.6325609609226177
 31
0.0
  0
LINE
  5
A06E
  8
0
 10
500.3984143840069123
 20
57.4182694812984806
 30
0.0
 11
500.4039745429384993
 21
57.4238296397240404
 31
0.0
  0
ARC
  5
A06F
  8
0
 10
500.3928282406898234
 20
57.4238556251240411
 30
0.0
 40
0.0079
 50
270.0
 51
314.9999973927094743
  0
ARC
  5
A070
  8
0
 10
500.3783729935385054
 20
57.4041556251240408
 30
0.0
 40
0.0118
 50
90.0000000000325713
 51
180.0
  0
ARC
  5
A071
  8
0
 10
500.9373192958373124
 20
56.8595563516970088
 30
0.0
 40
0.2760519635228555
 50
89.9772889169499734
 51
149.1940932959915926
  0
ARC
  5
A072
  8
0
 10
500.9353362499551281
 20
56.8607387613950976
 30
0.0
 40
0.2737431621746312
 50
149.1940932959915926
 51
229.4341088341550119
  0
ARC
  5
A073
  8
0
 10
500.937850551763006
 20
56.8636757843862028
 30
0.0
 40
0.2776094029369407
 50
229.4341088341550119
 51
269.9129377732743933
  0
ARC
  5
A074
  8
0
 10
500.9374608663670756
 20
56.8634683391574924
 30
0.0
 40
0.2834904090667694
 50
90.0064974154188349
 51
126.6055063132642005
  0
ARC
  5
A075
  8
0
 10
500.9387065173706901
 20
56.8617914053700275
 30
0.0
 40
0.2855793689395884
 50
126.6055063132637031
 51
161.621751795534891
  0
ARC
  5
A076
  8
0
 10
500.9410780761921274
 20
56.8610034925973693
 30
0.0
 40
0.2880783883034461
 50
161.62175179553509
 51
217.4640427690947888
  0
ARC
  5
A077
  8
0
 10
500.9372723959759242
 20
56.8580870842041008
 30
0.0
 40
0.2832837413065846
 50
217.4640427690947888
 51
270.031617075659085
  0
LINE
  5
A078
  8
0
 10
500.4443141557133004
 20
53.0025697720240387
 30
0.0
 11
501.4305432806636986
 21
53.0025697720240387
 31
0.0
  0
ARC
  5
A079
  8
0
 10
505.1064674737360178
 20
53.8880178484854895
 30
0.0
 40
4.7467734204204453
 50
183.0849747137922066
 51
187.9248666761571087
  0
ARC
  5
A07A
  8
0
 10
498.1185674764387841
 20
52.9152752267005368
 30
0.0
 40
2.308506487596298
 50
2.633999937050882
 51
7.9248666761571771
  0
ARC
  5
A07B
  8
0
 10
500.4443141557133004
 20
53.022269772024039
 30
0.0
 40
0.0197
 50
182.6339999370374017
 51
270.0
  0
LINE
  5
A07C
  8
0
 10
501.3873007571580729
 20
52.8962709859718174
 30
0.0
 11
501.3909916804125828
 21
53.0025697933625608
 31
0.0
  0
ARC
  5
A07D
  8
0
 10
500.9381696744227952
 20
60.6709719343570697
 30
0.0
 40
2.5730659132967721
 50
52.2234417441784515
 51
90.0164992530486643
  0
ARC
  5
A07E
  8
0
 10
500.9735624316220992
 20
60.7166385695100601
 30
0.0
 40
2.5152897172609929
 50
13.6436126673080302
 51
52.2234417441784515
  0
ARC
  5
A07F
  8
0
 10
500.9481322266805137
 20
60.7104658616680197
 30
0.0
 40
2.5414583558475878
 50
330.8856160323371114
 51
13.6436126673080302
  0
ARC
  5
A080
  8
0
 10
501.0749726003206206
 20
60.6398257017539777
 30
0.0
 40
2.396273946981303
 50
294.2962617127523117
 51
330.8856160323371114
  0
ARC
  5
A081
  8
0
 10
500.8845842080576745
 20
61.0615626138963989
 30
0.0
 40
2.8589939086988361
 50
271.0590927882428218
 51
294.2962617127523117
  0
ARC
  5
A082
  8
0
 10
500.9379564817025994
 20
60.5762427693459173
 30
0.0
 40
2.6138679967774099
 50
58.4783486700006279
 51
90.0115685345198386
  0
ARC
  5
A083
  8
0
 10
500.9873718619800798
 20
60.6568129835205667
 30
0.0
 40
2.519351124103212
 50
28.3349022442810785
 51
58.4783486700009618
  0
ARC
  5
A084
  8
0
 10
500.3493252766244836
 20
60.3127587727566805
 30
0.0
 40
3.2442488720844218
 50
22.9272328487540697
 51
28.3349022442810785
  0
ARC
  5
A085
  8
0
 10
500.9377039326615773
 20
60.5542517013029169
 30
0.0
 40
2.5516728662738908
 50
75.3253322263748686
 51
90.0061797215479658
  0
ARC
  5
A086
  8
0
 10
500.9450115409056821
 20
60.5821569067750687
 30
0.0
 40
2.5228266944188169
 50
51.3365153866980322
 51
75.3253322263748686
  0
ARC
  5
A087
  8
0
 10
501.0046247371108734
 20
60.6566636011135003
 30
0.0
 40
2.4274066720805458
 50
17.7380497801244807
 51
51.3365153866980322
  0
ARC
  5
A088
  8
0
 10
501.0761795328836001
 20
60.6795520194679483
 30
0.0
 40
2.3522803218907709
 50
343.192620546442015
 51
17.7380497801244807
  0
ARC
  5
A089
  8
0
 10
501.0053905293734147
 20
60.7009344284923174
 30
0.0
 40
2.4262282118785761
 50
305.8493142795189215
 51
343.192620546442015
  0
ARC
  5
A08A
  8
0
 10
500.9343959728980735
 20
60.7991924442287086
 30
0.0
 40
2.547450588961309
 50
284.6852434488909012
 51
305.8493142795189215
  0
ARC
  5
A08B
  8
0
 10
500.9412885396953925
 20
60.7728919472732088
 30
0.0
 40
2.5202619218891349
 50
269.9122505615194996
 51
284.6852434488909012
  0
ARC
  5
A08C
  8
0
 10
500.9375484725935053
 20
60.5538979917164326
 30
0.0
 40
2.5242482592483131
 50
72.8092796388233268
 51
90.0027182041075662
  0
ARC
  5
A08D
  8
0
 10
500.9464454693563766
 20
60.5826560318132223
 30
0.0
 40
2.494145411848002
 50
60.3439516176927029
 51
72.8092796388233268
  0
ARC
  5
A08E
  8
0
 10
500.964761606900197
 20
60.6148249526660905
 30
0.0
 40
2.4571275734000442
 50
41.2204142826332927
 51
60.3439516176927029
  0
ARC
  5
A08F
  8
0
 10
501.0244465751042071
 20
60.6671127673950394
 30
0.0
 40
2.37777827599513
 50
13.23526398984081
 51
41.220414282633449
  0
ARC
  5
A090
  8
0
 10
501.0650804814204093
 20
60.6766697527692429
 30
0.0
 40
2.336035608232307
 50
332.8504486036429171
 51
13.23526398984081
  0
ARC
  5
A091
  8
0
 10
500.9824707061889058
 20
60.7190335027904666
 30
0.0
 40
2.4288745132219161
 50
303.4168867849169828
 51
332.8504486036432013
  0
ARC
  5
A092
  8
0
 10
500.941600772441916
 20
60.7809762778905878
 30
0.0
 40
2.5030854212583278
 50
269.9045013768730996
 51
303.4168867849169828
  0
ARC
  5
A093
  8
0
 10
500.939029308757199
 20
60.5303123360284374
 30
0.0
 40
1.3230726903552621
 50
86.4609763628134544
 51
90.0693137326114339
  0
ARC
  5
A094
  8
0
 10
500.9388152934367895
 20
60.5268518967878322
 30
0.0
 40
1.326539741306048
 50
72.1739182930675724
 51
86.4609763628134544
  0
ARC
  5
A095
  8
0
 10
500.9404862797501892
 20
60.5320482815895318
 30
0.0
 40
1.3210812973641239
 50
56.6501547475815599
 51
72.1739182930675724
  0
ARC
  5
A096
  8
0
 10
500.9713010457829228
 20
60.5788704608068471
 30
0.0
 40
1.2650289444045519
 50
347.3838201695829184
 51
56.6501547475815599
  0
ARC
  5
A097
  8
0
 10
500.9970864653157037
 20
60.5730990907899027
 30
0.0
 40
1.2386055348524949
 50
291.5019837848486191
 51
347.3838201695829184
  0
ARC
  5
A098
  8
0
 10
500.9380619408386224
 20
60.6473637986240277
 30
0.0
 40
1.329624731899995
 50
269.9727133635216774
 51
292.6955465141916193
  0
ARC
  5
A099
  8
0
 10
500.9394964522541045
 20
60.5539614117786513
 30
0.0
 40
1.1946628521468921
 50
57.639590241364111
 51
90.0991681410793319
  0
ARC
  5
A09A
  8
0
 10
500.950359929692695
 20
60.5711056864185409
 30
0.0
 40
1.1743665151624609
 50
26.6344831071647015
 51
57.639590241364111
  0
ARC
  5
A09B
  8
0
 10
501.0154859634964168
 20
60.6037674141231477
 30
0.0
 40
1.101509197509067
 50
319.9551072330838224
 51
26.6344831071647015
  0
ARC
  5
A09C
  8
0
 10
500.9264345652217116
 20
60.6786093891053682
 30
0.0
 40
1.2178340562191701
 50
285.9438034672411959
 51
319.9551072330838224
  0
ARC
  5
A09D
  8
0
 10
500.9047047867126139
 20
60.7546716168746812
 30
0.0
 40
1.2969393390217949
 50
271.4458210235118258
 51
285.9438034672411959
  0
ARC
  5
A09E
  8
0
 10
501.0008467560924146
 20
61.006389157296887
 30
0.0
 40
1.0034128084548339
 50
319.5229360530252052
 51
5.2137493379299178
  0
ARC
  5
A09F
  8
0
 10
500.9910904627218997
 20
61.0147150668862821
 30
0.0
 40
1.016238798896913
 50
279.7240447826347918
 51
319.5229360530252052
  0
ARC
  5
A0A0
  8
0
 10
500.8991930968954875
 20
61.5509816379470394
 30
0.0
 40
1.560322396410305
 50
271.4041707311729965
 51
279.7240447826347918
  0
ARC
  5
A0A1
  8
0
 10
488.5275457735763212
 20
59.1236818878909034
 30
0.0
 40
12.6774120152340295
 50
1.6635292564394311
 51
4.0316389203509626
  0
ARC
  5
A0A2
  8
0
 10
497.8306352108771762
 20
59.4619675201657785
 30
0.0
 40
3.6192730295957518
 50
1.839332827171152
 51
9.876201275935081
  0
ARC
  5
A0A3
  8
0
 10
499.2204889156113836
 20
59.5964609005530903
 30
0.0
 40
2.4534354567025751
 50
2.7680564137691919
 51
14.2408410172725901
  0
ARC
  5
A0A4
  8
0
 10
500.0542819551207003
 20
59.7821620091563304
 30
0.0
 40
1.807982964377429
 50
3.580434742565811
 51
18.6139228018044491
  0
ARC
  5
A0A5
  8
0
 10
500.5317910473144138
 20
59.9943445449232087
 30
0.0
 40
1.4738590849646891
 50
4.5665658341441233
 51
22.2598552725049217
  0
ARC
  5
A0A6
  8
0
 10
500.9231252472757774
 20
60.2589456675503783
 30
0.0
 40
1.1692810515923771
 50
4.6992035781004606
 51
25.8266582371558293
  0
ARC
  5
A0A7
  8
0
 10
501.1989732373518223
 20
60.555201047317837
 30
0.0
 40
0.9179981707226617
 50
1.4160216731371611
 51
28.6981583531841586
  0
LINE
  5
A0A8
  8
0
 10
500.9380690558551805
 20
61.8533846779199408
 30
0.0
 11
500.9385444227385165
 21
61.8722672645240266
 31
0.0
  0
ARC
  5
A0A9
  8
0
 10
493.0527218623756198
 20
62.9877064065511618
 30
0.0
 40
7.9643205569022486
 50
351.9489985458858996
 51
353.2797108217287132
  0
ARC
  5
A0AA
  8
0
 10
509.3484629580776186
 20
61.0041127285706608
 30
0.0
 40
8.4518166745068388
 50
170.0032116681186096
 51
172.8526378537067956
  0
ARC
  5
A0AB
  8
0
 10
503.0020327982776962
 20
62.1672691312104106
 30
0.0
 40
2.000305122447926
 50
159.0013822876371989
 51
171.2579288424452955
  0
ARC
  5
A0AC
  8
0
 10
501.2744734362605072
 20
62.8303250950015908
 30
0.0
 40
0.149871514408099
 50
128.5690264010671058
 51
158.9856337591249087
  0
ARC
  5
A0AD
  8
0
 10
501.2000086559189072
 20
62.9205090533146887
 30
0.0
 40
0.0329952783045701
 50
118.0824358361630999
 51
125.1025670584681961
  0
ARC
  5
A0AE
  8
0
 10
501.0912286916579887
 20
61.8518187932896524
 30
0.0
 40
0.1384334331965068
 50
347.4964713286399274
 51
357.7767048873001272
  0
ARC
  5
A0AF
  8
0
 10
558.6173535848161009
 20
57.1790095255479685
 30
0.0
 40
57.5772878603293279
 50
175.1766716566143884
 51
175.3502792843746931
  0
ARC
  5
A0B0
  8
0
 10
491.8445930313952204
 20
62.809260845048648
 30
0.0
 40
9.4324232899096607
 50
355.2020550807529276
 51
357.7830895546646275
  0
ARC
  5
A0B1
  8
0
 10
498.5515014464705814
 20
62.5703841429602221
 30
0.0
 40
2.7213733639483331
 50
357.3463489908207862
 51
4.5190766367156607
  0
ARC
  5
A0B2
  8
0
 10
500.8899069730330211
 20
62.7741432755203874
 30
0.0
 40
0.3746592115969263
 50
1.630527045807274
 51
23.8322087540432186
  0
ARC
  5
A0B3
  8
0
 10
501.1851599618033219
 20
62.9045636718606787
 30
0.0
 40
0.0518840465680838
 50
23.8322087540411687
 51
55.8896106298520579
  0
ARC
  5
A0B4
  8
0
 10
501.1975548303101959
 20
62.9228636674663093
 30
0.0
 40
0.0297814991024901
 50
55.8896106298521786
 51
116.0493903621739946
  0
ARC
  5
A0B5
  8
0
 10
501.1020556481078074
 20
62.0906200976975029
 30
0.0
 40
0.0534671569205122
 50
316.5521078948739842
 51
0.3114030538779059
  0
ARC
  5
A0B6
  8
0
 10
501.107864807117096
 20
62.0851174438128268
 30
0.0
 40
0.0454655615689016
 50
209.2508209569766109
 51
316.5521078948755189
  0
ARC
  5
A0B7
  8
0
 10
501.1170019931163893
 20
62.0902346858236385
 30
0.0
 40
0.0559381130145598
 50
176.5103463487513977
 51
209.2508209569757014
  0
ARC
  5
A0B8
  8
0
 10
501.1139220886744852
 20
62.0904225026122205
 30
0.0
 40
0.0528524872243534
 50
114.1798296607424987
 51
176.5103463487533872
  0
ARC
  5
A0B9
  8
0
 10
501.1094693719340967
 20
62.1003395824848425
 30
0.0
 40
0.041981647350174
 50
38.3853636411209678
 51
114.1798296607424987
  0
ARC
  5
A0BA
  8
0
 10
501.0945345791170098
 20
62.0885086220983382
 30
0.0
 40
0.0610347221717312
 50
2.2555021599478922
 51
38.3853636411209678
  0
ARC
  5
A0BB
  8
0
 10
501.1082894922913056
 20
62.0989571879655529
 30
0.0
 40
0.0479130185980869
 50
297.2643364059562145
 51
350.3319504778169176
  0
ARC
  5
A0BC
  8
0
 10
501.1084472832794177
 20
62.0998460290714434
 30
0.0
 40
0.0486339093795779
 50
220.8183313734182036
 51
296.6193868926611117
  0
ARC
  5
A0BD
  8
0
 10
501.104516896029395
 20
62.0964512147686776
 30
0.0
 40
0.0434403837865608
 50
183.7110535079679892
 51
220.8183313734132867
  0
ARC
  5
A0BE
  8
0
 10
501.1085107072527194
 20
62.0966727592935328
 30
0.0
 40
0.0233994476309815
 50
1.952098087485397
 51
84.0819773267124475
  0
ARC
  5
A0BF
  8
0
 10
501.1093315277213947
 20
62.0967007359152134
 30
0.0
 40
0.0225781505268381
 50
270.14877690599468
 51
1.9520980874866181
  0
ARC
  5
A0C0
  8
0
 10
501.1093233792886963
 20
62.0998387884973084
 30
0.0
 40
0.0257162136882436
 50
210.4039948241043874
 51
270.1487769059979769
  0
ARC
  5
A0C1
  8
0
 10
501.1073255076769897
 20
62.0971152162312166
 30
0.0
 40
0.0226542509034798
 50
121.3795704307324996
 51
207.0182586148297901
  0
ARC
  5
A0C2
  8
0
 10
501.1082702030587939
 20
62.0959634208037414
 30
0.0
 40
0.024130374519042
 50
83.6876159108820303
 51
121.8705483290995062
  0
ARC
  5
A0C3
  8
0
 10
501.118948487583225
 20
62.2500822081384086
 30
0.0
 40
0.0534671569205122
 50
316.5521078948739842
 51
0.3114030538779059
  0
ARC
  5
A0C4
  8
0
 10
501.1247576465926272
 20
62.2445795542537184
 30
0.0
 40
0.0454655615689016
 50
209.2508209569766109
 51
316.5521078948755189
  0
ARC
  5
A0C5
  8
0
 10
501.1338948325918068
 20
62.2496967962645513
 30
0.0
 40
0.0559381130145598
 50
176.5103463487513977
 51
209.2508209569757014
  0
ARC
  5
A0C6
  8
0
 10
501.1308149281499027
 20
62.2498846130531334
 30
0.0
 40
0.0528524872243534
 50
114.1798296607424987
 51
176.5103463487533872
  0
ARC
  5
A0C7
  8
0
 10
501.1263622114095142
 20
62.2598016929257412
 30
0.0
 40
0.041981647350174
 50
38.3853636411209678
 51
114.1798296607424987
  0
ARC
  5
A0C8
  8
0
 10
501.1114274185924273
 20
62.2479707325392368
 30
0.0
 40
0.0610347221717312
 50
2.2555021599478922
 51
38.3853636411209678
  0
ARC
  5
A0C9
  8
0
 10
501.1251823317667231
 20
62.2584192984064586
 30
0.0
 40
0.0479130185980869
 50
297.2643364059562145
 51
350.3319504778169176
  0
ARC
  5
A0CA
  8
0
 10
501.1253401227547783
 20
62.2593081395123491
 30
0.0
 40
0.0486339093795779
 50
220.8183313734182036
 51
296.6193868926611117
  0
ARC
  5
A0CB
  8
0
 10
501.1214097355049262
 20
62.2559133252095904
 30
0.0
 40
0.0434403837865608
 50
183.7110535079679892
 51
220.8183313734132867
  0
ARC
  5
A0CC
  8
0
 10
501.1254035467280801
 20
62.2561348697344314
 30
0.0
 40
0.0233994476309815
 50
1.952098087485397
 51
84.0819773267124475
  0
ARC
  5
A0CD
  8
0
 10
501.1262243671969259
 20
62.2561628463561334
 30
0.0
 40
0.0225781505268381
 50
270.14877690599468
 51
1.9520980874866181
  0
ARC
  5
A0CE
  8
0
 10
501.1262162187641138
 20
62.2593008989382213
 30
0.0
 40
0.0257162136882436
 50
210.4039948241043874
 51
270.1487769059979769
  0
ARC
  5
A0CF
  8
0
 10
501.1242183471525209
 20
62.2565773266721223
 30
0.0
 40
0.0226542509034798
 50
121.3795704307324996
 51
207.0182586148297901
  0
ARC
  5
A0D0
  8
0
 10
501.1251630425343251
 20
62.2554255312446472
 30
0.0
 40
0.024130374519042
 50
83.6876159108820303
 51
121.8705483290995062
  0
ARC
  5
A0D1
  8
0
 10
501.1502581561500165
 20
62.5576605828109678
 30
0.0
 40
0.0534671569205122
 50
316.5521078948739842
 51
0.3114030538779059
  0
ARC
  5
A0D2
  8
0
 10
501.1560673151593051
 20
62.5521579289262988
 30
0.0
 40
0.0454655615689016
 50
209.2508209569766109
 51
316.5521078948755189
  0
ARC
  5
A0D3
  8
0
 10
501.1652045011585983
 20
62.5572751709371104
 30
0.0
 40
0.0559381130145598
 50
176.5103463487513977
 51
209.2508209569757014
  0
ARC
  5
A0D4
  8
0
 10
501.1621245967166942
 20
62.5574629877256925
 30
0.0
 40
0.0528524872243534
 50
114.1798296607424987
 51
176.5103463487533872
  0
ARC
  5
A0D5
  8
0
 10
501.1576718799763057
 20
62.5673800675983216
 30
0.0
 40
0.041981647350174
 50
38.3853636411209678
 51
114.1798296607424987
  0
ARC
  5
A0D6
  8
0
 10
501.1427370871592757
 20
62.5555491072118102
 30
0.0
 40
0.0610347221717312
 50
2.2555021599478922
 51
38.3853636411209678
  0
ARC
  5
A0D7
  8
0
 10
501.1564920003335146
 20
62.5659976730790319
 30
0.0
 40
0.0479130185980869
 50
297.2643364059562145
 51
350.3319504778169176
  0
ARC
  5
A0D8
  8
0
 10
501.1566497913216267
 20
62.5668865141849082
 30
0.0
 40
0.0486339093795779
 50
220.8183313734182036
 51
296.6193868926611117
  0
ARC
  5
A0D9
  8
0
 10
501.152719404071604
 20
62.5634916998821495
 30
0.0
 40
0.0434403837865608
 50
183.7110535079679892
 51
220.8183313734132867
  0
ARC
  5
A0DA
  8
0
 10
501.1567132152948716
 20
62.5637132444069977
 30
0.0
 40
0.0233994476309815
 50
1.952098087485397
 51
84.0819773267124475
  0
ARC
  5
A0DB
  8
0
 10
501.1575340357636037
 20
62.5637412210286925
 30
0.0
 40
0.0225781505268381
 50
270.14877690599468
 51
1.9520980874866181
  0
ARC
  5
A0DC
  8
0
 10
501.157525887331019
 20
62.5668792736107804
 30
0.0
 40
0.0257162136882436
 50
210.4039948241043874
 51
270.1487769059979769
  0
ARC
  5
A0DD
  8
0
 10
501.1555280157191987
 20
62.5641557013446885
 30
0.0
 40
0.0226542509034798
 50
121.3795704307324996
 51
207.0182586148297901
  0
ARC
  5
A0DE
  8
0
 10
501.1564727111010029
 20
62.5630039059172134
 30
0.0
 40
0.024130374519042
 50
83.6876159108820303
 51
121.8705483290995062
  0
ARC
  5
A0DF
  8
0
 10
501.1743034236956191
 20
62.7624749712127326
 30
0.0
 40
0.0534671569205122
 50
316.5521078948739842
 51
0.3114030538779059
  0
ARC
  5
A0E0
  8
0
 10
501.1801125827050782
 20
62.7569723173280565
 30
0.0
 40
0.0454655615689016
 50
209.2508209569766109
 51
316.5521078948755189
  0
ARC
  5
A0E1
  8
0
 10
501.189249768704201
 20
62.7620895593388681
 30
0.0
 40
0.0559381130145598
 50
176.5103463487513977
 51
209.2508209569757014
  0
ARC
  5
A0E2
  8
0
 10
501.1861698642624106
 20
62.7622773761274502
 30
0.0
 40
0.0528524872243534
 50
114.1798296607424987
 51
176.5103463487533872
  0
ARC
  5
A0E3
  8
0
 10
501.1817171475220221
 20
62.7721944560000722
 30
0.0
 40
0.041981647350174
 50
38.3853636411209678
 51
114.1798296607424987
  0
ARC
  5
A0E4
  8
0
 10
501.1667823547048783
 20
62.7603634956135679
 30
0.0
 40
0.0610347221717312
 50
2.2555021599478922
 51
38.3853636411209678
  0
ARC
  5
A0E5
  8
0
 10
501.1805372678791173
 20
62.7708120614807825
 30
0.0
 40
0.0479130185980869
 50
297.2643364059562145
 51
350.3319504778169176
  0
ARC
  5
A0E6
  8
0
 10
501.1806950588672862
 20
62.771700902586673
 30
0.0
 40
0.0486339093795779
 50
220.8183313734182036
 51
296.6193868926611117
  0
ARC
  5
A0E7
  8
0
 10
501.1767646716172067
 20
62.7683060882839072
 30
0.0
 40
0.0434403837865608
 50
183.7110535079679892
 51
220.8183313734132867
  0
ARC
  5
A0E8
  8
0
 10
501.1807584828405879
 20
62.7685276328087625
 30
0.0
 40
0.0233994476309815
 50
1.952098087485397
 51
84.0819773267124475
  0
ARC
  5
A0E9
  8
0
 10
501.18157930330932
 20
62.7685556094304431
 30
0.0
 40
0.0225781505268381
 50
270.14877690599468
 51
1.9520980874866181
  0
ARC
  5
A0EA
  8
0
 10
501.1815711548766217
 20
62.7716936620125381
 30
0.0
 40
0.0257162136882436
 50
210.4039948241043874
 51
270.1487769059979769
  0
ARC
  5
A0EB
  8
0
 10
501.1795732832649151
 20
62.7689700897464533
 30
0.0
 40
0.0226542509034798
 50
121.3795704307324996
 51
207.0182586148297901
  0
ARC
  5
A0EC
  8
0
 10
501.1805179786467761
 20
62.7678182943189711
 30
0.0
 40
0.024130374519042
 50
83.6876159108820303
 51
121.8705483290995062
  0
ARC
  5
A0ED
  8
0
 10
501.3547248095094915
 20
58.7675693332359899
 30
0.0
 40
0.2523838398855872
 50
35.0308197098824721
 51
73.1647317815035336
  0
ARC
  5
A0EE
  8
0
 10
501.3359100976916807
 20
58.7053903523226879
 30
0.0
 40
0.3173470529234497
 50
73.1647317815036331
 51
98.4340291853543903
  0
ARC
  5
A0EF
  8
0
 10
501.3319037353031717
 20
58.7324103307403007
 30
0.0
 40
0.2900316694687754
 50
98.4340291853543903
 51
129.0120185347074937
  0
ARC
  5
A0F0
  8
0
 10
501.3008355626939192
 20
58.7707598778978095
 30
0.0
 40
0.240676638150073
 50
129.0120185347074937
 51
169.941553599056391
  0
ARC
  5
A0F1
  8
0
 10
501.2752725428161966
 20
58.7752942199828325
 30
0.0
 40
0.2147145842365463
 50
169.9415535990555952
 51
225.9894656651700018
  0
ARC
  5
A0F2
  8
0
 10
501.3358015584259988
 20
58.8379507924446727
 30
0.0
 40
0.3018329393825974
 50
225.9894656651700018
 51
268.1755776635824873
  0
ARC
  5
A0F3
  8
0
 10
501.3348518266877818
 20
58.8081346545732373
 30
0.0
 40
0.2720016794704924
 50
268.1755776635824873
 51
323.1649774334680956
  0
ARC
  5
A0F4
  8
0
 10
501.365635209698894
 20
58.7850765152208723
 30
0.0
 40
0.2335400822599707
 50
323.1649511014596783
 51
33.0498560048103585
  0
ARC
  5
A0F5
  8
0
 10
511.2395444896732783
 20
66.8228828360027478
 30
0.0
 40
12.2172731563272201
 50
217.1627011575496908
 51
218.702903109768414
  0
ARC
  5
A0F6
  8
0
 10
509.0252919255327129
 20
65.0487478120385845
 30
0.0
 40
9.3799382270212934
 50
218.702903109768414
 51
219.9173015104915123
  0
ARC
  5
A0F7
  8
0
 10
504.3775014756312771
 20
61.1602065110316389
 30
0.0
 40
3.3200116997578362
 50
219.9173015104915123
 51
223.3478461702121081
  0
ARC
  5
A0F8
  8
0
 10
502.9222242426325806
 20
59.7865263636000819
 30
0.0
 40
1.3188048208140859
 50
223.3478461702121081
 51
230.2089020269289108
  0
ARC
  5
A0F9
  8
0
 10
502.285830318579201
 20
59.0224612926527215
 30
0.0
 40
0.324424280369928
 50
230.2089020269289108
 51
240.197178097096895
  0
ARC
  5
A0FA
  8
0
 10
502.1983902955719259
 20
58.8697998408391285
 30
0.0
 40
0.1484945316253242
 50
240.1971780970999077
 51
255.4439500352482071
  0
ARC
  5
A0FB
  8
0
 10
502.1708832424964726
 20
58.7638655784533697
 30
0.0
 40
0.0390472570310663
 50
255.4439500352480934
 51
304.7153498772642024
  0
ARC
  5
A0FC
  8
0
 10
502.1665398851582722
 20
58.7619131890806798
 30
0.0
 40
0.0401896137753853
 50
311.4054974384201273
 51
356.1734543426738924
  0
ARC
  5
A0FD
  8
0
 10
502.0383149310425779
 20
58.7716845953081801
 30
0.0
 40
0.1687850285261321
 50
355.7686861425044071
 51
15.4142278420969294
  0
ARC
  5
A0FE
  8
0
 10
501.3448195242381757
 20
58.5736720741639516
 30
0.0
 40
0.8899900421199646
 50
15.8366755089897104
 51
26.5040664393130001
  0
ARC
  5
A0FF
  8
0
 10
499.9667466119909136
 20
57.9114898671060772
 30
0.0
 40
2.4188411586959631
 50
25.9736529799705096
 51
31.009676838986131
  0
ARC
  5
A100
  8
0
 10
497.738763483900982
 20
56.5797839974394918
 30
0.0
 40
5.0144777545843553
 50
30.93609521662151
 51
34.6796300820358567
  0
ARC
  5
A101
  8
0
 10
493.9670205634799913
 20
53.9855033734199026
 30
0.0
 40
9.5922777298970132
 50
34.6039139501544213
 51
35.7558951571832679
  0
ARC
  5
A102
  8
0
 10
497.7650824050692222
 20
54.8013502401115531
 30
0.0
 40
6.5185739690275977
 50
45.2889487383115821
 51
49.9622087502177692
  0
ARC
  5
A103
  8
0
 10
500.9077228581217014
 20
57.9758489711583991
 30
0.0
 40
2.0516252105818169
 50
38.1142303656074333
 51
45.2889487383115821
  0
ARC
  5
A104
  8
0
 10
501.8201748270166718
 20
58.691668728843382
 30
0.0
 40
0.8918982940051526
 50
30.9547886488577788
 51
38.1142303656074333
  0
ARC
  5
A105
  8
0
 10
502.3821357658687816
 20
59.0287256810311618
 30
0.0
 40
0.2366063851479825
 50
16.9484679354692211
 51
30.9547886488574306
  0
ARC
  5
A106
  8
0
 10
502.5345473805368215
 20
59.0751727363592991
 30
0.0
 40
0.0772745639873662
 50
356.3567305601591784
 51
16.9484679354702017
  0
ARC
  5
A107
  8
0
 10
502.5802365163499985
 20
59.0722635771836977
 30
0.0
 40
0.0314929045758125
 50
274.7116431489532147
 51
356.3567305601579847
  0
ARC
  5
A108
  8
0
 10
502.5729086718272924
 20
59.1611726304914498
 30
0.0
 40
0.1207034256225695
 50
248.9756463341053916
 51
274.7116431489532147
  0
ARC
  5
A109
  8
0
 10
502.8207159707397977
 20
59.8059134642276078
 30
0.0
 40
0.8114271041519028
 50
242.9427849711815952
 51
248.9756463341053916
  0
ARC
  5
A10A
  8
0
 10
502.9997518363439895
 20
60.1564254022148006
 30
0.0
 40
1.2050163060415999
 50
233.0288061352983959
 51
242.9427849711815952
  0
ARC
  5
A10B
  8
0
 10
500.7725827970380124
 20
57.1977785532775584
 30
0.0
 40
2.498208384193795
 50
53.028806135301167
 51
55.8001190428354974
  0
ARC
  5
A10C
  8
0
 10
508.6945221176274003
 20
68.08629249041104
 30
0.0
 40
10.9687642385068607
 50
231.9103465615993969
 51
233.5437114469210087
  0
ARC
  5
A10D
  8
0
 10
540.6053298199924484
 20
108.8277543304088937
 30
0.0
 40
62.7197671781042985
 50
231.7226198950523042
 51
231.9266676289726092
  0
ARC
  5
A10E
  8
0
 10
524.5064294898619437
 20
108.7050255130390042
 30
0.0
 40
53.8587436572746867
 50
245.2514377852911878
 51
245.6404070383113947
  0
ARC
  5
A10F
  8
0
 10
505.2152204001158111
 20
66.0979457183887433
 30
0.0
 40
7.0878766910530553
 50
245.6404070383113947
 51
248.322397484554898
  0
ARC
  5
A110
  8
0
 10
503.2608529917141027
 20
61.1812435677820829
 30
0.0
 40
1.796987162362881
 50
248.322397484554898
 51
254.2666876431302967
  0
ARC
  5
A111
  8
0
 10
502.920214791945682
 20
59.9720836938554029
 30
0.0
 40
0.5407618705239431
 50
254.2666876431302967
 51
264.7905214136799259
  0
ARC
  5
A112
  8
0
 10
502.88016688609639
 20
59.5328363796073816
 30
0.0
 40
0.0996926720561577
 50
264.7905214136799259
 51
293.9921241600011967
  0
ARC
  5
A113
  8
0
 10
502.9098835147901809
 20
59.4660670396551865
 30
0.0
 40
0.0266090023441666
 50
293.9921241599943187
 51
15.5754062340807096
  0
ARC
  5
A114
  8
0
 10
502.8025379447028058
 20
59.4361452812296918
 30
0.0
 40
0.1380468013381915
 50
15.5754062340807096
 51
40.2828365236373216
  0
ARC
  5
A115
  8
0
 10
502.4474405684275098
 20
59.1351836366602797
 30
0.0
 40
0.603527260798759
 50
40.2828365236373216
 51
51.9193705373106127
  0
ARC
  5
A116
  8
0
 10
501.1658365276196037
 20
57.4995548988937628
 30
0.0
 40
2.6814565871289129
 50
51.9193705373106127
 51
57.882904042705249
  0
ARC
  5
A117
  8
0
 10
500.093718751229801
 20
55.7915850306348915
 30
0.0
 40
4.698037256809938
 50
57.882904042705249
 51
64.5553745321730759
  0
ARC
  5
A118
  8
0
 10
506.8633492060772028
 20
82.3941660535438132
 30
0.0
 40
22.8582188542236793
 50
258.0047892938865175
 51
259.4226010059492182
  0
ARC
  5
A119
  8
0
 10
503.3292534052301903
 20
63.46860699824677
 30
0.0
 40
3.6055146627315029
 50
259.4226010059492182
 51
262.8334916977535727
  0
ARC
  5
A11A
  8
0
 10
503.0588466127504148
 20
61.3180076980215176
 30
0.0
 40
1.437982152352812
 50
262.8334916977535727
 51
270.4311573483907978
  0
ARC
  5
A11B
  8
0
 10
503.0681912256118835
 20
60.0762411506633711
 30
0.0
 40
0.1961804451840306
 50
270.4311573483907978
 51
287.6603780980947818
  0
ARC
  5
A11C
  8
0
 10
503.107653814902676
 20
59.9522926482529428
 30
0.0
 40
0.0661015183614055
 50
287.6603780980947249
 51
317.3916654700756226
  0
ARC
  5
A11D
  8
0
 10
503.1381598022554726
 20
59.9242327639965993
 30
0.0
 40
0.0246530881275352
 50
317.3916654700743152
 51
34.3634500456463172
  0
ARC
  5
A11E
  8
0
 10
502.9838516075545272
 20
59.8187202607182016
 30
0.0
 40
0.2115859833064389
 50
34.3634500456463172
 51
56.7476483087884489
  0
ARC
  5
A11F
  8
0
 10
502.6501594167498865
 20
59.30980064231413
 30
0.0
 40
0.8201495840915743
 50
56.7476483087884489
 51
67.374370557120514
  0
ARC
  5
A120
  8
0
 10
501.1242118877095209
 20
55.6485641489734206
 30
0.0
 40
4.7866554168812296
 50
67.374370557120514
 51
70.159091528266444
  0
ARC
  5
A121
  8
0
 10
501.4591577372067945
 20
56.5768319696594304
 30
0.0
 40
3.7998069639683099
 50
70.159091528266444
 51
78.6682150489771601
  0
ARC
  5
A122
  8
0
 10
502.0367910639711795
 20
80.7064597622339761
 30
0.0
 40
20.4028579698877905
 50
270.475715172421701
 51
272.1095242954112905
  0
ARC
  5
A123
  8
0
 10
502.655878988924826
 20
63.8993075795701699
 30
0.0
 40
3.584307665237751
 50
272.1095242954112905
 51
276.945509576325378
  0
ARC
  5
A124
  8
0
 10
503.0025249118243096
 20
61.0537327963255905
 30
0.0
 40
0.7176965575183488
 50
276.945509576325378
 51
287.9871935101799068
  0
ARC
  5
A125
  8
0
 10
503.1877595906233864
 20
60.4832052005879106
 30
0.0
 40
0.1178518911854862
 50
287.9871935101800204
 51
313.4347509046806977
  0
ARC
  5
A126
  8
0
 10
503.2489547877768246
 20
60.4185716642780406
 30
0.0
 40
0.0288443287507487
 50
313.4347509046770028
 51
38.3049821009358666
  0
ARC
  5
A127
  8
0
 10
503.1941477399057021
 20
60.3752799273736471
 30
0.0
 40
0.0986869159059775
 50
38.3049821009358666
 51
64.2082997644178306
  0
ARC
  5
A128
  8
0
 10
502.998027559163404
 20
59.9694358257316225
 30
0.0
 40
0.5494335854799667
 50
64.2082997644178306
 51
71.6901863016344407
  0
ARC
  5
A129
  8
0
 10
502.8567255001871104
 20
59.542423225256492
 30
0.0
 40
0.9992180147741072
 50
71.6901863016344407
 51
82.6145122917245658
  0
ARC
  5
A12A
  8
0
 10
502.545253659254513
 20
57.8771463743233809
 30
0.0
 40
2.6923876801781268
 50
80.5961404635905581
 51
84.2412111958336567
  0
ARC
  5
A12B
  8
0
 10
502.2314978846458189
 20
54.6958161427871303
 30
0.0
 40
5.8891488599350641
 50
84.3097479689777742
 51
89.9531309738802065
  0
ARC
  5
A12C
  8
0
 10
501.092573365557314
 20
65.8923172901990029
 30
0.0
 40
5.4281204765467184
 50
282.1637141342746986
 51
283.8161300556354263
  0
ARC
  5
A12D
  8
0
 10
467.5299294704030899
 20
202.3690543404337916
 30
0.0
 40
145.9711772994002956
 50
283.8161300556354263
 51
283.9886170930087133
  0
ARC
  5
A12E
  8
0
 10
502.1057240220779931
 20
63.5756544724773889
 30
0.0
 40
2.935889989638623
 50
283.9886170930085996
 51
290.6268743268615253
  0
ARC
  5
A12F
  8
0
 10
502.9475678184385856
 20
61.3391510894006871
 30
0.0
 40
0.5461936993154834
 50
290.6268743268615253
 51
302.6504828333170849
  0
ARC
  5
A130
  8
0
 10
503.1865118286955862
 20
60.9662490417830796
 30
0.0
 40
0.1033052515601991
 50
302.6504828333170849
 51
326.0046632281495818
  0
ARC
  5
A131
  8
0
 10
503.2468350223680886
 20
60.9255676768127969
 30
0.0
 40
0.0305463266732366
 50
326.0046632281511165
 51
55.1056862515918482
  0
ARC
  5
A132
  8
0
 10
503.1954657197371716
 20
60.8519159323834415
 30
0.0
 40
0.1203426779926347
 50
55.1056862515913792
 51
79.4390281075693849
  0
ARC
  5
A133
  8
0
 10
503.0711941482900897
 20
60.1853659076924714
 30
0.0
 40
0.7983783399496182
 50
79.4390281075693849
 51
85.4806647248809668
  0
ARC
  5
A134
  8
0
 10
503.0580454555542929
 20
60.019013663041882
 30
0.0
 40
0.9652494201910807
 50
85.4806647248809668
 51
94.3019072857408673
  0
ARC
  5
A135
  8
0
 10
503.4950407390430769
 20
54.2097489426693002
 30
0.0
 40
6.7909271892714331
 50
94.3019072857408673
 51
97.0592927226884541
  0
ARC
  5
A136
  8
0
 10
503.1550686593586761
 20
56.9551090529054989
 30
0.0
 40
4.0245969215989073
 50
97.0592927226884541
 51
103.6776940588118947
  0
ARC
  5
A137
  8
0
 10
497.9440197507479979
 20
70.3941030394940839
 30
0.0
 40
10.4343826637636692
 50
294.0882916603397916
 51
297.4180684166606738
  0
ARC
  5
A138
  8
0
 10
500.6698645025397809
 20
65.1394718337317613
 30
0.0
 40
4.5148067735970647
 50
297.4180684166606738
 51
301.7611053774181755
  0
ARC
  5
A139
  8
0
 10
502.8030238728787253
 20
61.6938174061443405
 30
0.0
 40
0.4622886263684278
 50
301.7611053774185734
 51
316.6127377836937171
  0
ARC
  5
A13A
  8
0
 10
503.0652993572161904
 20
61.4459062373835323
 30
0.0
 40
0.1013892258690553
 50
316.6127377836963888
 51
338.3675842310079815
  0
ARC
  5
A13B
  8
0
 10
503.1312681167665914
 20
61.4197441748289208
 30
0.0
 40
0.0304221155028374
 50
338.3675842310092889
 51
67.5163223468786384
  0
ARC
  5
A13C
  8
0
 10
503.0987853890048882
 20
61.3412607016478901
 30
0.0
 40
0.115361995214288
 50
67.5163223468788658
 51
86.3053054984551551
  0
ARC
  5
A13D
  8
0
 10
503.0827544458206262
 20
61.0930042073513206
 30
0.0
 40
0.3641355430440342
 50
86.3053054984551551
 51
100.3712388247153058
  0
ARC
  5
A13E
  8
0
 10
503.4425250779015073
 20
59.1272110364379202
 30
0.0
 40
2.3625793622487681
 50
100.3712388247153058
 51
105.710938864737102
  0
ARC
  5
A13F
  8
0
 10
503.3799513131733079
 20
59.3496612558185888
 30
0.0
 40
2.1314958792068799
 50
105.710938864737102
 51
109.5299162172659067
  0
ARC
  5
A140
  8
0
 10
505.1069478241170145
 20
54.4808541838656879
 30
0.0
 40
7.2975194227759523
 50
109.5299162172659067
 51
114.2635641890257006
  0
ARC
  5
A141
  8
0
 10
495.3266642268347937
 20
70.3551389563621967
 30
0.0
 40
11.4443742178478498
 50
306.3329692935027992
 51
309.4043150007967142
  0
ARC
  5
A142
  8
0
 10
500.3483896893544056
 20
64.2425289487717635
 30
0.0
 40
3.53351284086669
 50
309.4043150007967142
 51
315.779563635669092
  0
ARC
  5
A143
  8
0
 10
502.708505849698895
 20
61.9457778122695188
 30
0.0
 40
0.2403055784333573
 50
315.7795636356693194
 51
339.675779999668805
  0
ARC
  5
A144
  8
0
 10
502.9019575275813168
 20
61.8741248837994888
 30
0.0
 40
0.0340104165079072
 50
339.6757799996696008
 51
92.0797457596285653
  0
ARC
  5
A145
  8
0
 10
502.9122019835784272
 20
61.5920200750708418
 30
0.0
 40
0.3163011743915073
 50
92.0797457596285653
 51
111.3215470288803033
  0
ARC
  5
A146
  8
0
 10
503.4444841536421222
 20
60.2283024686327195
 30
0.0
 40
1.780217161966275
 50
111.3215470288803033
 51
118.8509359254630056
  0
ARC
  5
A147
  8
0
 10
504.585862976872022
 20
58.156507050868008
 30
0.0
 40
4.1456097025794669
 50
118.8509359254630056
 51
123.4356925826965039
  0
ARC
  5
A148
  8
0
 10
507.3556752335957754
 20
53.9615549512776767
 30
0.0
 40
9.17248577578391
 50
123.4356925826965039
 51
126.0763147107331008
  0
ARC
  5
A149
  8
0
 10
490.3450217314094743
 20
71.5374741130438565
 30
0.0
 40
15.4276507035387294
 50
318.8029879970055731
 51
319.9191712674506221
  0
ARC
  5
A14A
  8
0
 10
493.3245526798962146
 20
69.0812349430723884
 30
0.0
 40
11.5664747073562797
 50
319.7256611498240773
 51
321.2977033026886033
  0
ARC
  5
A14B
  8
0
 10
500.5079865395779279
 20
63.3843915929360975
 30
0.0
 40
2.3988334830193412
 50
320.2044991680716066
 51
329.838246228744481
  0
ARC
  5
A14C
  8
0
 10
502.2649678761915197
 20
62.3412377371001298
 30
0.0
 40
0.3561185699347678
 50
332.9189710631256958
 51
346.5327060711662739
  0
ARC
  5
A14D
  8
0
 10
502.5755230395345734
 20
62.266867504638121
 30
0.0
 40
0.0367826324715914
 50
346.5327060711666149
 51
106.0944629703326001
  0
ARC
  5
A14E
  8
0
 10
502.6608501575418018
 20
61.9711375088198295
 30
0.0
 40
0.3445763092976673
 50
106.0944629703326001
 51
118.0699053146944948
  0
ARC
  5
A14F
  8
0
 10
502.8692021926016764
 20
61.5804350473457376
 30
0.0
 40
0.7873617922524546
 50
118.0699053146944948
 51
132.8945309388855947
  0
ARC
  5
A150
  8
0
 10
504.3404221460779127
 20
59.729317275404668
 30
0.0
 40
3.1501623678397919
 50
129.5799250518406041
 51
133.3807041670750095
  0
ARC
  5
A151
  8
0
 10
504.9856105531196135
 20
58.8769772761522816
 30
0.0
 40
4.2144016530806363
 50
131.7967017041825954
 51
140.1693047607344056
  0
ARC
  5
A152
  8
0
 10
486.3724049984734279
 20
70.1108792943754793
 30
0.0
 40
17.5852139212855185
 50
330.9694727484654209
 51
332.9922543347794885
  0
ARC
  5
A153
  8
0
 10
499.4475246331867879
 20
63.4465464457928121
 30
0.0
 40
2.9096530877511171
 50
332.9922543347794885
 51
339.9615124222618192
  0
ARC
  5
A154
  8
0
 10
501.7307722191637254
 20
62.6137749439896396
 30
0.0
 40
0.4792770030504514
 50
339.9615124222618192
 51
353.5717838998215825
  0
ARC
  5
A155
  8
0
 10
502.1168998840865925
 20
62.5702712298333807
 30
0.0
 40
0.0907063572675331
 50
353.5717838998215825
 51
19.3521841655821483
  0
ARC
  5
A156
  8
0
 10
502.1749229795938163
 20
62.5906499753639096
 30
0.0
 40
0.0292086103036568
 50
19.3521841655834983
 51
105.9733035580477036
  0
ARC
  5
A157
  8
0
 10
502.2076822130396181
 20
62.4762037205918119
 30
0.0
 40
0.1482510926674022
 50
105.9733035580509011
 51
128.6704070333641994
  0
ARC
  5
A158
  8
0
 10
502.5665023614532174
 20
62.0278485838490923
 30
0.0
 40
0.7225108140053408
 50
128.6704070333641141
 51
141.1414141570222114
  0
ARC
  5
A159
  8
0
 10
505.7203947136675879
 20
59.4867400153807111
 30
0.0
 40
4.7727292928160958
 50
141.1414141570222114
 51
144.5770360297752859
  0
ARC
  5
A15A
  8
0
 10
506.07872244129112
 20
59.2318735434672305
 30
0.0
 40
5.2124515675411853
 50
144.5770360297752859
 51
151.3930809284318002
  0
ARC
  5
A15B
  8
0
 10
489.8495613057540936
 20
65.3990208608442458
 30
0.0
 40
12.2163492977761905
 50
342.5131371686940156
 51
345.4359591737763253
  0
ARC
  5
A15C
  8
0
 10
499.123514561246111
 20
63.0112097492083407
 30
0.0
 40
2.6400338542874429
 50
344.9810114489313264
 51
352.8477682994449083
  0
ARC
  5
A15D
  8
0
 10
501.3872131129410832
 20
62.7330244306987126
 30
0.0
 40
0.3593609162103453
 50
351.9192487252802266
 51
12.6774713300694195
  0
ARC
  5
A15E
  8
0
 10
501.7034554549779273
 20
62.8033087646754424
 30
0.0
 40
0.0354132775460048
 50
14.02451708309321
 51
125.4546408936508044
  0
ARC
  5
A15F
  8
0
 10
501.8044634220960916
 20
62.6614634223263565
 30
0.0
 40
0.2095474515828264
 50
125.4546408936508044
 51
141.835909531797995
  0
ARC
  5
A160
  8
0
 10
502.2132733378184071
 20
62.3401764154585365
 30
0.0
 40
0.7295002263374438
 50
141.8359095317973981
 51
154.2709764267659125
  0
ARC
  5
A161
  8
0
 10
508.7923396739050759
 20
59.1697800323352325
 30
0.0
 40
8.032617853813349
 50
154.2709764267665946
 51
156.2380723320852098
  0
ARC
  5
A162
  8
0
 10
505.7877604963920817
 20
60.4925731638528603
 30
0.0
 40
4.7497414164896199
 50
156.2380723320852098
 51
163.7517786142277885
  0
ARC
  5
A163
  8
0
 10
501.43566986880478
 20
62.0162797214199699
 30
0.0
 40
0.0534671569205122
 50
316.5521078948739842
 51
0.3114030538779059
  0
ARC
  5
A164
  8
0
 10
501.4414790278141822
 20
62.0107770675353009
 30
0.0
 40
0.0454655615689016
 50
209.2508209569766109
 51
316.5521078948755189
  0
ARC
  5
A165
  8
0
 10
501.450616213813305
 20
62.0158943095461197
 30
0.0
 40
0.0559381130145598
 50
176.5103463487513977
 51
209.2508209569757014
  0
ARC
  5
A166
  8
0
 10
501.4475363093715146
 20
62.0160821263347017
 30
0.0
 40
0.0528524872243534
 50
114.1798296607424987
 51
176.5103463487533872
  0
ARC
  5
A167
  8
0
 10
501.4430835926311829
 20
62.0259992062073024
 30
0.0
 40
0.041981647350174
 50
38.3853636411209678
 51
114.1798296607424987
  0
ARC
  5
A168
  8
0
 10
501.4281487998139824
 20
62.0141682458207981
 30
0.0
 40
0.0610347221717312
 50
2.2555021599478922
 51
38.3853636411209678
  0
ARC
  5
A169
  8
0
 10
501.4419037129882213
 20
62.0246168116880199
 30
0.0
 40
0.0479130185980869
 50
297.2643364059562145
 51
350.3319504778169176
  0
ARC
  5
A16A
  8
0
 10
501.4420615039765039
 20
62.0255056527939104
 30
0.0
 40
0.0486339093795779
 50
220.8183313734182036
 51
296.6193868926611117
  0
ARC
  5
A16B
  8
0
 10
501.4381311167264244
 20
62.022110838491173
 30
0.0
 40
0.0434403837865608
 50
183.7110535079679892
 51
220.8183313734132867
  0
ARC
  5
A16C
  8
0
 10
501.4421249279496919
 20
62.0223323830159998
 30
0.0
 40
0.0233994476309815
 50
1.952098087485397
 51
84.0819773267124475
  0
ARC
  5
A16D
  8
0
 10
501.4429457484184809
 20
62.0223603596376876
 30
0.0
 40
0.0225781505268381
 50
270.14877690599468
 51
1.9520980874866181
  0
ARC
  5
A16E
  8
0
 10
501.4429375999857825
 20
62.0254984122197968
 30
0.0
 40
0.0257162136882436
 50
210.4039948241043874
 51
270.1487769059979769
  0
ARC
  5
A16F
  8
0
 10
501.4409397283740759
 20
62.0227748399536907
 30
0.0
 40
0.0226542509034798
 50
121.3795704307324996
 51
207.0182586148297901
  0
ARC
  5
A170
  8
0
 10
501.4418844237558801
 20
62.0216230445262084
 30
0.0
 40
0.024130374519042
 50
83.6876159108820303
 51
121.8705483290995062
  0
ARC
  5
A171
  8
0
 10
501.4838863022134205
 20
62.1659639991381567
 30
0.0
 40
0.0534671569205122
 50
316.5521078948739842
 51
0.3114030538779059
  0
ARC
  5
A172
  8
0
 10
501.4896954612228797
 20
62.1604613452534664
 30
0.0
 40
0.0454655615689016
 50
209.2508209569766109
 51
316.5521078948755189
  0
ARC
  5
A173
  8
0
 10
501.4988326472221161
 20
62.1655785872642994
 30
0.0
 40
0.0559381130145598
 50
176.5103463487513977
 51
209.2508209569757014
  0
ARC
  5
A174
  8
0
 10
501.495752742780212
 20
62.1657664040528815
 30
0.0
 40
0.0528524872243534
 50
114.1798296607424987
 51
176.5103463487533872
  0
ARC
  5
A175
  8
0
 10
501.4913000260398235
 20
62.1756834839254893
 30
0.0
 40
0.041981647350174
 50
38.3853636411209678
 51
114.1798296607424987
  0
ARC
  5
A176
  8
0
 10
501.4763652332226798
 20
62.1638525235389778
 30
0.0
 40
0.0610347221717312
 50
2.2555021599478922
 51
38.3853636411209678
  0
ARC
  5
A177
  8
0
 10
501.4901201463969755
 20
62.1743010894062067
 30
0.0
 40
0.0479130185980869
 50
297.2643364059562145
 51
350.3319504778169176
  0
ARC
  5
A178
  8
0
 10
501.4902779373850876
 20
62.1751899305120972
 30
0.0
 40
0.0486339093795779
 50
220.8183313734182036
 51
296.6193868926611117
  0
ARC
  5
A179
  8
0
 10
501.4863475501351786
 20
62.1717951162093385
 30
0.0
 40
0.0434403837865608
 50
183.7110535079679892
 51
220.8183313734132867
  0
ARC
  5
A17A
  8
0
 10
501.4903413613583893
 20
62.1720166607341724
 30
0.0
 40
0.0233994476309815
 50
1.952098087485397
 51
84.0819773267124475
  0
ARC
  5
A17B
  8
0
 10
501.4911621818271783
 20
62.1720446373558673
 30
0.0
 40
0.0225781505268381
 50
270.14877690599468
 51
1.9520980874866181
  0
ARC
  5
A17C
  8
0
 10
501.4911540333944799
 20
62.1751826899379623
 30
0.0
 40
0.0257162136882436
 50
210.4039948241043874
 51
270.1487769059979769
  0
ARC
  5
A17D
  8
0
 10
501.4891561617827733
 20
62.1724591176718704
 30
0.0
 40
0.0226542509034798
 50
121.3795704307324996
 51
207.0182586148297901
  0
ARC
  5
A17E
  8
0
 10
501.4901008571645775
 20
62.1713073222444024
 30
0.0
 40
0.024130374519042
 50
83.6876159108820303
 51
121.8705483290995062
  0
ARC
  5
A17F
  8
0
 10
501.5806573525250087
 20
62.4665459890930208
 30
0.0
 40
0.0534671569205122
 50
316.5521078948739842
 51
0.3114030538779059
  0
ARC
  5
A180
  8
0
 10
501.586466511534411
 20
62.4610433352083305
 30
0.0
 40
0.0454655615689016
 50
209.2508209569766109
 51
316.5521078948755189
  0
ARC
  5
A181
  8
0
 10
501.5956036975337042
 20
62.4661605772191493
 30
0.0
 40
0.0559381130145598
 50
176.5103463487513977
 51
209.2508209569757014
  0
ARC
  5
A182
  8
0
 10
501.5925237930916865
 20
62.4663483940077313
 30
0.0
 40
0.0528524872243534
 50
114.1798296607424987
 51
176.5103463487533872
  0
ARC
  5
A183
  8
0
 10
501.588071076351298
 20
62.476265473880332
 30
0.0
 40
0.041981647350174
 50
38.3853636411209678
 51
114.1798296607424987
  0
ARC
  5
A184
  8
0
 10
501.5731362835343248
 20
62.4644345134938277
 30
0.0
 40
0.0610347221717312
 50
2.2555021599478922
 51
38.3853636411209678
  0
ARC
  5
A185
  8
0
 10
501.5868911967086206
 20
62.4748830793610495
 30
0.0
 40
0.0479130185980869
 50
297.2643364059562145
 51
350.3319504778169176
  0
ARC
  5
A186
  8
0
 10
501.5870489876966758
 20
62.4757719204669399
 30
0.0
 40
0.0486339093795779
 50
220.8183313734182036
 51
296.6193868926611117
  0
ARC
  5
A187
  8
0
 10
501.5831186004467099
 20
62.4723771061642026
 30
0.0
 40
0.0434403837865608
 50
183.7110535079679892
 51
220.8183313734132867
  0
ARC
  5
A188
  8
0
 10
501.5871124116699207
 20
62.4725986506890294
 30
0.0
 40
0.0233994476309815
 50
1.952098087485397
 51
84.0819773267124475
  0
ARC
  5
A189
  8
0
 10
501.5879332321388233
 20
62.4726266273107171
 30
0.0
 40
0.0225781505268381
 50
270.14877690599468
 51
1.9520980874866181
  0
ARC
  5
A18A
  8
0
 10
501.5879250837060113
 20
62.4757646798928334
 30
0.0
 40
0.0257162136882436
 50
210.4039948241043874
 51
270.1487769059979769
  0
ARC
  5
A18B
  8
0
 10
501.5859272120943047
 20
62.4730411076267202
 30
0.0
 40
0.0226542509034798
 50
121.3795704307324996
 51
207.0182586148297901
  0
ARC
  5
A18C
  8
0
 10
501.5868719074761088
 20
62.471889312199238
 30
0.0
 40
0.024130374519042
 50
83.6876159108820303
 51
121.8705483290995062
  0
ARC
  5
A18D
  8
0
 10
501.6457106109799042
 20
62.654186254781763
 30
0.0
 40
0.0534671569205122
 50
316.5521078948739842
 51
0.3114030538779059
  0
ARC
  5
A18E
  8
0
 10
501.6515197699891928
 20
62.6486836008970727
 30
0.0
 40
0.0454655615689016
 50
209.2508209569766109
 51
316.5521078948755189
  0
ARC
  5
A18F
  8
0
 10
501.6606569559884861
 20
62.6538008429078914
 30
0.0
 40
0.0559381130145598
 50
176.5103463487513977
 51
209.2508209569757014
  0
ARC
  5
A190
  8
0
 10
501.657577051546582
 20
62.6539886596964735
 30
0.0
 40
0.0528524872243534
 50
114.1798296607424987
 51
176.5103463487533872
  0
ARC
  5
A191
  8
0
 10
501.6531243348061935
 20
62.6639057395690813
 30
0.0
 40
0.041981647350174
 50
38.3853636411209678
 51
114.1798296607424987
  0
ARC
  5
A192
  8
0
 10
501.6381895419891066
 20
62.6520747791825769
 30
0.0
 40
0.0610347221717312
 50
2.2555021599478922
 51
38.3853636411209678
  0
ARC
  5
A193
  8
0
 10
501.6519444551634024
 20
62.6625233450497916
 30
0.0
 40
0.0479130185980869
 50
297.2643364059562145
 51
350.3319504778169176
  0
ARC
  5
A194
  8
0
 10
501.6521022461516282
 20
62.6634121861556821
 30
0.0
 40
0.0486339093795779
 50
220.8183313734182036
 51
296.6193868926611117
  0
ARC
  5
A195
  8
0
 10
501.6481718589013781
 20
62.6600173718529376
 30
0.0
 40
0.0434403837865608
 50
183.7110535079679892
 51
220.8183313734132867
  0
ARC
  5
A196
  8
0
 10
501.6521656701248162
 20
62.6602389163777715
 30
0.0
 40
0.0233994476309815
 50
1.952098087485397
 51
84.0819773267124475
  0
ARC
  5
A197
  8
0
 10
501.6529864905934915
 20
62.6602668929994593
 30
0.0
 40
0.0225781505268381
 50
270.14877690599468
 51
1.9520980874866181
  0
ARC
  5
A198
  8
0
 10
501.6529783421607931
 20
62.6634049455815472
 30
0.0
 40
0.0257162136882436
 50
210.4039948241043874
 51
270.1487769059979769
  0
ARC
  5
A199
  8
0
 10
501.6509804705490865
 20
62.6606813733154624
 30
0.0
 40
0.0226542509034798
 50
121.3795704307324996
 51
207.0182586148297901
  0
ARC
  5
A19A
  8
0
 10
501.6519251659310044
 20
62.6595295778879802
 30
0.0
 40
0.024130374519042
 50
83.6876159108820303
 51
121.8705483290995062
  0
ARC
  5
A19B
  8
0
 10
502.0824738941005876
 20
62.4486766188055782
 30
0.0
 40
0.0534671569205122
 50
316.5521078948739842
 51
0.3114030538779059
  0
ARC
  5
A19C
  8
0
 10
502.0882830531099899
 20
62.4431739649208879
 30
0.0
 40
0.0454655615689016
 50
209.2508209569766109
 51
316.5521078948755189
  0
ARC
  5
A19D
  8
0
 10
502.0974202391092831
 20
62.4482912069317209
 30
0.0
 40
0.0559381130145598
 50
176.5103463487513977
 51
209.2508209569757014
  0
ARC
  5
A19E
  8
0
 10
502.094340334667379
 20
62.4484790237203029
 30
0.0
 40
0.0528524872243534
 50
114.1798296607424987
 51
176.5103463487533872
  0
ARC
  5
A19F
  8
0
 10
502.0898876179268768
 20
62.4583961035929107
 30
0.0
 40
0.041981647350174
 50
38.3853636411209678
 51
114.1798296607424987
  0
ARC
  5
A1A0
  8
0
 10
502.0749528251099036
 20
62.4465651432064135
 30
0.0
 40
0.0610347221717312
 50
2.2555021599478922
 51
38.3853636411209678
  0
ARC
  5
A1A1
  8
0
 10
502.0887077382840857
 20
62.457013709073621
 30
0.0
 40
0.0479130185980869
 50
297.2643364059562145
 51
350.3319504778169176
  0
ARC
  5
A1A2
  8
0
 10
502.0888655292723115
 20
62.4579025501795186
 30
0.0
 40
0.0486339093795779
 50
220.8183313734182036
 51
296.6193868926611117
  0
ARC
  5
A1A3
  8
0
 10
502.0849351420221751
 20
62.4545077358767671
 30
0.0
 40
0.0434403837865608
 50
183.7110535079679892
 51
220.8183313734132867
  0
ARC
  5
A1A4
  8
0
 10
502.0889289532454995
 20
62.454729280401601
 30
0.0
 40
0.0233994476309815
 50
1.952098087485397
 51
84.0819773267124475
  0
ARC
  5
A1A5
  8
0
 10
502.0897497737141748
 20
62.4547572570233029
 30
0.0
 40
0.0225781505268381
 50
270.14877690599468
 51
1.9520980874866181
  0
ARC
  5
A1A6
  8
0
 10
502.0897416252814764
 20
62.4578953096053766
 30
0.0
 40
0.0257162136882436
 50
210.4039948241043874
 51
270.1487769059979769
  0
ARC
  5
A1A7
  8
0
 10
502.0877437536698835
 20
62.4551717373392918
 30
0.0
 40
0.0226542509034798
 50
121.3795704307324996
 51
207.0182586148297901
  0
ARC
  5
A1A8
  8
0
 10
502.0886884490516877
 20
62.4540199419118167
 30
0.0
 40
0.024130374519042
 50
83.6876159108820303
 51
121.8705483290995062
  0
ARC
  5
A1A9
  8
0
 10
501.97805841876351
 20
62.2752736697412317
 30
0.0
 40
0.0534671569205122
 50
316.5521078948739842
 51
0.3114030538779059
  0
ARC
  5
A1AA
  8
0
 10
501.9838675777727985
 20
62.2697710158565627
 30
0.0
 40
0.0454655615689016
 50
209.2508209569766109
 51
316.5521078948755189
  0
ARC
  5
A1AB
  8
0
 10
501.9930047637720918
 20
62.2748882578673815
 30
0.0
 40
0.0559381130145598
 50
176.5103463487513977
 51
209.2508209569757014
  0
ARC
  5
A1AC
  8
0
 10
501.9899248593301877
 20
62.2750760746559706
 30
0.0
 40
0.0528524872243534
 50
114.1798296607424987
 51
176.5103463487533872
  0
ARC
  5
A1AD
  8
0
 10
501.9854721425899129
 20
62.2849931545285713
 30
0.0
 40
0.041981647350174
 50
38.3853636411209678
 51
114.1798296607424987
  0
ARC
  5
A1AE
  8
0
 10
501.9705373497727123
 20
62.2731621941420599
 30
0.0
 40
0.0610347221717312
 50
2.2555021599478922
 51
38.3853636411209678
  0
ARC
  5
A1AF
  8
0
 10
501.9842922629471218
 20
62.2836107600092888
 30
0.0
 40
0.0479130185980869
 50
297.2643364059562145
 51
350.3319504778169176
  0
ARC
  5
A1B0
  8
0
 10
501.984450053935177
 20
62.2844996011151792
 30
0.0
 40
0.0486339093795779
 50
220.8183313734182036
 51
296.6193868926611117
  0
ARC
  5
A1B1
  8
0
 10
501.9805196666850975
 20
62.2811047868124277
 30
0.0
 40
0.0434403837865608
 50
183.7110535079679892
 51
220.8183313734132867
  0
ARC
  5
A1B2
  8
0
 10
501.9845134779084219
 20
62.2813263313372616
 30
0.0
 40
0.0233994476309815
 50
1.952098087485397
 51
84.0819773267124475
  0
ARC
  5
A1B3
  8
0
 10
501.9853342983772109
 20
62.2813543079589493
 30
0.0
 40
0.0225781505268381
 50
270.14877690599468
 51
1.9520980874866181
  0
ARC
  5
A1B4
  8
0
 10
501.9853261499445125
 20
62.2844923605410585
 30
0.0
 40
0.0257162136882436
 50
210.4039948241043874
 51
270.1487769059979769
  0
ARC
  5
A1B5
  8
0
 10
501.9833282783328059
 20
62.2817687882749524
 30
0.0
 40
0.0226542509034798
 50
121.3795704307324996
 51
207.0182586148297901
  0
ARC
  5
A1B6
  8
0
 10
501.9842729737144964
 20
62.2806169928474702
 30
0.0
 40
0.024130374519042
 50
83.6876159108820303
 51
121.8705483290995062
  0
ARC
  5
A1B7
  8
0
 10
501.8208588613106826
 20
62.0076770096282388
 30
0.0
 40
0.0534671569205122
 50
316.5521078948739842
 51
0.3114030538779059
  0
ARC
  5
A1B8
  8
0
 10
501.8266680203200849
 20
62.0021743557435698
 30
0.0
 40
0.0454655615689016
 50
209.2508209569766109
 51
316.5521078948755189
  0
ARC
  5
A1B9
  8
0
 10
501.8358052063193213
 20
62.0072915977543886
 30
0.0
 40
0.0559381130145598
 50
176.5103463487513977
 51
209.2508209569757014
  0
ARC
  5
A1BA
  8
0
 10
501.8327253018774741
 20
62.0074794145429777
 30
0.0
 40
0.0528524872243534
 50
114.1798296607424987
 51
176.5103463487533872
  0
ARC
  5
A1BB
  8
0
 10
501.8282725851370856
 20
62.0173964944155927
 30
0.0
 40
0.041981647350174
 50
38.3853636411209678
 51
114.1798296607424987
  0
ARC
  5
A1BC
  8
0
 10
501.8133377923199987
 20
62.0055655340290812
 30
0.0
 40
0.0610347221717312
 50
2.2555021599478922
 51
38.3853636411209678
  0
ARC
  5
A1BD
  8
0
 10
501.8270927054941808
 20
62.016014099896303
 30
0.0
 40
0.0479130185980869
 50
297.2643364059562145
 51
350.3319504778169176
  0
ARC
  5
A1BE
  8
0
 10
501.8272504964825202
 20
62.0169029410021935
 30
0.0
 40
0.0486339093795779
 50
220.8183313734182036
 51
296.6193868926611117
  0
ARC
  5
A1BF
  8
0
 10
501.8233201092323839
 20
62.0135081266994419
 30
0.0
 40
0.0434403837865608
 50
183.7110535079679892
 51
220.8183313734132867
  0
ARC
  5
A1C0
  8
0
 10
501.8273139204555946
 20
62.0137296712242687
 30
0.0
 40
0.0233994476309815
 50
1.952098087485397
 51
84.0819773267124475
  0
ARC
  5
A1C1
  8
0
 10
501.8281347409244972
 20
62.0137576478459707
 30
0.0
 40
0.0225781505268381
 50
270.14877690599468
 51
1.9520980874866181
  0
ARC
  5
A1C2
  8
0
 10
501.8281265924917989
 20
62.0168957004280728
 30
0.0
 40
0.0257162136882436
 50
210.4039948241043874
 51
270.1487769059979769
  0
ARC
  5
A1C3
  8
0
 10
501.8261287208799786
 20
62.0141721281619596
 30
0.0
 40
0.0226542509034798
 50
121.3795704307324996
 51
207.0182586148297901
  0
ARC
  5
A1C4
  8
0
 10
501.8270734162617828
 20
62.0130203327344915
 30
0.0
 40
0.024130374519042
 50
83.6876159108820303
 51
121.8705483290995062
  0
ARC
  5
A1C5
  8
0
 10
501.7438536442692794
 20
61.8720875274903221
 30
0.0
 40
0.0534671569205122
 50
316.5521078948739842
 51
0.3114030538779059
  0
ARC
  5
A1C6
  8
0
 10
501.7496628032786248
 20
61.8665848736056532
 30
0.0
 40
0.0454655615689016
 50
209.2508209569766109
 51
316.5521078948755189
  0
ARC
  5
A1C7
  8
0
 10
501.758799989277918
 20
61.8717021156164577
 30
0.0
 40
0.0559381130145598
 50
176.5103463487513977
 51
209.2508209569757014
  0
ARC
  5
A1C8
  8
0
 10
501.7557200848359003
 20
61.8718899324050398
 30
0.0
 40
0.0528524872243534
 50
114.1798296607424987
 51
176.5103463487533872
  0
ARC
  5
A1C9
  8
0
 10
501.7512673680955118
 20
61.8818070122776476
 30
0.0
 40
0.041981647350174
 50
38.3853636411209678
 51
114.1798296607424987
  0
ARC
  5
A1CA
  8
0
 10
501.7363325752784817
 20
61.8699760518911503
 30
0.0
 40
0.0610347221717312
 50
2.2555021599478922
 51
38.3853636411209678
  0
ARC
  5
A1CB
  8
0
 10
501.7500874884527207
 20
61.8804246177583721
 30
0.0
 40
0.0479130185980869
 50
297.2643364059562145
 51
350.3319504778169176
  0
ARC
  5
A1CC
  8
0
 10
501.7502452794408896
 20
61.8813134588642626
 30
0.0
 40
0.0486339093795779
 50
220.8183313734182036
 51
296.6193868926611117
  0
ARC
  5
A1CD
  8
0
 10
501.74631489219081
 20
61.877918644561511
 30
0.0
 40
0.0434403837865608
 50
183.7110535079679892
 51
220.8183313734132867
  0
ARC
  5
A1CE
  8
0
 10
501.7503087034141913
 20
61.8781401890863521
 30
0.0
 40
0.0233994476309815
 50
1.952098087485397
 51
84.0819773267124475
  0
ARC
  5
A1CF
  8
0
 10
501.7511295238829234
 20
61.8781681657080398
 30
0.0
 40
0.0225781505268381
 50
270.14877690599468
 51
1.9520980874866181
  0
ARC
  5
A1D0
  8
0
 10
501.7511213754501114
 20
61.8813062182901419
 30
0.0
 40
0.0257162136882436
 50
210.4039948241043874
 51
270.1487769059979769
  0
ARC
  5
A1D1
  8
0
 10
501.7491235038384048
 20
61.8785826460240429
 30
0.0
 40
0.0226542509034798
 50
121.3795704307324996
 51
207.0182586148297901
  0
ARC
  5
A1D2
  8
0
 10
501.7500681992203226
 20
61.8774308505965607
 30
0.0
 40
0.024130374519042
 50
83.6876159108820303
 51
121.8705483290995062
  0
ARC
  5
A1D3
  8
0
 10
502.0099188741576199
 20
61.6644945849455368
 30
0.0
 40
0.0534671569205122
 50
316.5521078948739842
 51
0.3114030538779059
  0
ARC
  5
A1D4
  8
0
 10
502.0157280331670222
 20
61.6589919310608465
 30
0.0
 40
0.0454655615689016
 50
209.2508209569766109
 51
316.5521078948755189
  0
ARC
  5
A1D5
  8
0
 10
502.0248652191662018
 20
61.6641091730716724
 30
0.0
 40
0.0559381130145598
 50
176.5103463487513977
 51
209.2508209569757014
  0
ARC
  5
A1D6
  8
0
 10
502.0217853147242977
 20
61.6642969898602473
 30
0.0
 40
0.0528524872243534
 50
114.1798296607424987
 51
176.5103463487533872
  0
ARC
  5
A1D7
  8
0
 10
502.0173325979839092
 20
61.6742140697328622
 30
0.0
 40
0.041981647350174
 50
38.3853636411209678
 51
114.1798296607424987
  0
ARC
  5
A1D8
  8
0
 10
502.0023978051668792
 20
61.6623831093463579
 30
0.0
 40
0.0610347221717312
 50
2.2555021599478922
 51
38.3853636411209678
  0
ARC
  5
A1D9
  8
0
 10
502.0161527183411181
 20
61.6728316752135726
 30
0.0
 40
0.0479130185980869
 50
297.2643364059562145
 51
350.3319504778169176
  0
ARC
  5
A1DA
  8
0
 10
502.016310509329287
 20
61.6737205163194702
 30
0.0
 40
0.0486339093795779
 50
220.8183313734182036
 51
296.6193868926611117
  0
ARC
  5
A1DB
  8
0
 10
502.0123801220790938
 20
61.6703257020167186
 30
0.0
 40
0.0434403837865608
 50
183.7110535079679892
 51
220.8183313734132867
  0
ARC
  5
A1DC
  8
0
 10
502.0163739333024751
 20
61.6705472465415525
 30
0.0
 40
0.0233994476309815
 50
1.952098087485397
 51
84.0819773267124475
  0
ARC
  5
A1DD
  8
0
 10
502.0171947537712072
 20
61.6705752231632474
 30
0.0
 40
0.0225781505268381
 50
270.14877690599468
 51
1.9520980874866181
  0
ARC
  5
A1DE
  8
0
 10
502.0171866053385088
 20
61.6737132757453281
 30
0.0
 40
0.0257162136882436
 50
210.4039948241043874
 51
270.1487769059979769
  0
ARC
  5
A1DF
  8
0
 10
502.0151887337269159
 20
61.6709897034792434
 30
0.0
 40
0.0226542509034798
 50
121.3795704307324996
 51
207.0182586148297901
  0
ARC
  5
A1E0
  8
0
 10
502.0161334291087201
 20
61.6698379080517682
 30
0.0
 40
0.024130374519042
 50
83.6876159108820303
 51
121.8705483290995062
  0
ARC
  5
A1E1
  8
0
 10
502.1143962106519893
 20
61.7802492648443291
 30
0.0
 40
0.0534671569205122
 50
316.5521078948739842
 51
0.3114030538779059
  0
ARC
  5
A1E2
  8
0
 10
502.1202053696612779
 20
61.7747466109596388
 30
0.0
 40
0.0454655615689016
 50
209.2508209569766109
 51
316.5521078948755189
  0
ARC
  5
A1E3
  8
0
 10
502.1293425556605143
 20
61.7798638529704718
 30
0.0
 40
0.0559381130145598
 50
176.5103463487513977
 51
209.2508209569757014
  0
ARC
  5
A1E4
  8
0
 10
502.1262626512187239
 20
61.7800516697590467
 30
0.0
 40
0.0528524872243534
 50
114.1798296607424987
 51
176.5103463487533872
  0
ARC
  5
A1E5
  8
0
 10
502.1218099344782786
 20
61.7899687496316616
 30
0.0
 40
0.041981647350174
 50
38.3853636411209678
 51
114.1798296607424987
  0
ARC
  5
A1E6
  8
0
 10
502.1068751416613054
 20
61.7781377892451573
 30
0.0
 40
0.0610347221717312
 50
2.2555021599478922
 51
38.3853636411209678
  0
ARC
  5
A1E7
  8
0
 10
502.1206300548354875
 20
61.7885863551123791
 30
0.0
 40
0.0479130185980869
 50
297.2643364059562145
 51
350.3319504778169176
  0
ARC
  5
A1E8
  8
0
 10
502.1207878458235996
 20
61.7894751962182696
 30
0.0
 40
0.0486339093795779
 50
220.8183313734182036
 51
296.6193868926611117
  0
ARC
  5
A1E9
  8
0
 10
502.11685745857352
 20
61.7860803819155109
 30
0.0
 40
0.0434403837865608
 50
183.7110535079679892
 51
220.8183313734132867
  0
ARC
  5
A1EA
  8
0
 10
502.1208512697969013
 20
61.7863019264403519
 30
0.0
 40
0.0233994476309815
 50
1.952098087485397
 51
84.0819773267124475
  0
ARC
  5
A1EB
  8
0
 10
502.1216720902655766
 20
61.7863299030620468
 30
0.0
 40
0.0225781505268381
 50
270.14877690599468
 51
1.9520980874866181
  0
ARC
  5
A1EC
  8
0
 10
502.1216639418328782
 20
61.7894679556441417
 30
0.0
 40
0.0257162136882436
 50
210.4039948241043874
 51
270.1487769059979769
  0
ARC
  5
A1ED
  8
0
 10
502.1196660702211716
 20
61.7867443833780428
 30
0.0
 40
0.0226542509034798
 50
121.3795704307324996
 51
207.0182586148297901
  0
ARC
  5
A1EE
  8
0
 10
502.1206107656029758
 20
61.7855925879505676
 30
0.0
 40
0.024130374519042
 50
83.6876159108820303
 51
121.8705483290995062
  0
ARC
  5
A1EF
  8
0
 10
502.3231938514721264
 20
62.0073577317135332
 30
0.0
 40
0.0534671569205122
 50
316.5521078948739842
 51
0.3114030538779059
  0
ARC
  5
A1F0
  8
0
 10
502.3290030104815855
 20
62.0018550778288571
 30
0.0
 40
0.0454655615689016
 50
209.2508209569766109
 51
316.5521078948755189
  0
ARC
  5
A1F1
  8
0
 10
502.3381401964808219
 20
62.0069723198396829
 30
0.0
 40
0.0559381130145598
 50
176.5103463487513977
 51
209.2508209569757014
  0
ARC
  5
A1F2
  8
0
 10
502.3350602920389179
 20
62.0071601366282721
 30
0.0
 40
0.0528524872243534
 50
114.1798296607424987
 51
176.5103463487533872
  0
ARC
  5
A1F3
  8
0
 10
502.3306075752984725
 20
62.0170772165008728
 30
0.0
 40
0.041981647350174
 50
38.3853636411209678
 51
114.1798296607424987
  0
ARC
  5
A1F4
  8
0
 10
502.3156727824813856
 20
62.0052462561143685
 30
0.0
 40
0.0610347221717312
 50
2.2555021599478922
 51
38.3853636411209678
  0
ARC
  5
A1F5
  8
0
 10
502.3294276956556814
 20
62.0156948219815902
 30
0.0
 40
0.0479130185980869
 50
297.2643364059562145
 51
350.3319504778169176
  0
ARC
  5
A1F6
  8
0
 10
502.3295854866439072
 20
62.0165836630874807
 30
0.0
 40
0.0486339093795779
 50
220.8183313734182036
 51
296.6193868926611117
  0
ARC
  5
A1F7
  8
0
 10
502.3256550993938845
 20
62.0131888487847291
 30
0.0
 40
0.0434403837865608
 50
183.7110535079679892
 51
220.8183313734132867
  0
ARC
  5
A1F8
  8
0
 10
502.3296489106170952
 20
62.0134103933095631
 30
0.0
 40
0.0233994476309815
 50
1.952098087485397
 51
84.0819773267124475
  0
ARC
  5
A1F9
  8
0
 10
502.3304697310858842
 20
62.0134383699312508
 30
0.0
 40
0.0225781505268381
 50
270.14877690599468
 51
1.9520980874866181
  0
ARC
  5
A1FA
  8
0
 10
502.3304615826531858
 20
62.01657642251336
 30
0.0
 40
0.0257162136882436
 50
210.4039948241043874
 51
270.1487769059979769
  0
ARC
  5
A1FB
  8
0
 10
502.3284637110414792
 20
62.0138528502472468
 30
0.0
 40
0.0226542509034798
 50
121.3795704307324996
 51
207.0182586148297901
  0
ARC
  5
A1FC
  8
0
 10
502.3294084064232834
 20
62.0127010548197717
 30
0.0
 40
0.024130374519042
 50
83.6876159108820303
 51
121.8705483290995062
  0
ARC
  5
A1FD
  8
0
 10
502.4621899936345244
 20
62.1541465937790605
 30
0.0
 40
0.0534671569205122
 50
316.5521078948739842
 51
0.3114030538779059
  0
ARC
  5
A1FE
  8
0
 10
502.4679991526439267
 20
62.1486439398943702
 30
0.0
 40
0.0454655615689016
 50
209.2508209569766109
 51
316.5521078948755189
  0
ARC
  5
A1FF
  8
0
 10
502.4771363386431062
 20
62.1537611819052032
 30
0.0
 40
0.0559381130145598
 50
176.5103463487513977
 51
209.2508209569757014
  0
ARC
  5
A200
  8
0
 10
502.4740564342013158
 20
62.1539489986937781
 30
0.0
 40
0.0528524872243534
 50
114.1798296607424987
 51
176.5103463487533872
  0
ARC
  5
A201
  8
0
 10
502.4696037174609273
 20
62.163866078566393
 30
0.0
 40
0.041981647350174
 50
38.3853636411209678
 51
114.1798296607424987
  0
ARC
  5
A202
  8
0
 10
502.4546689246437836
 20
62.1520351181798887
 30
0.0
 40
0.0610347221717312
 50
2.2555021599478922
 51
38.3853636411209678
  0
ARC
  5
A203
  8
0
 10
502.4684238378180225
 20
62.1624836840471104
 30
0.0
 40
0.0479130185980869
 50
297.2643364059562145
 51
350.3319504778169176
  0
ARC
  5
A204
  8
0
 10
502.4685816288061915
 20
62.1633725251530009
 30
0.0
 40
0.0486339093795779
 50
220.8183313734182036
 51
296.6193868926611117
  0
ARC
  5
A205
  8
0
 10
502.4646512415562256
 20
62.1599777108502423
 30
0.0
 40
0.0434403837865608
 50
183.7110535079679892
 51
220.8183313734132867
  0
ARC
  5
A206
  8
0
 10
502.4686450527793795
 20
62.1601992553750904
 30
0.0
 40
0.0233994476309815
 50
1.952098087485397
 51
84.0819773267124475
  0
ARC
  5
A207
  8
0
 10
502.4694658732482253
 20
62.1602272319967781
 30
0.0
 40
0.0225781505268381
 50
270.14877690599468
 51
1.9520980874866181
  0
ARC
  5
A208
  8
0
 10
502.4694577248155838
 20
62.1633652845788731
 30
0.0
 40
0.0257162136882436
 50
210.4039948241043874
 51
270.1487769059979769
  0
ARC
  5
A209
  8
0
 10
502.4674598532038772
 20
62.160641712312767
 30
0.0
 40
0.0226542509034798
 50
121.3795704307324996
 51
207.0182586148297901
  0
ARC
  5
A20A
  8
0
 10
502.4684045485856245
 20
62.159489916885299
 30
0.0
 40
0.024130374519042
 50
83.6876159108820303
 51
121.8705483290995062
  0
ARC
  5
A20B
  8
0
 10
502.2227220948893205
 20
61.4047119344700079
 30
0.0
 40
0.0534671569205122
 50
316.5521078948739842
 51
0.3114030538779059
  0
ARC
  5
A20C
  8
0
 10
502.2285312538987796
 20
61.3992092805853176
 30
0.0
 40
0.0454655615689016
 50
209.2508209569766109
 51
316.5521078948755189
  0
ARC
  5
A20D
  8
0
 10
502.237668439898016
 20
61.4043265225961434
 30
0.0
 40
0.0559381130145598
 50
176.5103463487513977
 51
209.2508209569757014
  0
ARC
  5
A20E
  8
0
 10
502.2345885354561119
 20
61.4045143393847326
 30
0.0
 40
0.0528524872243534
 50
114.1798296607424987
 51
176.5103463487533872
  0
ARC
  5
A20F
  8
0
 10
502.2301358187157234
 20
61.4144314192573404
 30
0.0
 40
0.041981647350174
 50
38.3853636411209678
 51
114.1798296607424987
  0
ARC
  5
A210
  8
0
 10
502.2152010258985797
 20
61.402600458870829
 30
0.0
 40
0.0610347221717312
 50
2.2555021599478922
 51
38.3853636411209678
  0
ARC
  5
A211
  8
0
 10
502.2289559390728755
 20
61.4130490247380507
 30
0.0
 40
0.0479130185980869
 50
297.2643364059562145
 51
350.3319504778169176
  0
ARC
  5
A212
  8
0
 10
502.2291137300609876
 20
61.4139378658439412
 30
0.0
 40
0.0486339093795779
 50
220.8183313734182036
 51
296.6193868926611117
  0
ARC
  5
A213
  8
0
 10
502.2251833428110785
 20
61.4105430515411896
 30
0.0
 40
0.0434403837865608
 50
183.7110535079679892
 51
220.8183313734132867
  0
ARC
  5
A214
  8
0
 10
502.2291771540342893
 20
61.4107645960660165
 30
0.0
 40
0.0233994476309815
 50
1.952098087485397
 51
84.0819773267124475
  0
ARC
  5
A215
  8
0
 10
502.2299979745030782
 20
61.4107925726877184
 30
0.0
 40
0.0225781505268381
 50
270.14877690599468
 51
1.9520980874866181
  0
ARC
  5
A216
  8
0
 10
502.2299898260703799
 20
61.4139306252697992
 30
0.0
 40
0.0257162136882436
 50
210.4039948241043874
 51
270.1487769059979769
  0
ARC
  5
A217
  8
0
 10
502.2279919544586733
 20
61.4112070530037073
 30
0.0
 40
0.0226542509034798
 50
121.3795704307324996
 51
207.0182586148297901
  0
ARC
  5
A218
  8
0
 10
502.2289366498404775
 20
61.4100552575762322
 30
0.0
 40
0.024130374519042
 50
83.6876159108820303
 51
121.8705483290995062
  0
ARC
  5
A219
  8
0
 10
502.3478479019170777
 20
61.4944589709796716
 30
0.0
 40
0.0534671569205122
 50
316.5521078948739842
 51
0.3114030538779059
  0
ARC
  5
A21A
  8
0
 10
502.35365706092648
 20
61.4889563170949813
 30
0.0
 40
0.0454655615689016
 50
209.2508209569766109
 51
316.5521078948755189
  0
ARC
  5
A21B
  8
0
 10
502.3627942469257164
 20
61.4940735591058072
 30
0.0
 40
0.0559381130145598
 50
176.5103463487513977
 51
209.2508209569757014
  0
ARC
  5
A21C
  8
0
 10
502.359714342483926
 20
61.4942613758943892
 30
0.0
 40
0.0528524872243534
 50
114.1798296607424987
 51
176.5103463487533872
  0
ARC
  5
A21D
  8
0
 10
502.3552616257434806
 20
61.504178455766997
 30
0.0
 40
0.041981647350174
 50
38.3853636411209678
 51
114.1798296607424987
  0
ARC
  5
A21E
  8
0
 10
502.3403268329263938
 20
61.4923474953804927
 30
0.0
 40
0.0610347221717312
 50
2.2555021599478922
 51
38.3853636411209678
  0
ARC
  5
A21F
  8
0
 10
502.3540817461005759
 20
61.5027960612477074
 30
0.0
 40
0.0479130185980869
 50
297.2643364059562145
 51
350.3319504778169176
  0
ARC
  5
A220
  8
0
 10
502.3542395370888016
 20
61.5036849023536121
 30
0.0
 40
0.0486339093795779
 50
220.8183313734182036
 51
296.6193868926611117
  0
ARC
  5
A221
  8
0
 10
502.3503091498387789
 20
61.5002900880508534
 30
0.0
 40
0.0434403837865608
 50
183.7110535079679892
 51
220.8183313734132867
  0
ARC
  5
A222
  8
0
 10
502.3543029610619897
 20
61.5005116325756802
 30
0.0
 40
0.0233994476309815
 50
1.952098087485397
 51
84.0819773267124475
  0
ARC
  5
A223
  8
0
 10
502.3551237815308923
 20
61.5005396091973822
 30
0.0
 40
0.0225781505268381
 50
270.14877690599468
 51
1.9520980874866181
  0
ARC
  5
A224
  8
0
 10
502.3551156330981939
 20
61.50367766177947
 30
0.0
 40
0.0257162136882436
 50
210.4039948241043874
 51
270.1487769059979769
  0
ARC
  5
A225
  8
0
 10
502.3531177614864873
 20
61.5009540895133711
 30
0.0
 40
0.0226542509034798
 50
121.3795704307324996
 51
207.0182586148297901
  0
ARC
  5
A226
  8
0
 10
502.3540624568681778
 20
61.4998022940859101
 30
0.0
 40
0.024130374519042
 50
83.6876159108820303
 51
121.8705483290995062
  0
ARC
  5
A227
  8
0
 10
502.5976830028413929
 20
61.6721400054292701
 30
0.0
 40
0.0534671569205122
 50
316.5521078948739842
 51
0.3114030538779059
  0
ARC
  5
A228
  8
0
 10
502.6034921618506814
 20
61.6666373515445727
 30
0.0
 40
0.0454655615689016
 50
209.2508209569766109
 51
316.5521078948755189
  0
ARC
  5
A229
  8
0
 10
502.6126293478499747
 20
61.6717545935553986
 30
0.0
 40
0.0559381130145598
 50
176.5103463487513977
 51
209.2508209569757014
  0
ARC
  5
A22A
  8
0
 10
502.6095494434081274
 20
61.6719424103439806
 30
0.0
 40
0.0528524872243534
 50
114.1798296607424987
 51
176.5103463487533872
  0
ARC
  5
A22B
  8
0
 10
502.6050967266676821
 20
61.6818594902165813
 30
0.0
 40
0.041981647350174
 50
38.3853636411209678
 51
114.1798296607424987
  0
ARC
  5
A22C
  8
0
 10
502.5901619338505952
 20
61.670028529830077
 30
0.0
 40
0.0610347221717312
 50
2.2555021599478922
 51
38.3853636411209678
  0
ARC
  5
A22D
  8
0
 10
502.603916847024891
 20
61.6804770956972988
 30
0.0
 40
0.0479130185980869
 50
297.2643364059562145
 51
350.3319504778169176
  0
ARC
  5
A22E
  8
0
 10
502.6040746380131168
 20
61.6813659368031892
 30
0.0
 40
0.0486339093795779
 50
220.8183313734182036
 51
296.6193868926611117
  0
ARC
  5
A22F
  8
0
 10
502.6001442507629804
 20
61.6779711225004519
 30
0.0
 40
0.0434403837865608
 50
183.7110535079679892
 51
220.8183313734132867
  0
ARC
  5
A230
  8
0
 10
502.6041380619863048
 20
61.6781926670252787
 30
0.0
 40
0.0233994476309815
 50
1.952098087485397
 51
84.0819773267124475
  0
ARC
  5
A231
  8
0
 10
502.6049588824550938
 20
61.6782206436469735
 30
0.0
 40
0.0225781505268381
 50
270.14877690599468
 51
1.9520980874866181
  0
ARC
  5
A232
  8
0
 10
502.6049507340223954
 20
61.6813586962290614
 30
0.0
 40
0.0257162136882436
 50
210.4039948241043874
 51
270.1487769059979769
  0
ARC
  5
A233
  8
0
 10
502.6029528624106888
 20
61.6786351239629695
 30
0.0
 40
0.0226542509034798
 50
121.3795704307324996
 51
207.0182586148297901
  0
ARC
  5
A234
  8
0
 10
502.6038975577923793
 20
61.6774833285354873
 30
0.0
 40
0.024130374519042
 50
83.6876159108820303
 51
121.8705483290995062
  0
ARC
  5
A235
  8
0
 10
502.7645614521306925
 20
61.7843254554965569
 30
0.0
 40
0.0534671569205122
 50
316.5521078948739842
 51
0.3114030538779059
  0
ARC
  5
A236
  8
0
 10
502.7703706111399811
 20
61.7788228016118808
 30
0.0
 40
0.0454655615689016
 50
209.2508209569766109
 51
316.5521078948755189
  0
ARC
  5
A237
  8
0
 10
502.7795077971392743
 20
61.7839400436227066
 30
0.0
 40
0.0559381130145598
 50
176.5103463487513977
 51
209.2508209569757014
  0
ARC
  5
A238
  8
0
 10
502.7764278926974271
 20
61.7841278604112887
 30
0.0
 40
0.0528524872243534
 50
114.1798296607424987
 51
176.5103463487533872
  0
ARC
  5
A239
  8
0
 10
502.7719751759569249
 20
61.7940449402838965
 30
0.0
 40
0.041981647350174
 50
38.3853636411209678
 51
114.1798296607424987
  0
ARC
  5
A23A
  8
0
 10
502.7570403831398949
 20
61.7822139798973993
 30
0.0
 40
0.0610347221717312
 50
2.2555021599478922
 51
38.3853636411209678
  0
ARC
  5
A23B
  8
0
 10
502.7707952963140769
 20
61.792662545764621
 30
0.0
 40
0.0479130185980869
 50
297.2643364059562145
 51
350.3319504778169176
  0
ARC
  5
A23C
  8
0
 10
502.7709530873023027
 20
61.7935513868705115
 30
0.0
 40
0.0486339093795779
 50
220.8183313734182036
 51
296.6193868926611117
  0
ARC
  5
A23D
  8
0
 10
502.7670227000522232
 20
61.79015657256776
 30
0.0
 40
0.0434403837865608
 50
183.7110535079679892
 51
220.8183313734132867
  0
ARC
  5
A23E
  8
0
 10
502.7710165112756044
 20
61.7903781170925868
 30
0.0
 40
0.0233994476309815
 50
1.952098087485397
 51
84.0819773267124475
  0
ARC
  5
A23F
  8
0
 10
502.7718373317442797
 20
61.7904060937142887
 30
0.0
 40
0.0225781505268381
 50
270.14877690599468
 51
1.9520980874866181
  0
ARC
  5
A240
  8
0
 10
502.7718291833115813
 20
61.7935441462963908
 30
0.0
 40
0.0257162136882436
 50
210.4039948241043874
 51
270.1487769059979769
  0
ARC
  5
A241
  8
0
 10
502.7698313116998747
 20
61.7908205740302918
 30
0.0
 40
0.0226542509034798
 50
121.3795704307324996
 51
207.0182586148297901
  0
ARC
  5
A242
  8
0
 10
502.7707760070816789
 20
61.7896687786028096
 30
0.0
 40
0.024130374519042
 50
83.6876159108820303
 51
121.8705483290995062
  0
ARC
  5
A243
  8
0
 10
502.372149214463775
 20
61.1037702692687432
 30
0.0
 40
0.0534671569205122
 50
316.5521078948739842
 51
0.3114030538779059
  0
ARC
  5
A244
  8
0
 10
502.3779583734731204
 20
61.0982676153840671
 30
0.0
 40
0.0454655615689016
 50
209.2508209569766109
 51
316.5521078948755189
  0
ARC
  5
A245
  8
0
 10
502.3870955594723
 20
61.1033848573949001
 30
0.0
 40
0.0559381130145598
 50
176.5103463487513977
 51
209.2508209569757014
  0
ARC
  5
A246
  8
0
 10
502.3840156550305096
 20
61.1035726741834679
 30
0.0
 40
0.0528524872243534
 50
114.1798296607424987
 51
176.5103463487533872
  0
ARC
  5
A247
  8
0
 10
502.3795629382901211
 20
61.1134897540560829
 30
0.0
 40
0.041981647350174
 50
38.3853636411209678
 51
114.1798296607424987
  0
ARC
  5
A248
  8
0
 10
502.3646281454729774
 20
61.1016587936695785
 30
0.0
 40
0.0610347221717312
 50
2.2555021599478922
 51
38.3853636411209678
  0
ARC
  5
A249
  8
0
 10
502.3783830586472732
 20
61.1121073595368003
 30
0.0
 40
0.0479130185980869
 50
297.2643364059562145
 51
350.3319504778169176
  0
ARC
  5
A24A
  8
0
 10
502.3785408496353853
 20
61.1129962006426908
 30
0.0
 40
0.0486339093795779
 50
220.8183313734182036
 51
296.6193868926611117
  0
ARC
  5
A24B
  8
0
 10
502.3746104623854194
 20
61.1096013863399392
 30
0.0
 40
0.0434403837865608
 50
183.7110535079679892
 51
220.8183313734132867
  0
ARC
  5
A24C
  8
0
 10
502.378604273608687
 20
61.1098229308647731
 30
0.0
 40
0.0233994476309815
 50
1.952098087485397
 51
84.0819773267124475
  0
ARC
  5
A24D
  8
0
 10
502.3794250940774191
 20
61.109850907486468
 30
0.0
 40
0.0225781505268381
 50
270.14877690599468
 51
1.9520980874866181
  0
ARC
  5
A24E
  8
0
 10
502.3794169456447207
 20
61.1129889600685701
 30
0.0
 40
0.0257162136882436
 50
210.4039948241043874
 51
270.1487769059979769
  0
ARC
  5
A24F
  8
0
 10
502.3774190740331278
 20
61.1102653878024569
 30
0.0
 40
0.0226542509034798
 50
121.3795704307324996
 51
207.0182586148297901
  0
ARC
  5
A250
  8
0
 10
502.3783637694148183
 20
61.1091135923749889
 30
0.0
 40
0.024130374519042
 50
83.6876159108820303
 51
121.8705483290995062
  0
ARC
  5
A251
  8
0
 10
502.5120268589092234
 20
61.1625351946874432
 30
0.0
 40
0.0534671569205122
 50
316.5521078948739842
 51
0.3114030538779059
  0
ARC
  5
A252
  8
0
 10
502.5178360179186825
 20
61.15703254080276
 30
0.0
 40
0.0454655615689016
 50
209.2508209569766109
 51
316.5521078948755189
  0
ARC
  5
A253
  8
0
 10
502.5269732039179189
 20
61.1621497828135929
 30
0.0
 40
0.0559381130145598
 50
176.5103463487513977
 51
209.2508209569757014
  0
ARC
  5
A254
  8
0
 10
502.5238932994760148
 20
61.1623375996021679
 30
0.0
 40
0.0528524872243534
 50
114.1798296607424987
 51
176.5103463487533872
  0
ARC
  5
A255
  8
0
 10
502.5194405827356263
 20
61.1722546794747828
 30
0.0
 40
0.041981647350174
 50
38.3853636411209678
 51
114.1798296607424987
  0
ARC
  5
A256
  8
0
 10
502.5045057899184826
 20
61.1604237190882785
 30
0.0
 40
0.0610347221717312
 50
2.2555021599478922
 51
38.3853636411209678
  0
ARC
  5
A257
  8
0
 10
502.5182607030927215
 20
61.1708722849555002
 30
0.0
 40
0.0479130185980869
 50
297.2643364059562145
 51
350.3319504778169176
  0
ARC
  5
A258
  8
0
 10
502.5184184940808905
 20
61.1717611260613907
 30
0.0
 40
0.0486339093795779
 50
220.8183313734182036
 51
296.6193868926611117
  0
ARC
  5
A259
  8
0
 10
502.5144881068309246
 20
61.1683663117586391
 30
0.0
 40
0.0434403837865608
 50
183.7110535079679892
 51
220.8183313734132867
  0
ARC
  5
A25A
  8
0
 10
502.5184819180541922
 20
61.1685878562834731
 30
0.0
 40
0.0233994476309815
 50
1.952098087485397
 51
84.0819773267124475
  0
ARC
  5
A25B
  8
0
 10
502.5193027385229243
 20
61.1686158329051679
 30
0.0
 40
0.0225781505268381
 50
270.14877690599468
 51
1.9520980874866181
  0
ARC
  5
A25C
  8
0
 10
502.5192945900902828
 20
61.1717538854872629
 30
0.0
 40
0.0257162136882436
 50
210.4039948241043874
 51
270.1487769059979769
  0
ARC
  5
A25D
  8
0
 10
502.5172967184785762
 20
61.169030313221171
 30
0.0
 40
0.0226542509034798
 50
121.3795704307324996
 51
207.0182586148297901
  0
ARC
  5
A25E
  8
0
 10
502.5182414138603804
 20
61.1678785177936888
 30
0.0
 40
0.024130374519042
 50
83.6876159108820303
 51
121.8705483290995062
  0
ARC
  5
A25F
  8
0
 10
502.7880540317282225
 20
61.2861260097362006
 30
0.0
 40
0.0534671569205122
 50
316.5521078948739842
 51
0.3114030538779059
  0
ARC
  5
A260
  8
0
 10
502.7938631907375111
 20
61.2806233558515174
 30
0.0
 40
0.0454655615689016
 50
209.2508209569766109
 51
316.5521078948755189
  0
ARC
  5
A261
  8
0
 10
502.8030003767366907
 20
61.2857405978623433
 30
0.0
 40
0.0559381130145598
 50
176.5103463487513977
 51
209.2508209569757014
  0
ARC
  5
A262
  8
0
 10
502.799920472295014
 20
61.2859284146509324
 30
0.0
 40
0.0528524872243534
 50
114.1798296607424987
 51
176.5103463487533872
  0
ARC
  5
A263
  8
0
 10
502.7954677555546255
 20
61.2958454945235403
 30
0.0
 40
0.041981647350174
 50
38.3853636411209678
 51
114.1798296607424987
  0
ARC
  5
A264
  8
0
 10
502.7805329627374249
 20
61.284014534137043
 30
0.0
 40
0.0610347221717312
 50
2.2555021599478922
 51
38.3853636411209678
  0
ARC
  5
A265
  8
0
 10
502.794287875911607
 20
61.2944631000042506
 30
0.0
 40
0.0479130185980869
 50
297.2643364059562145
 51
350.3319504778169176
  0
ARC
  5
A266
  8
0
 10
502.7944456668997759
 20
61.2953519411101411
 30
0.0
 40
0.0486339093795779
 50
220.8183313734182036
 51
296.6193868926611117
  0
ARC
  5
A267
  8
0
 10
502.7905152796498101
 20
61.2919571268073966
 30
0.0
 40
0.0434403837865608
 50
183.7110535079679892
 51
220.8183313734132867
  0
ARC
  5
A268
  8
0
 10
502.7945090908730776
 20
61.2921786713322305
 30
0.0
 40
0.0233994476309815
 50
1.952098087485397
 51
84.0819773267124475
  0
ARC
  5
A269
  8
0
 10
502.7953299113418097
 20
61.2922066479539112
 30
0.0
 40
0.0225781505268381
 50
270.14877690599468
 51
1.9520980874866181
  0
ARC
  5
A26A
  8
0
 10
502.7953217629091114
 20
61.2953447005360132
 30
0.0
 40
0.0257162136882436
 50
210.4039948241043874
 51
270.1487769059979769
  0
ARC
  5
A26B
  8
0
 10
502.7933238912975185
 20
61.2926211282699214
 30
0.0
 40
0.0226542509034798
 50
121.3795704307324996
 51
207.0182586148297901
  0
ARC
  5
A26C
  8
0
 10
502.7942685866793227
 20
61.291469332842432
 30
0.0
 40
0.024130374519042
 50
83.6876159108820303
 51
121.8705483290995062
  0
ARC
  5
A26D
  8
0
 10
502.9757996695581141
 20
61.3594090780067276
 30
0.0
 40
0.0534671569205122
 50
316.5521078948739842
 51
0.3114030538779059
  0
ARC
  5
A26E
  8
0
 10
502.9816088285675164
 20
61.3539064241220373
 30
0.0
 40
0.0454655615689016
 50
209.2508209569766109
 51
316.5521078948755189
  0
ARC
  5
A26F
  8
0
 10
502.990746014566696
 20
61.3590236661328703
 30
0.0
 40
0.0559381130145598
 50
176.5103463487513977
 51
209.2508209569757014
  0
ARC
  5
A270
  8
0
 10
502.9876661101249056
 20
61.3592114829214381
 30
0.0
 40
0.0528524872243534
 50
114.1798296607424987
 51
176.5103463487533872
  0
ARC
  5
A271
  8
0
 10
502.9832133933845171
 20
61.369128562794053
 30
0.0
 40
0.041981647350174
 50
38.3853636411209678
 51
114.1798296607424987
  0
ARC
  5
A272
  8
0
 10
502.9682786005673734
 20
61.3572976024075487
 30
0.0
 40
0.0610347221717312
 50
2.2555021599478922
 51
38.3853636411209678
  0
ARC
  5
A273
  8
0
 10
502.9820335137416123
 20
61.3677461682747705
 30
0.0
 40
0.0479130185980869
 50
297.2643364059562145
 51
350.3319504778169176
  0
ARC
  5
A274
  8
0
 10
502.9821913047297812
 20
61.368635009380661
 30
0.0
 40
0.0486339093795779
 50
220.8183313734182036
 51
296.6193868926611117
  0
ARC
  5
A275
  8
0
 10
502.9782609174798154
 20
61.3652401950779094
 30
0.0
 40
0.0434403837865608
 50
183.7110535079679892
 51
220.8183313734132867
  0
ARC
  5
A276
  8
0
 10
502.9822547287030829
 20
61.3654617396027433
 30
0.0
 40
0.0233994476309815
 50
1.952098087485397
 51
84.0819773267124475
  0
ARC
  5
A277
  8
0
 10
502.9830755491718151
 20
61.3654897162244382
 30
0.0
 40
0.0225781505268381
 50
270.14877690599468
 51
1.9520980874866181
  0
ARC
  5
A278
  8
0
 10
502.9830674007391167
 20
61.3686277688065189
 30
0.0
 40
0.0257162136882436
 50
210.4039948241043874
 51
270.1487769059979769
  0
ARC
  5
A279
  8
0
 10
502.9810695291274101
 20
61.3659041965404271
 30
0.0
 40
0.0226542509034798
 50
121.3795704307324996
 51
207.0182586148297901
  0
ARC
  5
A27A
  8
0
 10
502.9820142245092143
 20
61.364752401112959
 30
0.0
 40
0.024130374519042
 50
83.6876159108820303
 51
121.8705483290995062
  0
ARC
  5
A27B
  8
0
 10
502.4481372915820998
 20
60.7791090455104595
 30
0.0
 40
0.0534671569205122
 50
316.5521078948739842
 51
0.3114030538779059
  0
ARC
  5
A27C
  8
0
 10
502.4539464505915021
 20
60.7736063916257834
 30
0.0
 40
0.0454655615689016
 50
209.2508209569766109
 51
316.5521078948755189
  0
ARC
  5
A27D
  8
0
 10
502.4630836365906816
 20
60.7787236336366092
 30
0.0
 40
0.0559381130145598
 50
176.5103463487513977
 51
209.2508209569757014
  0
ARC
  5
A27E
  8
0
 10
502.4600037321487775
 20
60.7789114504251913
 30
0.0
 40
0.0528524872243534
 50
114.1798296607424987
 51
176.5103463487533872
  0
ARC
  5
A27F
  8
0
 10
502.455551015408389
 20
60.7888285302977991
 30
0.0
 40
0.041981647350174
 50
38.3853636411209678
 51
114.1798296607424987
  0
ARC
  5
A280
  8
0
 10
502.4406162225913022
 20
60.7769975699113019
 30
0.0
 40
0.0610347221717312
 50
2.2555021599478922
 51
38.3853636411209678
  0
ARC
  5
A281
  8
0
 10
502.4543711357654843
 20
60.7874461357785165
 30
0.0
 40
0.0479130185980869
 50
297.2643364059562145
 51
350.3319504778169176
  0
ARC
  5
A282
  8
0
 10
502.45452892675371
 20
60.788334976884407
 30
0.0
 40
0.0486339093795779
 50
220.8183313734182036
 51
296.6193868926611117
  0
ARC
  5
A283
  8
0
 10
502.4505985395036873
 20
60.7849401625816483
 30
0.0
 40
0.0434403837865608
 50
183.7110535079679892
 51
220.8183313734132867
  0
ARC
  5
A284
  8
0
 10
502.4545923507270118
 20
60.7851617071064894
 30
0.0
 40
0.0233994476309815
 50
1.952098087485397
 51
84.0819773267124475
  0
ARC
  5
A285
  8
0
 10
502.455413171195687
 20
60.7851896837281913
 30
0.0
 40
0.0225781505268381
 50
270.14877690599468
 51
1.9520980874866181
  0
ARC
  5
A286
  8
0
 10
502.4554050227631024
 20
60.7883277363102792
 30
0.0
 40
0.0257162136882436
 50
210.4039948241043874
 51
270.1487769059979769
  0
ARC
  5
A287
  8
0
 10
502.4534071511513957
 20
60.7856041640441802
 30
0.0
 40
0.0226542509034798
 50
121.3795704307324996
 51
207.0182586148297901
  0
ARC
  5
A288
  8
0
 10
502.4543518465331999
 20
60.7844523686167122
 30
0.0
 40
0.024130374519042
 50
83.6876159108820303
 51
121.8705483290995062
  0
ARC
  5
A289
  8
0
 10
502.593350482514893
 20
60.8099358008123687
 30
0.0
 40
0.0534671569205122
 50
316.5521078948739842
 51
0.3114030538779059
  0
ARC
  5
A28A
  8
0
 10
502.5991596415244089
 20
60.8044331469276997
 30
0.0
 40
0.0454655615689016
 50
209.2508209569766109
 51
316.5521078948755189
  0
ARC
  5
A28B
  8
0
 10
502.6082968275235885
 20
60.8095503889385185
 30
0.0
 40
0.0559381130145598
 50
176.5103463487513977
 51
209.2508209569757014
  0
ARC
  5
A28C
  8
0
 10
502.6052169230816844
 20
60.8097382057271076
 30
0.0
 40
0.0528524872243534
 50
114.1798296607424987
 51
176.5103463487533872
  0
ARC
  5
A28D
  8
0
 10
502.6007642063412959
 20
60.8196552855997226
 30
0.0
 40
0.041981647350174
 50
38.3853636411209678
 51
114.1798296607424987
  0
ARC
  5
A28E
  8
0
 10
502.5858294135243227
 20
60.8078243252132111
 30
0.0
 40
0.0610347221717312
 50
2.2555021599478922
 51
38.3853636411209678
  0
ARC
  5
A28F
  8
0
 10
502.5995843266985048
 20
60.8182728910804329
 30
0.0
 40
0.0479130185980869
 50
297.2643364059562145
 51
350.3319504778169176
  0
ARC
  5
A290
  8
0
 10
502.5997421176866169
 20
60.8191617321863234
 30
0.0
 40
0.0486339093795779
 50
220.8183313734182036
 51
296.6193868926611117
  0
ARC
  5
A291
  8
0
 10
502.5958117304367079
 20
60.8157669178835718
 30
0.0
 40
0.0434403837865608
 50
183.7110535079679892
 51
220.8183313734132867
  0
ARC
  5
A292
  8
0
 10
502.5998055416599186
 20
60.8159884624083986
 30
0.0
 40
0.0233994476309815
 50
1.952098087485397
 51
84.0819773267124475
  0
ARC
  5
A293
  8
0
 10
502.6006263621288213
 20
60.8160164390301006
 30
0.0
 40
0.0225781505268381
 50
270.14877690599468
 51
1.9520980874866181
  0
ARC
  5
A294
  8
0
 10
502.6006182136960092
 20
60.8191544916122027
 30
0.0
 40
0.0257162136882436
 50
210.4039948241043874
 51
270.1487769059979769
  0
ARC
  5
A295
  8
0
 10
502.5986203420843026
 20
60.8164309193460895
 30
0.0
 40
0.0226542509034798
 50
121.3795704307324996
 51
207.0182586148297901
  0
ARC
  5
A296
  8
0
 10
502.5995650374661068
 20
60.8152791239186215
 30
0.0
 40
0.024130374519042
 50
83.6876159108820303
 51
121.8705483290995062
  0
ARC
  5
A297
  8
0
 10
502.88676662877441
 20
60.8658872212303521
 30
0.0
 40
0.0534671569205122
 50
316.5521078948739842
 51
0.3114030538779059
  0
ARC
  5
A298
  8
0
 10
502.8925757877836986
 20
60.8603845673456831
 30
0.0
 40
0.0454655615689016
 50
209.2508209569766109
 51
316.5521078948755189
  0
ARC
  5
A299
  8
0
 10
502.9017129737828782
 20
60.865501809356509
 30
0.0
 40
0.0559381130145598
 50
176.5103463487513977
 51
209.2508209569757014
  0
ARC
  5
A29A
  8
0
 10
502.8986330693410878
 20
60.865689626145091
 30
0.0
 40
0.0528524872243534
 50
114.1798296607424987
 51
176.5103463487533872
  0
ARC
  5
A29B
  8
0
 10
502.8941803526005856
 20
60.8756067060176989
 30
0.0
 40
0.041981647350174
 50
38.3853636411209678
 51
114.1798296607424987
  0
ARC
  5
A29C
  8
0
 10
502.8792455597836124
 20
60.8637757456311874
 30
0.0
 40
0.0610347221717312
 50
2.2555021599478922
 51
38.3853636411209678
  0
ARC
  5
A29D
  8
0
 10
502.8930004729577945
 20
60.8742243114984234
 30
0.0
 40
0.0479130185980869
 50
297.2643364059562145
 51
350.3319504778169176
  0
ARC
  5
A29E
  8
0
 10
502.8931582639460203
 20
60.8751131526043068
 30
0.0
 40
0.0486339093795779
 50
220.8183313734182036
 51
296.6193868926611117
  0
ARC
  5
A29F
  8
0
 10
502.8892278766958839
 20
60.8717183383015481
 30
0.0
 40
0.0434403837865608
 50
183.7110535079679892
 51
220.8183313734132867
  0
ARC
  5
A2A0
  8
0
 10
502.893221687919322
 20
60.871939882826382
 30
0.0
 40
0.0233994476309815
 50
1.952098087485397
 51
84.0819773267124475
  0
ARC
  5
A2A1
  8
0
 10
502.8940425083879973
 20
60.8719678594480769
 30
0.0
 40
0.0225781505268381
 50
270.14877690599468
 51
1.9520980874866181
  0
ARC
  5
A2A2
  8
0
 10
502.8940343599551852
 20
60.875105912030179
 30
0.0
 40
0.0257162136882436
 50
210.4039948241043874
 51
270.1487769059979769
  0
ARC
  5
A2A3
  8
0
 10
502.8920364883435923
 20
60.87238233976408
 30
0.0
 40
0.0226542509034798
 50
121.3795704307324996
 51
207.0182586148297901
  0
ARC
  5
A2A4
  8
0
 10
502.8929811837253965
 20
60.871230544336612
 30
0.0
 40
0.024130374519042
 50
83.6876159108820303
 51
121.8705483290995062
  0
ARC
  5
A2A5
  8
0
 10
503.084536394100212
 20
60.8958876666866473
 30
0.0
 40
0.0534671569205122
 50
316.5521078948739842
 51
0.3114030538779059
  0
ARC
  5
A2A6
  8
0
 10
503.0903455531093869
 20
60.890385012801957
 30
0.0
 40
0.0454655615689016
 50
209.2508209569766109
 51
316.5521078948755189
  0
ARC
  5
A2A7
  8
0
 10
503.0994827391086801
 20
60.8955022548127829
 30
0.0
 40
0.0559381130145598
 50
176.5103463487513977
 51
209.2508209569757014
  0
ARC
  5
A2A8
  8
0
 10
503.0964028346668897
 20
60.895690071601372
 30
0.0
 40
0.0528524872243534
 50
114.1798296607424987
 51
176.5103463487533872
  0
ARC
  5
A2A9
  8
0
 10
503.0919501179263875
 20
60.9056071514739799
 30
0.0
 40
0.041981647350174
 50
38.3853636411209678
 51
114.1798296607424987
  0
ARC
  5
A2AA
  8
0
 10
503.0770153251094143
 20
60.8937761910874826
 30
0.0
 40
0.0610347221717312
 50
2.2555021599478922
 51
38.3853636411209678
  0
ARC
  5
A2AB
  8
0
 10
503.0907702382835964
 20
60.9042247569546902
 30
0.0
 40
0.0479130185980869
 50
297.2643364059562145
 51
350.3319504778169176
  0
ARC
  5
A2AC
  8
0
 10
503.0909280292718222
 20
60.9051135980605807
 30
0.0
 40
0.0486339093795779
 50
220.8183313734182036
 51
296.6193868926611117
  0
ARC
  5
A2AD
  8
0
 10
503.0869976420216858
 20
60.9017187837578433
 30
0.0
 40
0.0434403837865608
 50
183.7110535079679892
 51
220.8183313734132867
  0
ARC
  5
A2AE
  8
0
 10
503.0909914532450102
 20
60.9019403282826701
 30
0.0
 40
0.0233994476309815
 50
1.952098087485397
 51
84.0819773267124475
  0
ARC
  5
A2AF
  8
0
 10
503.0918122737137992
 20
60.9019683049043721
 30
0.0
 40
0.0225781505268381
 50
270.14877690599468
 51
1.9520980874866181
  0
ARC
  5
A2B0
  8
0
 10
503.0918041252809871
 20
60.9051063574864529
 30
0.0
 40
0.0257162136882436
 50
210.4039948241043874
 51
270.1487769059979769
  0
ARC
  5
A2B1
  8
0
 10
503.0898062536693942
 20
60.902382785220361
 30
0.0
 40
0.0226542509034798
 50
121.3795704307324996
 51
207.0182586148297901
  0
ARC
  5
A2B2
  8
0
 10
503.0907509490511984
 20
60.9012309897928787
 30
0.0
 40
0.024130374519042
 50
83.6876159108820303
 51
121.8705483290995062
  0
ARC
  5
A2B3
  8
0
 10
502.4479892362249984
 20
60.4468540148585234
 30
0.0
 40
0.0534671569205122
 50
316.5521078948739842
 51
0.3114030538779059
  0
ARC
  5
A2B4
  8
0
 10
502.4537983952344007
 20
60.4413513609738331
 30
0.0
 40
0.0454655615689016
 50
209.2508209569766109
 51
316.5521078948755189
  0
ARC
  5
A2B5
  8
0
 10
502.4629355812335803
 20
60.446468602984659
 30
0.0
 40
0.0559381130145598
 50
176.5103463487513977
 51
209.2508209569757014
  0
ARC
  5
A2B6
  8
0
 10
502.4598556767917898
 20
60.446656419773241
 30
0.0
 40
0.0528524872243534
 50
114.1798296607424987
 51
176.5103463487533872
  0
ARC
  5
A2B7
  8
0
 10
502.4554029600512877
 20
60.4565734996458488
 30
0.0
 40
0.041981647350174
 50
38.3853636411209678
 51
114.1798296607424987
  0
ARC
  5
A2B8
  8
0
 10
502.4404681672343145
 20
60.4447425392593374
 30
0.0
 40
0.0610347221717312
 50
2.2555021599478922
 51
38.3853636411209678
  0
ARC
  5
A2B9
  8
0
 10
502.4542230804084966
 20
60.4551911051265733
 30
0.0
 40
0.0479130185980869
 50
297.2643364059562145
 51
350.3319504778169176
  0
ARC
  5
A2BA
  8
0
 10
502.4543808713966087
 20
60.4560799462324567
 30
0.0
 40
0.0486339093795779
 50
220.8183313734182036
 51
296.6193868926611117
  0
ARC
  5
A2BB
  8
0
 10
502.4504504841465859
 20
60.4526851319296981
 30
0.0
 40
0.0434403837865608
 50
183.7110535079679892
 51
220.8183313734132867
  0
ARC
  5
A2BC
  8
0
 10
502.4544442953700241
 20
60.4529066764545391
 30
0.0
 40
0.0233994476309815
 50
1.952098087485397
 51
84.0819773267124475
  0
ARC
  5
A2BD
  8
0
 10
502.4552651158385856
 20
60.4529346530762268
 30
0.0
 40
0.0225781505268381
 50
270.14877690599468
 51
1.9520980874866181
  0
ARC
  5
A2BE
  8
0
 10
502.4552569674058873
 20
60.4560727056583431
 30
0.0
 40
0.0257162136882436
 50
210.4039948241043874
 51
270.1487769059979769
  0
ARC
  5
A2BF
  8
0
 10
502.4532590957942944
 20
60.4533491333922299
 30
0.0
 40
0.0226542509034798
 50
121.3795704307324996
 51
207.0182586148297901
  0
ARC
  5
A2C0
  8
0
 10
502.4542037911760985
 20
60.4521973379647477
 30
0.0
 40
0.024130374519042
 50
83.6876159108820303
 51
121.8705483290995062
  0
ARC
  5
A2C1
  8
0
 10
502.5938477496704877
 20
60.4446096159024719
 30
0.0
 40
0.0534671569205122
 50
316.5521078948739842
 51
0.3114030538779059
  0
ARC
  5
A2C2
  8
0
 10
502.59965690867989
 20
60.439106962017803
 30
0.0
 40
0.0454655615689016
 50
209.2508209569766109
 51
316.5521078948755189
  0
ARC
  5
A2C3
  8
0
 10
502.6087940946791832
 20
60.4442242040286004
 30
0.0
 40
0.0559381130145598
 50
176.5103463487513977
 51
209.2508209569757014
  0
ARC
  5
A2C4
  8
0
 10
502.6057141902372223
 20
60.4444120208171896
 30
0.0
 40
0.0528524872243534
 50
114.1798296607424987
 51
176.5103463487533872
  0
ARC
  5
A2C5
  8
0
 10
502.6012614734967769
 20
60.4543291006898116
 30
0.0
 40
0.041981647350174
 50
38.3853636411209678
 51
114.1798296607424987
  0
ARC
  5
A2C6
  8
0
 10
502.5863266806798038
 20
60.4424981403033001
 30
0.0
 40
0.0610347221717312
 50
2.2555021599478922
 51
38.3853636411209678
  0
ARC
  5
A2C7
  8
0
 10
502.6000815938539859
 20
60.452946706170529
 30
0.0
 40
0.0479130185980869
 50
297.2643364059562145
 51
350.3319504778169176
  0
ARC
  5
A2C8
  8
0
 10
502.6002393848422116
 20
60.4538355472763982
 30
0.0
 40
0.0486339093795779
 50
220.8183313734182036
 51
296.6193868926611117
  0
ARC
  5
A2C9
  8
0
 10
502.5963089975920752
 20
60.4504407329736466
 30
0.0
 40
0.0434403837865608
 50
183.7110535079679892
 51
220.8183313734132867
  0
ARC
  5
A2CA
  8
0
 10
502.6003028088153997
 20
60.4506622774985019
 30
0.0
 40
0.0233994476309815
 50
1.952098087485397
 51
84.0819773267124475
  0
ARC
  5
A2CB
  8
0
 10
502.6011236292840749
 20
60.4506902541201825
 30
0.0
 40
0.0225781505268381
 50
270.14877690599468
 51
1.9520980874866181
  0
ARC
  5
A2CC
  8
0
 10
502.6011154808513766
 20
60.4538283067022775
 30
0.0
 40
0.0257162136882436
 50
210.4039948241043874
 51
270.1487769059979769
  0
ARC
  5
A2CD
  8
0
 10
502.5991176092397268
 20
60.4511047344361927
 30
0.0
 40
0.0226542509034798
 50
121.3795704307324996
 51
207.0182586148297901
  0
ARC
  5
A2CE
  8
0
 10
502.6000623046215878
 20
60.4499529390087034
 30
0.0
 40
0.024130374519042
 50
83.6876159108820303
 51
121.8705483290995062
  0
ARC
  5
A2CF
  8
0
 10
502.8876097319674159
 20
60.4369932679793678
 30
0.0
 40
0.0534671569205122
 50
316.5521078948739842
 51
0.3114030538779059
  0
ARC
  5
A2D0
  8
0
 10
502.8934188909768181
 20
60.4314906140946917
 30
0.0
 40
0.0454655615689016
 50
209.2508209569766109
 51
316.5521078948755189
  0
ARC
  5
A2D1
  8
0
 10
502.9025560769761114
 20
60.4366078561055105
 30
0.0
 40
0.0559381130145598
 50
176.5103463487513977
 51
209.2508209569757014
  0
ARC
  5
A2D2
  8
0
 10
502.8994761725342073
 20
60.4367956728940996
 30
0.0
 40
0.0528524872243534
 50
114.1798296607424987
 51
176.5103463487533872
  0
ARC
  5
A2D3
  8
0
 10
502.8950234557937051
 20
60.4467127527667003
 30
0.0
 40
0.041981647350174
 50
38.3853636411209678
 51
114.1798296607424987
  0
ARC
  5
A2D4
  8
0
 10
502.8800886629766751
 20
60.4348817923802031
 30
0.0
 40
0.0610347221717312
 50
2.2555021599478922
 51
38.3853636411209678
  0
ARC
  5
A2D5
  8
0
 10
502.893843576150914
 20
60.4453303582474177
 30
0.0
 40
0.0479130185980869
 50
297.2643364059562145
 51
350.3319504778169176
  0
ARC
  5
A2D6
  8
0
 10
502.894001367139083
 20
60.4462191993533082
 30
0.0
 40
0.0486339093795779
 50
220.8183313734182036
 51
296.6193868926611117
  0
ARC
  5
A2D7
  8
0
 10
502.8900709798890034
 20
60.4428243850505709
 30
0.0
 40
0.0434403837865608
 50
183.7110535079679892
 51
220.8183313734132867
  0
ARC
  5
A2D8
  8
0
 10
502.8940647911123847
 20
60.4430459295753977
 30
0.0
 40
0.0233994476309815
 50
1.952098087485397
 51
84.0819773267124475
  0
ARC
  5
A2D9
  8
0
 10
502.8948856115810031
 20
60.4430739061970925
 30
0.0
 40
0.0225781505268381
 50
270.14877690599468
 51
1.9520980874866181
  0
ARC
  5
A2DA
  8
0
 10
502.8948774631484184
 20
60.4462119587791875
 30
0.0
 40
0.0257162136882436
 50
210.4039948241043874
 51
270.1487769059979769
  0
ARC
  5
A2DB
  8
0
 10
502.8928795915367118
 20
60.4434883865130885
 30
0.0
 40
0.0226542509034798
 50
121.3795704307324996
 51
207.0182586148297901
  0
ARC
  5
A2DC
  8
0
 10
502.893824286918516
 20
60.4423365910856134
 30
0.0
 40
0.024130374519042
 50
83.6876159108820303
 51
121.8705483290995062
  0
ARC
  5
A2DD
  8
0
 10
503.0817273663279821
 20
60.4252312369073721
 30
0.0
 40
0.0534671569205122
 50
316.5521078948739842
 51
0.3114030538779059
  0
ARC
  5
A2DE
  8
0
 10
503.0875365253373843
 20
60.4197285830226889
 30
0.0
 40
0.0454655615689016
 50
209.2508209569766109
 51
316.5521078948755189
  0
ARC
  5
A2DF
  8
0
 10
503.0966737113366207
 20
60.4248458250335077
 30
0.0
 40
0.0559381130145598
 50
176.5103463487513977
 51
209.2508209569757014
  0
ARC
  5
A2E0
  8
0
 10
503.0935938068947735
 20
60.4250336418220897
 30
0.0
 40
0.0528524872243534
 50
114.1798296607424987
 51
176.5103463487533872
  0
ARC
  5
A2E1
  8
0
 10
503.089141090154385
 20
60.4349507216947117
 30
0.0
 40
0.041981647350174
 50
38.3853636411209678
 51
114.1798296607424987
  0
ARC
  5
A2E2
  8
0
 10
503.0742062973372981
 20
60.4231197613082074
 30
0.0
 40
0.0610347221717312
 50
2.2555021599478922
 51
38.3853636411209678
  0
ARC
  5
A2E3
  8
0
 10
503.0879612105114802
 20
60.4335683271754291
 30
0.0
 40
0.0479130185980869
 50
297.2643364059562145
 51
350.3319504778169176
  0
ARC
  5
A2E4
  8
0
 10
503.088119001499706
 20
60.4344571682813125
 30
0.0
 40
0.0486339093795779
 50
220.8183313734182036
 51
296.6193868926611117
  0
ARC
  5
A2E5
  8
0
 10
503.0841886142496264
 20
60.4310623539785468
 30
0.0
 40
0.0434403837865608
 50
183.7110535079679892
 51
220.8183313734132867
  0
ARC
  5
A2E6
  8
0
 10
503.088182425472894
 20
60.431283898503402
 30
0.0
 40
0.0233994476309815
 50
1.952098087485397
 51
84.0819773267124475
  0
ARC
  5
A2E7
  8
0
 10
503.089003245941683
 20
60.4313118751250826
 30
0.0
 40
0.0225781505268381
 50
270.14877690599468
 51
1.9520980874866181
  0
ARC
  5
A2E8
  8
0
 10
503.0889950975089846
 20
60.4344499277071918
 30
0.0
 40
0.0257162136882436
 50
210.4039948241043874
 51
270.1487769059979769
  0
ARC
  5
A2E9
  8
0
 10
503.086997225897278
 20
60.4317263554410928
 30
0.0
 40
0.0226542509034798
 50
121.3795704307324996
 51
207.0182586148297901
  0
ARC
  5
A2EA
  8
0
 10
503.0879419212790822
 20
60.4305745600136035
 30
0.0
 40
0.024130374519042
 50
83.6876159108820303
 51
121.8705483290995062
  0
ARC
  5
A2EB
  8
0
 10
502.3711503232318023
 20
60.1195985965526987
 30
0.0
 40
0.0534671569205122
 50
316.5521078948739842
 51
0.3114030538779059
  0
ARC
  5
A2EC
  8
0
 10
502.3769594822412046
 20
60.1140959426680226
 30
0.0
 40
0.0454655615689016
 50
209.2508209569766109
 51
316.5521078948755189
  0
ARC
  5
A2ED
  8
0
 10
502.3860966682403841
 20
60.1192131846788413
 30
0.0
 40
0.0559381130145598
 50
176.5103463487513977
 51
209.2508209569757014
  0
ARC
  5
A2EE
  8
0
 10
502.38301676379848
 20
60.1194010014674092
 30
0.0
 40
0.0528524872243534
 50
114.1798296607424987
 51
176.5103463487533872
  0
ARC
  5
A2EF
  8
0
 10
502.3785640470580915
 20
60.1293180813400383
 30
0.0
 40
0.041981647350174
 50
38.3853636411209678
 51
114.1798296607424987
  0
ARC
  5
A2F0
  8
0
 10
502.3636292542411184
 20
60.1174871209535411
 30
0.0
 40
0.0610347221717312
 50
2.2555021599478922
 51
38.3853636411209678
  0
ARC
  5
A2F1
  8
0
 10
502.3773841674153005
 20
60.1279356868207486
 30
0.0
 40
0.0479130185980869
 50
297.2643364059562145
 51
350.3319504778169176
  0
ARC
  5
A2F2
  8
0
 10
502.3775419584035262
 20
60.128824527926632
 30
0.0
 40
0.0486339093795779
 50
220.8183313734182036
 51
296.6193868926611117
  0
ARC
  5
A2F3
  8
0
 10
502.3736115711533898
 20
60.1254297136238804
 30
0.0
 40
0.0434403837865608
 50
183.7110535079679892
 51
220.8183313734132867
  0
ARC
  5
A2F4
  8
0
 10
502.3776053823767143
 20
60.1256512581487286
 30
0.0
 40
0.0233994476309815
 50
1.952098087485397
 51
84.0819773267124475
  0
ARC
  5
A2F5
  8
0
 10
502.3784262028453895
 20
60.1256792347704092
 30
0.0
 40
0.0225781505268381
 50
270.14877690599468
 51
1.9520980874866181
  0
ARC
  5
A2F6
  8
0
 10
502.3784180544128048
 20
60.1288172873525113
 30
0.0
 40
0.0257162136882436
 50
210.4039948241043874
 51
270.1487769059979769
  0
ARC
  5
A2F7
  8
0
 10
502.3764201828010982
 20
60.1260937150864123
 30
0.0
 40
0.0226542509034798
 50
121.3795704307324996
 51
207.0182586148297901
  0
ARC
  5
A2F8
  8
0
 10
502.3773648781829024
 20
60.1249419196589301
 30
0.0
 40
0.024130374519042
 50
83.6876159108820303
 51
121.8705483290995062
  0
ARC
  5
A2F9
  8
0
 10
502.5122079820126828
 20
60.0888751218021895
 30
0.0
 40
0.0534671569205122
 50
316.5521078948739842
 51
0.3114030538779059
  0
ARC
  5
A2FA
  8
0
 10
502.5180171410220851
 20
60.0833724679174992
 30
0.0
 40
0.0454655615689016
 50
209.2508209569766109
 51
316.5521078948755189
  0
ARC
  5
A2FB
  8
0
 10
502.5271543270213783
 20
60.0884897099283322
 30
0.0
 40
0.0559381130145598
 50
176.5103463487513977
 51
209.2508209569757014
  0
ARC
  5
A2FC
  8
0
 10
502.5240744225794742
 20
60.0886775267169071
 30
0.0
 40
0.0528524872243534
 50
114.1798296607424987
 51
176.5103463487533872
  0
ARC
  5
A2FD
  8
0
 10
502.5196217058390857
 20
60.098594606589522
 30
0.0
 40
0.041981647350174
 50
38.3853636411209678
 51
114.1798296607424987
  0
ARC
  5
A2FE
  8
0
 10
502.5046869130219989
 20
60.0867636462030177
 30
0.0
 40
0.0610347221717312
 50
2.2555021599478922
 51
38.3853636411209678
  0
ARC
  5
A2FF
  8
0
 10
502.5184418261962946
 20
60.0972122120702394
 30
0.0
 40
0.0479130185980869
 50
297.2643364059562145
 51
350.3319504778169176
  0
ARC
  5
A300
  8
0
 10
502.5185996171845204
 20
60.0981010531761299
 30
0.0
 40
0.0486339093795779
 50
220.8183313734182036
 51
296.6193868926611117
  0
ARC
  5
A301
  8
0
 10
502.5146692299344977
 20
60.0947062388733784
 30
0.0
 40
0.0434403837865608
 50
183.7110535079679892
 51
220.8183313734132867
  0
ARC
  5
A302
  8
0
 10
502.5186630411577084
 20
60.0949277833982123
 30
0.0
 40
0.0233994476309815
 50
1.952098087485397
 51
84.0819773267124475
  0
ARC
  5
A303
  8
0
 10
502.5194838616264974
 20
60.0949557600199071
 30
0.0
 40
0.0225781505268381
 50
270.14877690599468
 51
1.9520980874866181
  0
ARC
  5
A304
  8
0
 10
502.519475713193799
 20
60.0980938126020021
 30
0.0
 40
0.0257162136882436
 50
210.4039948241043874
 51
270.1487769059979769
  0
ARC
  5
A305
  8
0
 10
502.5174778415820924
 20
60.0953702403359102
 30
0.0
 40
0.0226542509034798
 50
121.3795704307324996
 51
207.0182586148297901
  0
ARC
  5
A306
  8
0
 10
502.5184225369637829
 20
60.094218444908428
 30
0.0
 40
0.024130374519042
 50
83.6876159108820303
 51
121.8705483290995062
  0
ARC
  5
A307
  8
0
 10
502.7920913664548834
 20
60.0150646336936617
 30
0.0
 40
0.0534671569205122
 50
316.5521078948739842
 51
0.3114030538779059
  0
ARC
  5
A308
  8
0
 10
502.7979005254642857
 20
60.0095619798089785
 30
0.0
 40
0.0454655615689016
 50
209.2508209569766109
 51
316.5521078948755189
  0
ARC
  5
A309
  8
0
 10
502.8070377114635789
 20
60.0146792218198115
 30
0.0
 40
0.0559381130145598
 50
176.5103463487513977
 51
209.2508209569757014
  0
ARC
  5
A30A
  8
0
 10
502.8039578070216749
 20
60.0148670386083865
 30
0.0
 40
0.0528524872243534
 50
114.1798296607424987
 51
176.5103463487533872
  0
ARC
  5
A30B
  8
0
 10
502.7995050902812864
 20
60.0247841184810014
 30
0.0
 40
0.041981647350174
 50
38.3853636411209678
 51
114.1798296607424987
  0
ARC
  5
A30C
  8
0
 10
502.7845702974641995
 20
60.012953158094497
 30
0.0
 40
0.0610347221717312
 50
2.2555021599478922
 51
38.3853636411209678
  0
ARC
  5
A30D
  8
0
 10
502.7983252106383816
 20
60.0234017239617188
 30
0.0
 40
0.0479130185980869
 50
297.2643364059562145
 51
350.3319504778169176
  0
ARC
  5
A30E
  8
0
 10
502.7984830016266073
 20
60.0242905650676093
 30
0.0
 40
0.0486339093795779
 50
220.8183313734182036
 51
296.6193868926611117
  0
ARC
  5
A30F
  8
0
 10
502.7945526143765278
 20
60.0208957507648506
 30
0.0
 40
0.0434403837865608
 50
183.7110535079679892
 51
220.8183313734132867
  0
ARC
  5
A310
  8
0
 10
502.7985464255997954
 20
60.0211172952896916
 30
0.0
 40
0.0233994476309815
 50
1.952098087485397
 51
84.0819773267124475
  0
ARC
  5
A311
  8
0
 10
502.7993672460685843
 20
60.0211452719113865
 30
0.0
 40
0.0225781505268381
 50
270.14877690599468
 51
1.9520980874866181
  0
ARC
  5
A312
  8
0
 10
502.799359097635886
 20
60.0242833244934886
 30
0.0
 40
0.0257162136882436
 50
210.4039948241043874
 51
270.1487769059979769
  0
ARC
  5
A313
  8
0
 10
502.7973612260241794
 20
60.0215597522273825
 30
0.0
 40
0.0226542509034798
 50
121.3795704307324996
 51
207.0182586148297901
  0
ARC
  5
A314
  8
0
 10
502.7983059214059836
 20
60.0204079567999074
 30
0.0
 40
0.024130374519042
 50
83.6876159108820303
 51
121.8705483290995062
  0
ARC
  5
A315
  8
0
 10
502.9743944696700737
 20
59.9654812100805188
 30
0.0
 40
0.0534671569205122
 50
316.5521078948739842
 51
0.3114030538779059
  0
ARC
  5
A316
  8
0
 10
502.9802036286794191
 20
59.9599785561958427
 30
0.0
 40
0.0454655615689016
 50
209.2508209569766109
 51
316.5521078948755189
  0
ARC
  5
A317
  8
0
 10
502.9893408146785987
 20
59.9650957982066686
 30
0.0
 40
0.0559381130145598
 50
176.5103463487513977
 51
209.2508209569757014
  0
ARC
  5
A318
  8
0
 10
502.9862609102368083
 20
59.9652836149952506
 30
0.0
 40
0.0528524872243534
 50
114.1798296607424987
 51
176.5103463487533872
  0
ARC
  5
A319
  8
0
 10
502.9818081934963061
 20
59.9752006948678513
 30
0.0
 40
0.041981647350174
 50
38.3853636411209678
 51
114.1798296607424987
  0
ARC
  5
A31A
  8
0
 10
502.9668734006792761
 20
59.963369734481347
 30
0.0
 40
0.0610347221717312
 50
2.2555021599478922
 51
38.3853636411209678
  0
ARC
  5
A31B
  8
0
 10
502.980628313853515
 20
59.9738183003485688
 30
0.0
 40
0.0479130185980869
 50
297.2643364059562145
 51
350.3319504778169176
  0
ARC
  5
A31C
  8
0
 10
502.9807861048416839
 20
59.9747071414544592
 30
0.0
 40
0.0486339093795779
 50
220.8183313734182036
 51
296.6193868926611117
  0
ARC
  5
A31D
  8
0
 10
502.9768557175916044
 20
59.9713123271517219
 30
0.0
 40
0.0434403837865608
 50
183.7110535079679892
 51
220.8183313734132867
  0
ARC
  5
A31E
  8
0
 10
502.9808495288149857
 20
59.9715338716765487
 30
0.0
 40
0.0233994476309815
 50
1.952098087485397
 51
84.0819773267124475
  0
ARC
  5
A31F
  8
0
 10
502.9816703492837178
 20
59.9715618482982435
 30
0.0
 40
0.0225781505268381
 50
270.14877690599468
 51
1.9520980874866181
  0
ARC
  5
A320
  8
0
 10
502.9816622008509057
 20
59.9746999008803527
 30
0.0
 40
0.0257162136882436
 50
210.4039948241043874
 51
270.1487769059979769
  0
ARC
  5
A321
  8
0
 10
502.9796643292393128
 20
59.9719763286142395
 30
0.0
 40
0.0226542509034798
 50
121.3795704307324996
 51
207.0182586148297901
  0
ARC
  5
A322
  8
0
 10
502.980609024621117
 20
59.9708245331867573
 30
0.0
 40
0.024130374519042
 50
83.6876159108820303
 51
121.8705483290995062
  0
ARC
  5
A323
  8
0
 10
502.2215779597366918
 20
59.81960780571832
 30
0.0
 40
0.0534671569205122
 50
316.5521078948739842
 51
0.3114030538779059
  0
ARC
  5
A324
  8
0
 10
502.2273871187459804
 20
59.8141051518336297
 30
0.0
 40
0.0454655615689016
 50
209.2508209569766109
 51
316.5521078948755189
  0
ARC
  5
A325
  8
0
 10
502.2365243047452736
 20
59.8192223938444485
 30
0.0
 40
0.0559381130145598
 50
176.5103463487513977
 51
209.2508209569757014
  0
ARC
  5
A326
  8
0
 10
502.2334444003034264
 20
59.8194102106330305
 30
0.0
 40
0.0528524872243534
 50
114.1798296607424987
 51
176.5103463487533872
  0
ARC
  5
A327
  8
0
 10
502.2289916835629811
 20
59.8293272905056313
 30
0.0
 40
0.041981647350174
 50
38.3853636411209678
 51
114.1798296607424987
  0
ARC
  5
A328
  8
0
 10
502.2140568907458942
 20
59.8174963301191269
 30
0.0
 40
0.0610347221717312
 50
2.2555021599478922
 51
38.3853636411209678
  0
ARC
  5
A329
  8
0
 10
502.22781180392019
 20
59.8279448959863487
 30
0.0
 40
0.0479130185980869
 50
297.2643364059562145
 51
350.3319504778169176
  0
ARC
  5
A32A
  8
0
 10
502.227969594908302
 20
59.8288337370922392
 30
0.0
 40
0.0486339093795779
 50
220.8183313734182036
 51
296.6193868926611117
  0
ARC
  5
A32B
  8
0
 10
502.2240392076582793
 20
59.8254389227895018
 30
0.0
 40
0.0434403837865608
 50
183.7110535079679892
 51
220.8183313734132867
  0
ARC
  5
A32C
  8
0
 10
502.2280330188816038
 20
59.8256604673143286
 30
0.0
 40
0.0233994476309815
 50
1.952098087485397
 51
84.0819773267124475
  0
ARC
  5
A32D
  8
0
 10
502.228853839350279
 20
59.8256884439360235
 30
0.0
 40
0.0225781505268381
 50
270.14877690599468
 51
1.9520980874866181
  0
ARC
  5
A32E
  8
0
 10
502.2288456909175807
 20
59.8288264965181327
 30
0.0
 40
0.0257162136882436
 50
210.4039948241043874
 51
270.1487769059979769
  0
ARC
  5
A32F
  8
0
 10
502.2268478193058741
 20
59.8261029242520195
 30
0.0
 40
0.0226542509034798
 50
121.3795704307324996
 51
207.0182586148297901
  0
ARC
  5
A330
  8
0
 10
502.2277925146876782
 20
59.8249511288245372
 30
0.0
 40
0.024130374519042
 50
83.6876159108820303
 51
121.8705483290995062
  0
ARC
  5
A331
  8
0
 10
502.3475997841304093
 20
59.7609594206739914
 30
0.0
 40
0.0534671569205122
 50
316.5521078948739842
 51
0.3114030538779059
  0
ARC
  5
A332
  8
0
 10
502.3534089431398115
 20
59.7554567667893011
 30
0.0
 40
0.0454655615689016
 50
209.2508209569766109
 51
316.5521078948755189
  0
ARC
  5
A333
  8
0
 10
502.3625461291389911
 20
59.7605740088001198
 30
0.0
 40
0.0559381130145598
 50
176.5103463487513977
 51
209.2508209569757014
  0
ARC
  5
A334
  8
0
 10
502.359466224697087
 20
59.760761825588709
 30
0.0
 40
0.0528524872243534
 50
114.1798296607424987
 51
176.5103463487533872
  0
ARC
  5
A335
  8
0
 10
502.3550135079566985
 20
59.7706789054613097
 30
0.0
 40
0.041981647350174
 50
38.3853636411209678
 51
114.1798296607424987
  0
ARC
  5
A336
  8
0
 10
502.3400787151397253
 20
59.7588479450748125
 30
0.0
 40
0.0610347221717312
 50
2.2555021599478922
 51
38.3853636411209678
  0
ARC
  5
A337
  8
0
 10
502.3538336283139074
 20
59.7692965109420271
 30
0.0
 40
0.0479130185980869
 50
297.2643364059562145
 51
350.3319504778169176
  0
ARC
  5
A338
  8
0
 10
502.3539914193020763
 20
59.7701853520479176
 30
0.0
 40
0.0486339093795779
 50
220.8183313734182036
 51
296.6193868926611117
  0
ARC
  5
A339
  8
0
 10
502.3500610320519968
 20
59.7667905377451802
 30
0.0
 40
0.0434403837865608
 50
183.7110535079679892
 51
220.8183313734132867
  0
ARC
  5
A33A
  8
0
 10
502.3540548432753212
 20
59.7670120822700071
 30
0.0
 40
0.0233994476309815
 50
1.952098087485397
 51
84.0819773267124475
  0
ARC
  5
A33B
  8
0
 10
502.3548756637441102
 20
59.7670400588917019
 30
0.0
 40
0.0225781505268381
 50
270.14877690599468
 51
1.9520980874866181
  0
ARC
  5
A33C
  8
0
 10
502.3548675153114118
 20
59.7701781114737969
 30
0.0
 40
0.0257162136882436
 50
210.4039948241043874
 51
270.1487769059979769
  0
ARC
  5
A33D
  8
0
 10
502.3528696436995915
 20
59.7674545392076979
 30
0.0
 40
0.0226542509034798
 50
121.3795704307324996
 51
207.0182586148297901
  0
ARC
  5
A33E
  8
0
 10
502.3538143390815094
 20
59.7663027437802228
 30
0.0
 40
0.024130374519042
 50
83.6876159108820303
 51
121.8705483290995062
  0
ARC
  5
A33F
  8
0
 10
502.5987439214472943
 20
59.6327350544097072
 30
0.0
 40
0.0534671569205122
 50
316.5521078948739842
 51
0.3114030538779059
  0
ARC
  5
A340
  8
0
 10
502.6045530804566965
 20
59.6272324005250169
 30
0.0
 40
0.0454655615689016
 50
209.2508209569766109
 51
316.5521078948755189
  0
ARC
  5
A341
  8
0
 10
502.6136902664558761
 20
59.6323496425358499
 30
0.0
 40
0.0559381130145598
 50
176.5103463487513977
 51
209.2508209569757014
  0
ARC
  5
A342
  8
0
 10
502.6106103620140857
 20
59.6325374593244319
 30
0.0
 40
0.0528524872243534
 50
114.1798296607424987
 51
176.5103463487533872
  0
ARC
  5
A343
  8
0
 10
502.6061576452736972
 20
59.6424545391970398
 30
0.0
 40
0.041981647350174
 50
38.3853636411209678
 51
114.1798296607424987
  0
ARC
  5
A344
  8
0
 10
502.5912228524566103
 20
59.6306235788105283
 30
0.0
 40
0.0610347221717312
 50
2.2555021599478922
 51
38.3853636411209678
  0
ARC
  5
A345
  8
0
 10
502.6049777656307924
 20
59.6410721446777572
 30
0.0
 40
0.0479130185980869
 50
297.2643364059562145
 51
350.3319504778169176
  0
ARC
  5
A346
  8
0
 10
502.6051355566190182
 20
59.6419609857836477
 30
0.0
 40
0.0486339093795779
 50
220.8183313734182036
 51
296.6193868926611117
  0
ARC
  5
A347
  8
0
 10
502.6012051693688818
 20
59.638566171480889
 30
0.0
 40
0.0434403837865608
 50
183.7110535079679892
 51
220.8183313734132867
  0
ARC
  5
A348
  8
0
 10
502.6051989805922062
 20
59.63878771600573
 30
0.0
 40
0.0233994476309815
 50
1.952098087485397
 51
84.0819773267124475
  0
ARC
  5
A349
  8
0
 10
502.6060198010609952
 20
59.6388156926274178
 30
0.0
 40
0.0225781505268381
 50
270.14877690599468
 51
1.9520980874866181
  0
ARC
  5
A34A
  8
0
 10
502.6060116526282968
 20
59.6419537452095128
 30
0.0
 40
0.0257162136882436
 50
210.4039948241043874
 51
270.1487769059979769
  0
ARC
  5
A34B
  8
0
 10
502.6040137810165902
 20
59.6392301729434209
 30
0.0
 40
0.0226542509034798
 50
121.3795704307324996
 51
207.0182586148297901
  0
ARC
  5
A34C
  8
0
 10
502.6049584763983944
 20
59.6380783775159529
 30
0.0
 40
0.024130374519042
 50
83.6876159108820303
 51
121.8705483290995062
  0
ARC
  5
A34D
  8
0
 10
502.7636784444125055
 20
59.5417560195835378
 30
0.0
 40
0.0534671569205122
 50
316.5521078948739842
 51
0.3114030538779059
  0
ARC
  5
A34E
  8
0
 10
502.7694876034217941
 20
59.5362533656988617
 30
0.0
 40
0.0454655615689016
 50
209.2508209569766109
 51
316.5521078948755189
  0
ARC
  5
A34F
  8
0
 10
502.7786247894210874
 20
59.5413706077096805
 30
0.0
 40
0.0559381130145598
 50
176.5103463487513977
 51
209.2508209569757014
  0
ARC
  5
A350
  8
0
 10
502.7755448849791833
 20
59.5415584244982696
 30
0.0
 40
0.0528524872243534
 50
114.1798296607424987
 51
176.5103463487533872
  0
ARC
  5
A351
  8
0
 10
502.7710921682387948
 20
59.5514755043708774
 30
0.0
 40
0.041981647350174
 50
38.3853636411209678
 51
114.1798296607424987
  0
ARC
  5
A352
  8
0
 10
502.7561573754218216
 20
59.5396445439843802
 30
0.0
 40
0.0610347221717312
 50
2.2555021599478922
 51
38.3853636411209678
  0
ARC
  5
A353
  8
0
 10
502.7699122885961174
 20
59.5500931098515878
 30
0.0
 40
0.0479130185980869
 50
297.2643364059562145
 51
350.3319504778169176
  0
ARC
  5
A354
  8
0
 10
502.7700700795841726
 20
59.5509819509574783
 30
0.0
 40
0.0486339093795779
 50
220.8183313734182036
 51
296.6193868926611117
  0
ARC
  5
A355
  8
0
 10
502.7661396923340931
 20
59.5475871366547267
 30
0.0
 40
0.0434403837865608
 50
183.7110535079679892
 51
220.8183313734132867
  0
ARC
  5
A356
  8
0
 10
502.7701335035574175
 20
59.5478086811795677
 30
0.0
 40
0.0233994476309815
 50
1.952098087485397
 51
84.0819773267124475
  0
ARC
  5
A357
  8
0
 10
502.7709543240262065
 20
59.5478366578012626
 30
0.0
 40
0.0225781505268381
 50
270.14877690599468
 51
1.9520980874866181
  0
ARC
  5
A358
  8
0
 10
502.7709461755935081
 20
59.5509747103833575
 30
0.0
 40
0.0257162136882436
 50
210.4039948241043874
 51
270.1487769059979769
  0
ARC
  5
A359
  8
0
 10
502.7689483039818015
 20
59.5482511381172515
 30
0.0
 40
0.0226542509034798
 50
121.3795704307324996
 51
207.0182586148297901
  0
ARC
  5
A35A
  8
0
 10
502.769892999363492
 20
59.5470993426897834
 30
0.0
 40
0.024130374519042
 50
83.6876159108820303
 51
121.8705483290995062
  0
ARC
  5
A35B
  8
0
 10
502.0120107187461826
 20
59.5639391800364422
 30
0.0
 40
0.0534671569205122
 50
316.5521078948739842
 51
0.3114030538779059
  0
ARC
  5
A35C
  8
0
 10
502.0178198777556986
 20
59.5584365261517519
 30
0.0
 40
0.0454655615689016
 50
209.2508209569766109
 51
316.5521078948755189
  0
ARC
  5
A35D
  8
0
 10
502.0269570637548782
 20
59.5635537681625706
 30
0.0
 40
0.0559381130145598
 50
176.5103463487513977
 51
209.2508209569757014
  0
ARC
  5
A35E
  8
0
 10
502.0238771593129741
 20
59.5637415849511527
 30
0.0
 40
0.0528524872243534
 50
114.1798296607424987
 51
176.5103463487533872
  0
ARC
  5
A35F
  8
0
 10
502.0194244425725856
 20
59.5736586648237605
 30
0.0
 40
0.041981647350174
 50
38.3853636411209678
 51
114.1798296607424987
  0
ARC
  5
A360
  8
0
 10
502.0044896497556124
 20
59.5618277044372491
 30
0.0
 40
0.0610347221717312
 50
2.2555021599478922
 51
38.3853636411209678
  0
ARC
  5
A361
  8
0
 10
502.0182445629297945
 20
59.5722762703044779
 30
0.0
 40
0.0479130185980869
 50
297.2643364059562145
 51
350.3319504778169176
  0
ARC
  5
A362
  8
0
 10
502.0184023539179066
 20
59.5731651114103684
 30
0.0
 40
0.0486339093795779
 50
220.8183313734182036
 51
296.6193868926611117
  0
ARC
  5
A363
  8
0
 10
502.0144719666679975
 20
59.5697702971076168
 30
0.0
 40
0.0434403837865608
 50
183.7110535079679892
 51
220.8183313734132867
  0
ARC
  5
A364
  8
0
 10
502.0184657778912083
 20
59.5699918416324508
 30
0.0
 40
0.0233994476309815
 50
1.952098087485397
 51
84.0819773267124475
  0
ARC
  5
A365
  8
0
 10
502.0192865983601109
 20
59.5700198182541385
 30
0.0
 40
0.0225781505268381
 50
270.14877690599468
 51
1.9520980874866181
  0
ARC
  5
A366
  8
0
 10
502.0192784499272989
 20
59.5731578708362335
 30
0.0
 40
0.0257162136882436
 50
210.4039948241043874
 51
270.1487769059979769
  0
ARC
  5
A367
  8
0
 10
502.0172805783155923
 20
59.5704342985701416
 30
0.0
 40
0.0226542509034798
 50
121.3795704307324996
 51
207.0182586148297901
  0
ARC
  5
A368
  8
0
 10
502.0182252736973965
 20
59.5692825031426594
 30
0.0
 40
0.024130374519042
 50
83.6876159108820303
 51
121.8705483290995062
  0
ARC
  5
A369
  8
0
 10
502.1138555729854147
 20
59.4766693513504023
 30
0.0
 40
0.0534671569205122
 50
316.5521078948739842
 51
0.3114030538779059
  0
ARC
  5
A36A
  8
0
 10
502.119664731994817
 20
59.4711666974657334
 30
0.0
 40
0.0454655615689016
 50
209.2508209569766109
 51
316.5521078948755189
  0
ARC
  5
A36B
  8
0
 10
502.1288019179941102
 20
59.4762839394765521
 30
0.0
 40
0.0559381130145598
 50
176.5103463487513977
 51
209.2508209569757014
  0
ARC
  5
A36C
  8
0
 10
502.1257220135522061
 20
59.4764717562651413
 30
0.0
 40
0.0528524872243534
 50
114.1798296607424987
 51
176.5103463487533872
  0
ARC
  5
A36D
  8
0
 10
502.1212692968118176
 20
59.486388836137742
 30
0.0
 40
0.041981647350174
 50
38.3853636411209678
 51
114.1798296607424987
  0
ARC
  5
A36E
  8
0
 10
502.1063345039946739
 20
59.4745578757512305
 30
0.0
 40
0.0610347221717312
 50
2.2555021599478922
 51
38.3853636411209678
  0
ARC
  5
A36F
  8
0
 10
502.1200894171689129
 20
59.4850064416184594
 30
0.0
 40
0.0479130185980869
 50
297.2643364059562145
 51
350.3319504778169176
  0
ARC
  5
A370
  8
0
 10
502.1202472081570818
 20
59.4858952827243499
 30
0.0
 40
0.0486339093795779
 50
220.8183313734182036
 51
296.6193868926611117
  0
ARC
  5
A371
  8
0
 10
502.1163168209071159
 20
59.4825004684215983
 30
0.0
 40
0.0434403837865608
 50
183.7110535079679892
 51
220.8183313734132867
  0
ARC
  5
A372
  8
0
 10
502.1203106321303267
 20
59.4827220129464322
 30
0.0
 40
0.0233994476309815
 50
1.952098087485397
 51
84.0819773267124475
  0
ARC
  5
A373
  8
0
 10
502.1211314525991156
 20
59.48274998956812
 30
0.0
 40
0.0225781505268381
 50
270.14877690599468
 51
1.9520980874866181
  0
ARC
  5
A374
  8
0
 10
502.1211233041664173
 20
59.4858880421502292
 30
0.0
 40
0.0257162136882436
 50
210.4039948241043874
 51
270.1487769059979769
  0
ARC
  5
A375
  8
0
 10
502.1191254325548243
 20
59.4831644698841231
 30
0.0
 40
0.0226542509034798
 50
121.3795704307324996
 51
207.0182586148297901
  0
ARC
  5
A376
  8
0
 10
502.1200701279365148
 20
59.4820126744566409
 30
0.0
 40
0.024130374519042
 50
83.6876159108820303
 51
121.8705483290995062
  0
ARC
  5
A377
  8
0
 10
502.3230988636108805
 20
59.2930876292027165
 30
0.0
 40
0.0534671569205122
 50
316.5521078948739842
 51
0.3114030538779059
  0
ARC
  5
A378
  8
0
 10
502.3289080226202827
 20
59.2875849753180475
 30
0.0
 40
0.0454655615689016
 50
209.2508209569766109
 51
316.5521078948755189
  0
ARC
  5
A379
  8
0
 10
502.338045208619576
 20
59.2927022173288591
 30
0.0
 40
0.0559381130145598
 50
176.5103463487513977
 51
209.2508209569757014
  0
ARC
  5
A37A
  8
0
 10
502.3349653041776151
 20
59.2928900341174625
 30
0.0
 40
0.0528524872243534
 50
114.1798296607424987
 51
176.5103463487533872
  0
ARC
  5
A37B
  8
0
 10
502.3305125874372266
 20
59.3028071139900703
 30
0.0
 40
0.041981647350174
 50
38.3853636411209678
 51
114.1798296607424987
  0
ARC
  5
A37C
  8
0
 10
502.3155777946201965
 20
59.2909761536035589
 30
0.0
 40
0.0610347221717312
 50
2.2555021599478922
 51
38.3853636411209678
  0
ARC
  5
A37D
  8
0
 10
502.3293327077943786
 20
59.3014247194707806
 30
0.0
 40
0.0479130185980869
 50
297.2643364059562145
 51
350.3319504778169176
  0
ARC
  5
A37E
  8
0
 10
502.3294904987826044
 20
59.3023135605766569
 30
0.0
 40
0.0486339093795779
 50
220.8183313734182036
 51
296.6193868926611117
  0
ARC
  5
A37F
  8
0
 10
502.3255601115325817
 20
59.2989187462739196
 30
0.0
 40
0.0434403837865608
 50
183.7110535079679892
 51
220.8183313734132867
  0
ARC
  5
A380
  8
0
 10
502.3295539227559061
 20
59.2991402907987535
 30
0.0
 40
0.0233994476309815
 50
1.952098087485397
 51
84.0819773267124475
  0
ARC
  5
A381
  8
0
 10
502.3303747432245814
 20
59.2991682674204412
 30
0.0
 40
0.0225781505268381
 50
270.14877690599468
 51
1.9520980874866181
  0
ARC
  5
A382
  8
0
 10
502.330366594791883
 20
59.3023063200025291
 30
0.0
 40
0.0257162136882436
 50
210.4039948241043874
 51
270.1487769059979769
  0
ARC
  5
A383
  8
0
 10
502.3283687231801764
 20
59.2995827477364372
 30
0.0
 40
0.0226542509034798
 50
121.3795704307324996
 51
207.0182586148297901
  0
ARC
  5
A384
  8
0
 10
502.3293134185619806
 20
59.2984309523089621
 30
0.0
 40
0.024130374519042
 50
83.6876159108820303
 51
121.8705483290995062
  0
ARC
  5
A385
  8
0
 10
502.4615050840147887
 20
59.1688509321893932
 30
0.0
 40
0.0534671569205122
 50
316.5521078948739842
 51
0.3114030538779059
  0
ARC
  5
A386
  8
0
 10
502.467314243024191
 20
59.16334827830471
 30
0.0
 40
0.0454655615689016
 50
209.2508209569766109
 51
316.5521078948755189
  0
ARC
  5
A387
  8
0
 10
502.4764514290234843
 20
59.168465520315543
 30
0.0
 40
0.0559381130145598
 50
176.5103463487513977
 51
209.2508209569757014
  0
ARC
  5
A388
  8
0
 10
502.4733715245815802
 20
59.1686533371041179
 30
0.0
 40
0.0528524872243534
 50
114.1798296607424987
 51
176.5103463487533872
  0
ARC
  5
A389
  8
0
 10
502.468918807841078
 20
59.1785704169767328
 30
0.0
 40
0.041981647350174
 50
38.3853636411209678
 51
114.1798296607424987
  0
ARC
  5
A38A
  8
0
 10
502.4539840150241048
 20
59.1667394565902285
 30
0.0
 40
0.0610347221717312
 50
2.2555021599478922
 51
38.3853636411209678
  0
ARC
  5
A38B
  8
0
 10
502.4677389281984006
 20
59.1771880224574502
 30
0.0
 40
0.0479130185980869
 50
297.2643364059562145
 51
350.3319504778169176
  0
ARC
  5
A38C
  8
0
 10
502.4678967191865127
 20
59.1780768635633407
 30
0.0
 40
0.0486339093795779
 50
220.8183313734182036
 51
296.6193868926611117
  0
ARC
  5
A38D
  8
0
 10
502.46396633193649
 20
59.1746820492605892
 30
0.0
 40
0.0434403837865608
 50
183.7110535079679892
 51
220.8183313734132867
  0
ARC
  5
A38E
  8
0
 10
502.4679601431598144
 20
59.1749035937854231
 30
0.0
 40
0.0233994476309815
 50
1.952098087485397
 51
84.0819773267124475
  0
ARC
  5
A38F
  8
0
 10
502.4687809636284896
 20
59.1749315704071179
 30
0.0
 40
0.0225781505268381
 50
270.14877690599468
 51
1.9520980874866181
  0
ARC
  5
A390
  8
0
 10
502.4687728151957913
 20
59.17806962298922
 30
0.0
 40
0.0257162136882436
 50
210.4039948241043874
 51
270.1487769059979769
  0
ARC
  5
A391
  8
0
 10
502.4667749435841984
 20
59.175346050723121
 30
0.0
 40
0.0226542509034798
 50
121.3795704307324996
 51
207.0182586148297901
  0
ARC
  5
A392
  8
0
 10
502.4677196389658889
 20
59.1741942552956388
 30
0.0
 40
0.024130374519042
 50
83.6876159108820303
 51
121.8705483290995062
  0
ARC
  5
A393
  8
0
 10
501.7453645261542192
 20
59.3516478798870324
 30
0.0
 40
0.0534671569205122
 50
316.5521078948739842
 51
0.3114030538779059
  0
ARC
  5
A394
  8
0
 10
501.7511736851636215
 20
59.3461452260023492
 30
0.0
 40
0.0454655615689016
 50
209.2508209569766109
 51
316.5521078948755189
  0
ARC
  5
A395
  8
0
 10
501.760310871162801
 20
59.351262468013168
 30
0.0
 40
0.0559381130145598
 50
176.5103463487513977
 51
209.2508209569757014
  0
ARC
  5
A396
  8
0
 10
501.757230966720897
 20
59.35145028480175
 30
0.0
 40
0.0528524872243534
 50
114.1798296607424987
 51
176.5103463487533872
  0
ARC
  5
A397
  8
0
 10
501.7527782499805085
 20
59.3613673646743507
 30
0.0
 40
0.041981647350174
 50
38.3853636411209678
 51
114.1798296607424987
  0
ARC
  5
A398
  8
0
 10
501.7378434571634216
 20
59.3495364042878535
 30
0.0
 40
0.0610347221717312
 50
2.2555021599478922
 51
38.3853636411209678
  0
ARC
  5
A399
  8
0
 10
501.7515983703376037
 20
59.3599849701550681
 30
0.0
 40
0.0479130185980869
 50
297.2643364059562145
 51
350.3319504778169176
  0
ARC
  5
A39A
  8
0
 10
501.7517561613257726
 20
59.3608738112609586
 30
0.0
 40
0.0486339093795779
 50
220.8183313734182036
 51
296.6193868926611117
  0
ARC
  5
A39B
  8
0
 10
501.7478257740759204
 20
59.3574789969582071
 30
0.0
 40
0.0434403837865608
 50
183.7110535079679892
 51
220.8183313734132867
  0
ARC
  5
A39C
  8
0
 10
501.7518195852990743
 20
59.3577005414830481
 30
0.0
 40
0.0233994476309815
 50
1.952098087485397
 51
84.0819773267124475
  0
ARC
  5
A39D
  8
0
 10
501.7526404057679201
 20
59.3577285181047429
 30
0.0
 40
0.0225781505268381
 50
270.14877690599468
 51
1.9520980874866181
  0
ARC
  5
A39E
  8
0
 10
501.7526322573352218
 20
59.3608665706868521
 30
0.0
 40
0.0257162136882436
 50
210.4039948241043874
 51
270.1487769059979769
  0
ARC
  5
A39F
  8
0
 10
501.7506343857235152
 20
59.3581429984207389
 30
0.0
 40
0.0226542509034798
 50
121.3795704307324996
 51
207.0182586148297901
  0
ARC
  5
A3A0
  8
0
 10
501.7515790811053193
 20
59.3569912029932567
 30
0.0
 40
0.024130374519042
 50
83.6876159108820303
 51
121.8705483290995062
  0
ARC
  5
A3A1
  8
0
 10
501.8200386767193208
 20
59.2498867326513405
 30
0.0
 40
0.0534671569205122
 50
316.5521078948739842
 51
0.3114030538779059
  0
ARC
  5
A3A2
  8
0
 10
501.82584783572878
 20
59.2443840787666574
 30
0.0
 40
0.0454655615689016
 50
209.2508209569766109
 51
316.5521078948755189
  0
ARC
  5
A3A3
  8
0
 10
501.8349850217280164
 20
59.249501320777469
 30
0.0
 40
0.0559381130145598
 50
176.5103463487513977
 51
209.2508209569757014
  0
ARC
  5
A3A4
  8
0
 10
501.8319051172861123
 20
59.2496891375660582
 30
0.0
 40
0.0528524872243534
 50
114.1798296607424987
 51
176.5103463487533872
  0
ARC
  5
A3A5
  8
0
 10
501.8274524005457238
 20
59.2596062174386589
 30
0.0
 40
0.041981647350174
 50
38.3853636411209678
 51
114.1798296607424987
  0
ARC
  5
A3A6
  8
0
 10
501.8125176077285801
 20
59.2477752570521616
 30
0.0
 40
0.0610347221717312
 50
2.2555021599478922
 51
38.3853636411209678
  0
ARC
  5
A3A7
  8
0
 10
501.826272520902819
 20
59.2582238229193834
 30
0.0
 40
0.0479130185980869
 50
297.2643364059562145
 51
350.3319504778169176
  0
ARC
  5
A3A8
  8
0
 10
501.8264303118909879
 20
59.2591126640252668
 30
0.0
 40
0.0486339093795779
 50
220.8183313734182036
 51
296.6193868926611117
  0
ARC
  5
A3A9
  8
0
 10
501.8224999246410221
 20
59.2557178497225223
 30
0.0
 40
0.0434403837865608
 50
183.7110535079679892
 51
220.8183313734132867
  0
ARC
  5
A3AA
  8
0
 10
501.8264937358642896
 20
59.2559393942473633
 30
0.0
 40
0.0233994476309815
 50
1.952098087485397
 51
84.0819773267124475
  0
ARC
  5
A3AB
  8
0
 10
501.8273145563330218
 20
59.2559673708690511
 30
0.0
 40
0.0225781505268381
 50
270.14877690599468
 51
1.9520980874866181
  0
ARC
  5
A3AC
  8
0
 10
501.8273064079003802
 20
59.2591054234511532
 30
0.0
 40
0.0257162136882436
 50
210.4039948241043874
 51
270.1487769059979769
  0
ARC
  5
A3AD
  8
0
 10
501.8253085362886736
 20
59.25638185118504
 30
0.0
 40
0.0226542509034798
 50
121.3795704307324996
 51
207.0182586148297901
  0
ARC
  5
A3AE
  8
0
 10
501.826253231670421
 20
59.255230055757572
 30
0.0
 40
0.024130374519042
 50
83.6876159108820303
 51
121.8705483290995062
  0
ARC
  5
A3AF
  8
0
 10
501.9819126456375784
 20
59.0300696026495402
 30
0.0
 40
0.0534671569205122
 50
316.5521078948739842
 51
0.3114030538779059
  0
ARC
  5
A3B0
  8
0
 10
501.9877218046469807
 20
59.024566948764857
 30
0.0
 40
0.0454655615689016
 50
209.2508209569766109
 51
316.5521078948755189
  0
ARC
  5
A3B1
  8
0
 10
501.9968589906462171
 20
59.02968419077569
 30
0.0
 40
0.0559381130145598
 50
176.5103463487513977
 51
209.2508209569757014
  0
ARC
  5
A3B2
  8
0
 10
501.993779086204313
 20
59.029872007564272
 30
0.0
 40
0.0528524872243534
 50
114.1798296607424987
 51
176.5103463487533872
  0
ARC
  5
A3B3
  8
0
 10
501.9893263694639813
 20
59.0397890874368798
 30
0.0
 40
0.041981647350174
 50
38.3853636411209678
 51
114.1798296607424987
  0
ARC
  5
A3B4
  8
0
 10
501.9743915766467808
 20
59.0279581270503684
 30
0.0
 40
0.0610347221717312
 50
2.2555021599478922
 51
38.3853636411209678
  0
ARC
  5
A3B5
  8
0
 10
501.9881464898210766
 20
59.0384066929175972
 30
0.0
 40
0.0479130185980869
 50
297.2643364059562145
 51
350.3319504778169176
  0
ARC
  5
A3B6
  8
0
 10
501.9883042808093023
 20
59.0392955340234877
 30
0.0
 40
0.0486339093795779
 50
220.8183313734182036
 51
296.6193868926611117
  0
ARC
  5
A3B7
  8
0
 10
501.9843738935592228
 20
59.0359007197207291
 30
0.0
 40
0.0434403837865608
 50
183.7110535079679892
 51
220.8183313734132867
  0
ARC
  5
A3B8
  8
0
 10
501.9883677047824904
 20
59.0361222642455701
 30
0.0
 40
0.0233994476309815
 50
1.952098087485397
 51
84.0819773267124475
  0
ARC
  5
A3B9
  8
0
 10
501.9891885252512225
 20
59.0361502408672578
 30
0.0
 40
0.0225781505268381
 50
270.14877690599468
 51
1.9520980874866181
  0
ARC
  5
A3BA
  8
0
 10
501.9891803768185241
 20
59.039288293449367
 30
0.0
 40
0.0257162136882436
 50
210.4039948241043874
 51
270.1487769059979769
  0
ARC
  5
A3BB
  8
0
 10
501.9871825052068743
 20
59.0365647211832609
 30
0.0
 40
0.0226542509034798
 50
121.3795704307324996
 51
207.0182586148297901
  0
ARC
  5
A3BC
  8
0
 10
501.9881272005886785
 20
59.0354129257557787
 30
0.0
 40
0.024130374519042
 50
83.6876159108820303
 51
121.8705483290995062
  0
ARC
  5
A3BD
  8
0
 10
502.0822764089323869
 20
58.8807497177531474
 30
0.0
 40
0.0534671569205122
 50
316.5521078948739842
 51
0.3114030538779059
  0
ARC
  5
A3BE
  8
0
 10
502.0880855679416754
 20
58.8752470638684571
 30
0.0
 40
0.0454655615689016
 50
209.2508209569766109
 51
316.5521078948755189
  0
ARC
  5
A3BF
  8
0
 10
502.0972227539410255
 20
58.88036430587929
 30
0.0
 40
0.0559381130145598
 50
176.5103463487513977
 51
209.2508209569757014
  0
ARC
  5
A3C0
  8
0
 10
502.0941428494991783
 20
58.8805521226678721
 30
0.0
 40
0.0528524872243534
 50
114.1798296607424987
 51
176.5103463487533872
  0
ARC
  5
A3C1
  8
0
 10
502.0896901327586761
 20
58.8904692025404799
 30
0.0
 40
0.041981647350174
 50
38.3853636411209678
 51
114.1798296607424987
  0
ARC
  5
A3C2
  8
0
 10
502.0747553399417029
 20
58.8786382421539685
 30
0.0
 40
0.0610347221717312
 50
2.2555021599478922
 51
38.3853636411209678
  0
ARC
  5
A3C3
  8
0
 10
502.088510253115885
 20
58.8890868080211973
 30
0.0
 40
0.0479130185980869
 50
297.2643364059562145
 51
350.3319504778169176
  0
ARC
  5
A3C4
  8
0
 10
502.0886680441041108
 20
58.8899756491270878
 30
0.0
 40
0.0486339093795779
 50
220.8183313734182036
 51
296.6193868926611117
  0
ARC
  5
A3C5
  8
0
 10
502.0847376568539744
 20
58.8865808348243291
 30
0.0
 40
0.0434403837865608
 50
183.7110535079679892
 51
220.8183313734132867
  0
ARC
  5
A3C6
  8
0
 10
502.0887314680772988
 20
58.8868023793491702
 30
0.0
 40
0.0233994476309815
 50
1.952098087485397
 51
84.0819773267124475
  0
ARC
  5
A3C7
  8
0
 10
502.0895522885459741
 20
58.8868303559708579
 30
0.0
 40
0.0225781505268381
 50
270.14877690599468
 51
1.9520980874866181
  0
ARC
  5
A3C8
  8
0
 10
502.0895441401132757
 20
58.8899684085529671
 30
0.0
 40
0.0257162136882436
 50
210.4039948241043874
 51
270.1487769059979769
  0
ARC
  5
A3C9
  8
0
 10
502.0875462685016828
 20
58.887244836286861
 30
0.0
 40
0.0226542509034798
 50
121.3795704307324996
 51
207.0182586148297901
  0
ARC
  5
A3CA
  8
0
 10
502.088490963883487
 20
58.886093040859393
 30
0.0
 40
0.024130374519042
 50
83.6876159108820303
 51
121.8705483290995062
  0
ARC
  5
A3CB
  8
0
 10
502.5649481107802785
 20
57.6138934256240987
 30
0.0
 40
1.010672542078896
 50
128.8602380669121885
 51
151.9892125480502898
  0
ARC
  5
A3CC
  8
0
 10
502.9114395837729035
 20
57.429576953591301
 30
0.0
 40
1.403137703232272
 50
151.9892125480506877
 51
178.9950958203818061
  0
LINE
  5
A3CD
  8
0
 10
501.5085176863872221
 20
57.4541851649767423
 30
0.0
 11
501.5081885797455925
 21
57.4354226914725032
 31
0.0
  0
ARC
  5
A3CE
  8
0
 10
501.4963903946131154
 20
57.4356296397240271
 30
0.0
 40
0.0118
 50
270.0000000000064801
 51
358.9950958203717164
  0
LINE
  5
A3CF
  8
0
 10
501.5082844428384874
 20
57.4041556251240408
 30
0.0
 11
501.5082844428384874
 21
53.6325609609226177
 31
0.0
  0
LINE
  5
A3D0
  8
0
 10
501.4764430523700867
 20
57.4182694812984806
 30
0.0
 11
501.4708828934384997
 21
57.4238296397240404
 31
0.0
  0
ARC
  5
A3D1
  8
0
 10
501.4820291956872893
 20
57.4238556251240411
 30
0.0
 40
0.0079
 50
225.0000026072904973
 51
270.0
  0
ARC
  5
A3D2
  8
0
 10
501.4964844428384936
 20
57.4041556251240408
 30
0.0
 40
0.0118
 50
0.0
 51
89.9999999999641744
  0
ARC
  5
A3D3
  8
0
 10
500.9375381405396865
 20
56.8595563516970088
 30
0.0
 40
0.2760519635228555
 50
30.8059067040083114
 51
90.0227110830500266
  0
ARC
  5
A3D4
  8
0
 10
500.9395211864219846
 20
56.8607387613950976
 30
0.0
 40
0.2737431621746312
 50
310.5658911658450165
 51
30.8059067040083114
  0
ARC
  5
A3D5
  8
0
 10
500.937006884613993
 20
56.8636757843862028
 30
0.0
 40
0.2776094029369407
 50
270.0870622267256067
 51
310.5658911658450165
  0
ARC
  5
A3D6
  8
0
 10
500.9373965700099234
 20
56.8634683391574924
 30
0.0
 40
0.2834904090667694
 50
53.3944936867357285
 51
89.9935025845811936
  0
ARC
  5
A3D7
  8
0
 10
500.9361509190064226
 20
56.8617914053700275
 30
0.0
 40
0.2855793689395884
 50
18.378248204465109
 51
53.394493686736233
  0
ARC
  5
A3D8
  8
0
 10
500.9337793601848716
 20
56.8610034925973693
 30
0.0
 40
0.2880783883034461
 50
322.5359572309052965
 51
18.3782482044649207
  0
ARC
  5
A3D9
  8
0
 10
500.9375850404010748
 20
56.8580870842041008
 30
0.0
 40
0.2832837413065846
 50
269.9683829243408013
 51
322.5359572309052965
  0
ARC
  5
A3DA
  8
0
 10
496.7683899626409811
 20
53.8880178484854895
 30
0.0
 40
4.7467734204204453
 50
352.075133323842806
 51
356.9150252862077082
  0
ARC
  5
A3DB
  8
0
 10
503.7562899599382717
 20
52.9152752267005368
 30
0.0
 40
2.308506487596298
 50
172.075133323842806
 51
177.366000062949098
  0
ARC
  5
A3DC
  8
0
 10
501.4305432806636986
 20
53.022269772024039
 30
0.0
 40
0.0197
 50
270.0
 51
357.3660000629624847
  0
ENDSEC
  0
EOF
