  0
SECTION
  2
HEADER
  9
$ACADVER
  1
AC1009
  9
$INSBASE
 10
558.9936347920692015
 20
45.9358884779409422
 30
0.0
  9
$EXTMIN
 10
536.4846405708065049
 20
7.665071041511708
 30
-0.0000000349181948
  9
$EXTMAX
 10
558.9962280852765844
 20
84.5593857614696844
 30
0.0000000814935746
  9
$LIMMIN
 10
0.0
 20
0.0
  9
$LIMMAX
 10
11.6929133858000007
 20
8.2677165353999982
  9
$ORTHOMODE
 70
     0
  9
$REGENMODE
 70
     1
  9
$FILLMODE
 70
     1
  9
$QTEXTMODE
 70
     0
  9
$MIRRTEXT
 70
     0
  9
$DRAGMODE
 70
     2
  9
$LTSCALE
 40
0.6431102362
  9
$OSMODE
 70
  4095
  9
$ATTMODE
 70
     1
  9
$TEXTSIZE
 40
0.2
  9
$TRACEWID
 40
0.05
  9
$TEXTSTYLE
  7
STANDARD
  9
$CLAYER
  8
0
  9
$CELTYPE
  6
BYLAYER
  9
$CECOLOR
 62
   256
  9
$DIMSCALE
 40
1.0
  9
$DIMASZ
 40
0.1875
  9
$DIMEXO
 40
0.0625
  9
$DIMDLI
 40
0.4443307087
  9
$DIMRND
 40
0.0
  9
$DIMDLE
 40
0.0
  9
$DIMEXE
 40
0.125
  9
$DIMTP
 40
0.01
  9
$DIMTM
 40
0.01
  9
$DIMTXT
 40
1.0
  9
$DIMCEN
 40
0.1052362205
  9
$DIMTSZ
 40
0.0
  9
$DIMTOL
 70
     1
  9
$DIMLIM
 70
     0
  9
$DIMTIH
 70
     1
  9
$DIMTOH
 70
     1
  9
$DIMSE1
 70
     0
  9
$DIMSE2
 70
     0
  9
$DIMTAD
 70
     0
  9
$DIMZIN
 70
     0
  9
$DIMBLK
  1

  9
$DIMASO
 70
     1
  9
$DIMSHO
 70
     1
  9
$DIMPOST
  1
\X
  9
$DIMAPOST
  1

  9
$DIMALT
 70
     1
  9
$DIMALTD
 70
     2
  9
$DIMALTF
 40
25.3999999999999986
  9
$DIMLFAC
 40
1.0
  9
$DIMTOFL
 70
     0
  9
$DIMTVP
 40
0.0
  9
$DIMTIX
 70
     0
  9
$DIMSOXD
 70
     0
  9
$DIMSAH
 70
     0
  9
$DIMBLK1
  1

  9
$DIMBLK2
  1

  9
$DIMSTYLE
  2
STANDARD
  9
$DIMCLRD
 70
     0
  9
$DIMCLRE
 70
     0
  9
$DIMCLRT
 70
     0
  9
$DIMTFAC
 40
1.0
  9
$DIMGAP
 40
0.09
  9
$LUNITS
 70
     2
  9
$LUPREC
 70
     4
  9
$SKETCHINC
 40
0.1
  9
$FILLETRAD
 40
0.0
  9
$AUNITS
 70
     0
  9
$AUPREC
 70
     0
  9
$MENU
  1
.
  9
$ELEVATION
 40
0.0
  9
$PELEVATION
 40
0.0
  9
$THICKNESS
 40
0.0
  9
$LIMCHECK
 70
     0
  9
$BLIPMODE
 70
     0
  9
$CHAMFERA
 40
0.0
  9
$CHAMFERB
 40
0.0
  9
$SKPOLY
 70
     0
  9
$TDCREATE
 40
2458172.4620254631154239
  9
$TDUPDATE
 40
2460398.6073842588812113
  9
$TDINDWG
 40
0.3481193634
  9
$TDUSRTIMER
 40
0.3481193634
  9
$USRTIMER
 70
     1
  9
$ANGBASE
 50
0.0
  9
$ANGDIR
 70
     0
  9
$PDMODE
 70
     0
  9
$PDSIZE
 40
0.3125
  9
$PLINEWID
 40
0.0
  9
$COORDS
 70
     1
  9
$SPLFRAME
 70
     0
  9
$SPLINETYPE
 70
     6
  9
$SPLINESEGS
 70
     8
  9
$ATTDIA
 70
     1
  9
$ATTREQ
 70
     1
  9
$HANDLING
 70
     1
  9
$HANDSEED
  5
9A6B
  9
$SURFTAB1
 70
     6
  9
$SURFTAB2
 70
     6
  9
$SURFTYPE
 70
     6
  9
$SURFU
 70
     6
  9
$SURFV
 70
     6
  9
$UCSNAME
  2

  9
$UCSORG
 10
0.0
 20
0.0
 30
0.0
  9
$UCSXDIR
 10
1.0
 20
0.0
 30
0.0
  9
$UCSYDIR
 10
0.0
 20
1.0
 30
0.0
  9
$PUCSNAME
  2

  9
$PUCSORG
 10
0.0
 20
0.0
 30
0.0
  9
$PUCSXDIR
 10
1.0
 20
0.0
 30
0.0
  9
$PUCSYDIR
 10
0.0
 20
1.0
 30
0.0
  9
$USERI1
 70
     0
  9
$USERI2
 70
     0
  9
$USERI3
 70
     0
  9
$USERI4
 70
     0
  9
$USERI5
 70
     0
  9
$USERR1
 40
0.0
  9
$USERR2
 40
0.0
  9
$USERR3
 40
0.0
  9
$USERR4
 40
0.0
  9
$USERR5
 40
0.0
  9
$WORLDVIEW
 70
     1
  9
$SHADEDGE
 70
     3
  9
$SHADEDIF
 70
    70
  9
$TILEMODE
 70
     1
  9
$MAXACTVP
 70
    64
  9
$PLIMCHECK
 70
     0
  9
$PEXTMIN
 10
1.0000000000000000E+20
 20
1.0000000000000000E+20
 30
1.0000000000000000E+20
  9
$PEXTMAX
 10
-1.0000000000000000E+20
 20
-1.0000000000000000E+20
 30
-1.0000000000000000E+20
  9
$PLIMMIN
 10
0.0
 20
0.0
  9
$PLIMMAX
 10
12.0
 20
9.0
  9
$UNITMODE
 70
     0
  9
$VISRETAIN
 70
     1
  9
$PLINEGEN
 70
     0
  9
$PSLTSCALE
 70
     1
  0
ENDSEC
  0
SECTION
  2
TABLES
  0
TABLE
  2
VPORT
 70
     1
  0
VPORT
  2
*ACTIVE
 70
     0
 10
0.0
 20
0.0
 11
1.0
 21
1.0
 12
423.1292757279688885
 22
40.7999542311128707
 13
0.0
 23
0.0
 14
1.0
 24
1.0
 15
0.0
 25
0.0
 16
0.0
 26
0.0
 36
30.6214257250603907
 17
124.6111586000725993
 27
5.3122741703778242
 37
0.0
 40
77.5005773852927291
 41
2.498684210526315
 42
50.0
 43
0.0
 44
0.0
 50
0.0
 51
0.0
 71
     0
 72
   100
 73
     1
 74
     1
 75
     0
 76
     0
 77
     0
 78
     0
  0
ENDTAB
  0
TABLE
  2
LTYPE
 70
     2
  0
LTYPE
  2
CONTINUOUS
 70
     0
  3
Solid line
 72
    65
 73
     0
 40
0.0
  0
LTYPE
  2
PHANTOM2
 70
     0
  3
___ _ _ ___ _ _ ___ _ _ ___ _ _
 72
    65
 73
     6
 40
1.25
 49
0.625
 49
-0.125
 49
0.125
 49
-0.125
 49
0.125
 49
-0.125
  0
ENDTAB
  0
TABLE
  2
LAYER
 70
     2
  0
LAYER
  2
0
 70
     0
 62
   255
  6
CONTINUOUS
  0
LAYER
  2
DEFPOINTS
 70
     0
 62
     7
  6
CONTINUOUS
  0
ENDTAB
  0
TABLE
  2
STYLE
 70
     1
  0
STYLE
  2
STANDARD
 70
     0
 40
0.0
 41
0.8
 50
0.0
 71
     0
 42
0.2
  3
txt
  4

  0
ENDTAB
  0
TABLE
  2
VIEW
 70
     0
  0
ENDTAB
  0
TABLE
  2
UCS
 70
     0
  0
ENDTAB
  0
TABLE
  2
APPID
 70
    11
  0
APPID
  2
ACAD
 70
     0
  0
APPID
  2
ACAD_MLEADERVER
 70
     0
  0
APPID
  2
ACAD_EXEMPT_FROM_CAD_STANDARDS
 70
     0
  0
APPID
  2
ACAD_DSTYLE_DIMJAG
 70
     0
  0
APPID
  2
ACAD_DSTYLE_DIMTALN
 70
     0
  0
APPID
  2
ACAD_NAV_VCDISPLAY
 70
     0
  0
APPID
  2
ACAECLAYERSTANDARD
 70
     0
  0
APPID
  2
ACCMTRANSPARENCY
 70
     0
  0
APPID
  2
ACDBATTR
 70
     0
  0
APPID
  2
GRADIENTCOLOR1ACI
 70
     0
  0
APPID
  2
GRADIENTCOLOR2ACI
 70
     0
  0
ENDTAB
  0
TABLE
  2
DIMSTYLE
 70
     1
  0
DIMSTYLE
  2
STANDARD
 70
     0
  3

  4

  5

  6

  7

 40
1.0
 41
0.1875
 42
0.0625
 43
0.38
 44
0.125
 45
0.0
 46
0.0
 47
0.01
 48
0.01
140
0.15625
141
0.09
142
0.0
143
25.3999999999999986
144
1.0
145
0.0
146
1.0
147
0.09
 71
     1
 72
     0
 73
     1
 74
     1
 75
     0
 76
     0
 77
     0
 78
     4
170
     0
171
     2
172
     0
173
     0
174
     0
175
     0
176
     0
177
     0
178
     0
  0
ENDTAB
  0
ENDSEC
  0
SECTION
  2
BLOCKS
  0
BLOCK
  8
0
  2
$MODEL_SPACE
 70
     0
 10
0.0
 20
0.0
 30
0.0
  3
$MODEL_SPACE
  1

  0
ENDBLK
  5
21
  8
0
  0
BLOCK
 67
     1
  8
0
  2
$PAPER_SPACE
 70
     0
 10
0.0
 20
0.0
 30
0.0
  3
$PAPER_SPACE
  1

  0
ENDBLK
  5
1D
 67
     1
  8
0
  0
BLOCK
  8
0
  2
_FILLED
 70
     0
 10
0.0
 20
0.0
 30
0.0
  3
_FILLED
  1

  0
SOLID
  5
572C
  8
0
  6
BYBLOCK
 62
     0
 10
0.0
 20
0.0
 30
0.0
 11
-1.0
 21
0.1666666667
 31
0.0
 12
-1.0
 22
-0.1666666667
 32
0.0
 13
-1.0
 23
-0.1666666667
 33
0.0
  0
ENDBLK
  5
572D
  8
0
  6
BYBLOCK
 62
     0
  0
ENDSEC
  0
SECTION
  2
ENTITIES
  0
ATTDEF
  5
4C62
  8
DEFPOINTS
 10
558.9821009732617085
 20
45.9365789946111676
 30
0.0
 40
0.001
  1
K-EX31847T-9
  3

  2
MODELNUMBER
 70
     0
1001
ACDBATTR
1070
     0
1070
     1
  0
ATTDEF
  5
4C63
  8
DEFPOINTS
 10
558.9821009732617085
 20
45.9349123279445095
 30
0.0
 40
0.001
  1
SPAVIVA
  3

  2
TRADENAME
 70
     0
1001
ACDBATTR
1070
     0
1070
     1
  0
ATTDEF
  5
4C64
  8
DEFPOINTS
 10
558.9821009732617085
 20
45.9332456612778373
 30
0.0
 40
0.001
  1
SHOWER COLUMN
  3

  2
PRODUCT
 70
     0
1001
ACDBATTR
1070
     0
1070
     1
  0
LINE
  5
97F5
  8
0
 10
558.9936347920692015
 20
84.5441690299400932
 30
0.0
 11
558.9936347920692015
 21
83.7567454069409223
 31
0.0
  0
LINE
  5
97F6
  8
0
 10
540.0133331608692515
 20
83.5438351707409197
 30
0.0
 11
540.9660591451693108
 21
83.5438351707409197
 31
0.0
  0
LINE
  5
97F7
  8
0
 10
539.6197659044692045
 20
82.571394225840919
 30
0.0
 11
541.3596264015692441
 21
82.571394225840919
 31
0.0
  0
LINE
  5
97F8
  8
0
 10
536.5058034308319748
 20
79.7939139108409137
 30
0.0
 11
544.4735888752065875
 21
79.7939139108409137
 31
0.0
  0
LINE
  5
97F9
  8
0
 10
556.7108634888927554
 20
66.4457331646887042
 30
0.0
 11
558.3832801903974996
 21
66.4457331646887042
 31
0.0
  0
LINE
  5
97FA
  8
0
 10
556.6954713664259771
 20
65.2646309743409176
 30
0.0
 11
558.3773021971974231
 21
65.2646309743409176
 31
0.0
  0
LINE
  5
97FB
  8
0
 10
555.9225767712073321
 20
65.1347091161409253
 30
0.0
 11
556.6953045336816785
 21
65.1347091161409253
 31
0.0
  0
LINE
  5
97FC
  8
0
 10
539.7928347356692029
 20
84.555969029940087
 30
0.0
 11
556.3046678065693413
 21
84.555969029940087
 31
0.0
  0
LINE
  5
97FD
  8
0
 10
556.328267806569329
 20
84.555969029940087
 30
0.0
 11
558.9818347920693213
 21
84.555969029940087
 31
0.0
  0
ARC
  5
97FE
  8
0
 10
556.328267806569329
 20
84.5441690299400932
 30
0.0
 40
0.0118
 50
90.0
 51
180.0
  0
LINE
  5
97FF
  8
0
 10
540.155019364413306
 20
82.676055854979225
 30
0.0
 11
540.8243729416251426
 21
82.676055854979225
 31
0.0
  0
LINE
  5
9800
  8
0
 10
540.1367262570436196
 20
82.7952391519409332
 30
0.0
 11
540.8426660489949427
 21
82.7952391519409332
 31
0.0
  0
LINE
  5
9801
  8
0
 10
539.7928347356692029
 20
83.7449454069409143
 30
0.0
 11
540.1747355230693302
 21
83.7449454069409143
 31
0.0
  0
LINE
  5
9802
  8
0
 10
540.8046565180056859
 20
83.7449454069409143
 30
0.0
 11
541.1865575703692457
 21
83.7449454069409143
 31
0.0
  0
LINE
  5
9803
  8
0
 10
539.7810347356692091
 20
83.7567454069409223
 30
0.0
 11
539.7810347356692091
 21
84.5441690299400932
 31
0.0
  0
ARC
  5
9804
  8
0
 10
539.7928347356693166
 20
83.7567454069409223
 30
0.0
 40
0.0118
 50
180.0000000000341913
 51
269.9999999999641886
  0
ARC
  5
9805
  8
0
 10
539.7928347356692029
 20
84.5441690299400932
 30
0.0
 40
0.0118
 50
90.0
 51
180.0
  0
LINE
  5
9806
  8
0
 10
540.1806410348691543
 20
83.7495642881714843
 30
0.0
 11
540.1806410348691543
 21
83.5438351707409197
 31
0.0
  0
ARC
  5
9807
  8
0
 10
540.967302774424752
 20
82.7376861906486738
 30
0.0
 40
1.2816918415621501
 50
120.5196282132030063
 51
128.1976254588865061
  0
ARC
  5
9808
  8
0
 10
540.5314001928014704
 20
83.4771225553072753
 30
0.0
 40
0.4233345744259876
 50
103.7190138145512037
 51
120.5196282132030063
  0
ARC
  5
9809
  8
0
 10
540.4903923780245805
 20
83.6451010911352171
 30
0.0
 40
0.2504229514168048
 50
72.7928189673564248
 51
103.7190138145512037
  0
ARC
  5
980A
  8
0
 10
540.41380764869416
 20
83.3978055294690819
 30
0.0
 40
0.5093057735321138
 50
57.9486718828554785
 51
72.7928189673598354
  0
ARC
  5
980B
  8
0
 10
539.9333910282618945
 20
82.630508638574284
 30
0.0
 40
1.4145928263305769
 50
51.9817297872529167
 51
57.9486718828554785
  0
LINE
  5
980C
  8
0
 10
539.9936331608691944
 20
83.4158824148409224
 30
0.0
 11
539.9936331608691944
 21
83.5241351707409194
 31
0.0
  0
LINE
  5
980D
  8
0
 10
540.0349717435691446
 20
83.3745438321409154
 30
0.0
 11
539.9936331608691944
 21
83.4158824148409224
 31
0.0
  0
LINE
  5
980E
  8
0
 10
540.0349717435691446
 20
83.3745438321409154
 30
0.0
 11
540.0349717435691446
 21
82.8760389649553844
 31
0.0
  0
ARC
  5
980F
  8
0
 10
540.0133331608692515
 20
83.5241351707409194
 30
0.0
 40
0.0197
 50
90.0000000000423341
 51
179.9999999999901945
  0
ARC
  5
9810
  8
0
 10
540.2219796175693318
 20
83.0070739196408738
 30
0.0
 40
0.2283464566999559
 50
215.0186282715002903
 51
248.0775735324330071
  0
ARC
  5
9811
  8
0
 10
540.1105622946583935
 20
82.7302277921563984
 30
0.0
 40
0.0700787402050347
 50
309.3745638240791891
 51
68.0775735324329929
  0
ARC
  5
9812
  8
0
 10
540.4896963533777807
 20
82.2682444332920113
 30
0.0
 40
0.5275593261434735
 50
129.3745638240746985
 51
144.922936174231296
  0
LINE
  5
9813
  8
0
 10
539.5803659044693177
 20
82.5319942258409185
 30
0.0
 11
539.5803659044693177
 21
82.4558343111034731
 31
0.0
  0
ARC
  5
9814
  8
0
 10
539.6197659044692045
 20
82.5319942258409469
 30
0.0
 40
0.0394
 50
89.9999999999902229
 51
180.0000000000260059
  0
ARC
  5
9815
  8
0
 10
540.3336038437022353
 20
40.1658125708978488
 30
0.0
 40
42.2680355189996533
 50
89.7884110118560557
 51
91.2509501951463733
  0
ARC
  5
9816
  8
0
 10
539.910758340925895
 20
59.5298232619285983
 30
0.0
 40
22.8994086094437783
 50
91.2509501951463733
 51
93.7163459580009715
  0
ARC
  5
9817
  8
0
 10
538.9192658951734529
 20
74.794452543178636
 30
0.0
 40
7.6026127239003074
 50
93.7163459580009715
 51
98.2495725442644954
  0
ARC
  5
9818
  8
0
 10
538.177272034290695
 20
79.9121639849860514
 30
0.0
 40
2.431391853429397
 50
98.2495725442644954
 51
113.1891907181413046
  0
ARC
  5
9819
  8
0
 10
537.6514144571491443
 20
81.1397211787130175
 30
0.0
 40
1.0959432938404929
 50
113.1891907181413046
 51
145.2707811368680098
  0
ARC
  5
981A
  8
0
 10
537.5442438225419437
 20
81.2140105304566333
 30
0.0
 40
0.9655421715117128
 50
145.2707811368680098
 51
171.0312005566626112
  0
ARC
  5
981B
  8
0
 10
542.1972946903676984
 20
80.4796368421523738
 30
0.0
 40
5.6761883153700712
 50
171.0312005566626112
 51
178.0651128680848103
  0
ARC
  5
981C
  8
0
 10
162.0783566111813911
 20
93.321192793038648
 30
0.0
 40
374.6596010151740188
 50
357.9327269827816167
 51
358.0651128680847819
  0
ARC
  5
981D
  8
0
 10
536.5058034308319748
 20
79.80561391084089
 30
0.0
 40
0.0117
 50
177.9327114945591859
 51
270.0000000000358114
  0
ARC
  5
981E
  8
0
 10
539.620089354818333
 20
82.4589188163773485
 30
0.0
 40
0.0398430254927903
 50
184.4400780726033133
 51
232.2703821717452968
  0
ARC
  5
981F
  8
0
 10
540.1149734525438362
 20
82.5445256352951588
 30
0.0
 40
0.027330353313815
 50
100.5472159657628026
 51
146.98349096493979
  0
ARC
  5
9820
  8
0
 10
540.132836364279683
 20
82.5329180058102736
 30
0.0
 40
0.0486334206503072
 50
146.98349096493979
 51
181.0531280370873048
  0
ARC
  5
9821
  8
0
 10
540.1325232430211827
 20
82.4601678366577744
 30
0.0
 40
0.0483159660621968
 50
179.264290377545791
 51
213.9852398246756024
  0
LINE
  5
9822
  8
0
 10
540.0842112600693099
 20
82.4607882234409146
 30
0.0
 11
540.0842111586691772
 21
82.5320241470409144
 31
0.0
  0
LINE
  5
9823
  8
0
 10
558.9818347920693213
 20
83.7449454069409143
 30
0.0
 11
558.4266946345691167
 21
83.7449454069409143
 31
0.0
  0
LINE
  5
9824
  8
0
 10
558.3913167594681681
 20
83.7449454069409143
 30
0.0
 11
558.1274930597692219
 21
83.7449454069409143
 31
0.0
  0
LINE
  5
9825
  8
0
 10
556.9463906975693135
 20
83.7449454069409143
 30
0.0
 11
556.328267806569329
 21
83.7449454069409143
 31
0.0
  0
ARC
  5
9826
  8
0
 10
556.328267806569329
 20
83.7567454069409223
 30
0.0
 40
0.0118
 50
180.0
 51
270.0
  0
LINE
  5
9827
  8
0
 10
556.3046678065693413
 20
83.7449454069409143
 30
0.0
 11
540.8046567829692322
 21
83.7449454069409143
 31
0.0
  0
LINE
  5
9828
  8
0
 10
540.7987512711691807
 20
83.7495642881714843
 30
0.0
 11
540.7987512711691807
 21
83.5438351707409197
 31
0.0
  0
ARC
  5
9829
  8
0
 10
540.0120895316136966
 20
82.7376861906486738
 30
0.0
 40
1.2816918415621501
 50
51.8023745411135224
 51
59.4803717867970079
  0
ARC
  5
982A
  8
0
 10
540.4479921132369782
 20
83.4771225553072753
 30
0.0
 40
0.4233345744259876
 50
59.4803717867970079
 51
76.2809861854488247
  0
ARC
  5
982B
  8
0
 10
540.4889999280139818
 20
83.6451010911352171
 30
0.0
 40
0.2504229514168048
 50
76.2809861854488247
 51
107.2071810326435042
  0
ARC
  5
982C
  8
0
 10
540.565584657344175
 20
83.3978055294690819
 30
0.0
 40
0.5093057735321138
 50
107.2071810326400936
 51
122.051328117144493
  0
ARC
  5
982D
  8
0
 10
541.0460012777765542
 20
82.630508638574284
 30
0.0
 40
1.4145928263305769
 50
122.051328117144493
 51
128.0182702127470122
  0
LINE
  5
982E
  8
0
 10
540.9857591451692542
 20
83.4158824148409224
 30
0.0
 11
540.9857591451692542
 21
83.5241351707409194
 31
0.0
  0
LINE
  5
982F
  8
0
 10
540.9444205624691904
 20
83.3745438321409154
 30
0.0
 11
540.9857591451692542
 21
83.4158824148409224
 31
0.0
  0
LINE
  5
9830
  8
0
 10
540.9444205624691904
 20
83.3745438321409154
 30
0.0
 11
540.9444205624691904
 21
82.8760389649553844
 31
0.0
  0
ARC
  5
9831
  8
0
 10
540.9660591451693108
 20
83.5241351707409194
 30
0.0
 40
0.0197
 50
0.0000000000097707
 51
89.9999999999576659
  0
ARC
  5
9832
  8
0
 10
540.7574126884692305
 20
83.0070739196408738
 30
0.0
 40
0.2283464566999559
 50
291.9224264675669929
 51
324.9813717284997097
  0
ARC
  5
9833
  8
0
 10
540.8688300113800551
 20
82.7302277921563984
 30
0.0
 40
0.0700787402050347
 50
111.9224264675668934
 51
230.6254361759208109
  0
ARC
  5
9834
  8
0
 10
540.4896959526605542
 20
82.2682444332920113
 30
0.0
 40
0.5275593261434735
 50
35.0770638257686471
 51
50.6254361759252802
  0
LINE
  5
9835
  8
0
 10
541.3990264015692446
 20
82.5319942258409185
 30
0.0
 11
541.3990264015692446
 21
82.4558343111034731
 31
0.0
  0
ARC
  5
9836
  8
0
 10
541.3596264015692441
 20
82.5319942258409469
 30
0.0
 40
0.0394
 50
359.9999999999740226
 51
90.0000000000097771
  0
ARC
  5
9837
  8
0
 10
540.645788462336327
 20
40.1658125708978488
 30
0.0
 40
42.2680355189996533
 50
88.7490498048535841
 51
90.2115889881439585
  0
ARC
  5
9838
  8
0
 10
541.0686339651125536
 20
59.5298232619285983
 30
0.0
 40
22.8994086094437783
 50
86.2836540419957743
 51
88.7490498048535841
  0
ARC
  5
9839
  8
0
 10
542.0601264108649957
 20
74.794452543178636
 30
0.0
 40
7.6026127239003074
 50
81.7504274557355188
 51
86.2836540419957743
  0
ARC
  5
983A
  8
0
 10
542.8021202717477536
 20
79.9121639849860514
 30
0.0
 40
2.431391853429397
 50
66.8108092818587238
 51
81.7504274557355188
  0
ARC
  5
983B
  8
0
 10
543.3279778488893044
 20
81.1397211787130175
 30
0.0
 40
1.0959432938404929
 50
34.7292188631319476
 51
66.8108092818587238
  0
ARC
  5
983C
  8
0
 10
543.4351484834965049
 20
81.2140105304566333
 30
0.0
 40
0.9655421715117128
 50
8.9687994433374136
 51
34.7292188631319476
  0
ARC
  5
983D
  8
0
 10
538.7820976156707502
 20
80.4796368421523738
 30
0.0
 40
5.6761883153700712
 50
1.934887131915213
 51
8.9687994433374136
  0
ARC
  5
983E
  8
0
 10
918.9010356948568869
 20
93.321192793038648
 30
0.0
 40
374.6596010151740188
 50
181.9348871319151897
 51
182.0672730172184117
  0
ARC
  5
983F
  8
0
 10
544.4735888752065875
 20
79.80561391084089
 30
0.0
 40
0.0117
 50
269.9999999999641886
 51
2.0672885054407368
  0
ARC
  5
9840
  8
0
 10
541.3593029512202293
 20
82.4589188163773485
 30
0.0
 40
0.0398430254927903
 50
307.729617828254618
 51
355.5599219273967151
  0
ARC
  5
9841
  8
0
 10
540.8644188534947261
 20
82.5445256352951588
 30
0.0
 40
0.027330353313815
 50
33.0165090350601815
 51
79.4527840342371547
  0
ARC
  5
9842
  8
0
 10
540.8465559417588793
 20
82.5329180058102736
 30
0.0
 40
0.0486334206503072
 50
358.9468719629127236
 51
33.0165090350601815
  0
ARC
  5
9843
  8
0
 10
540.8468690630171523
 20
82.4601678366577744
 30
0.0
 40
0.0483159660621968
 50
326.0147601753243976
 51
0.7357096224542105
  0
LINE
  5
9844
  8
0
 10
540.8951810459693661
 20
82.4607882234409146
 30
0.0
 11
540.8951811473691578
 21
82.5320241470409144
 31
0.0
  0
LINE
  5
9845
  8
0
 10
556.3164678065693352
 20
84.5441690299400932
 30
0.0
 11
556.3164678065693352
 21
83.7567454069409223
 31
0.0
  0
ARC
  5
9846
  8
0
 10
556.3046678065693413
 20
84.5441690299400932
 30
0.0
 40
0.0118
 50
359.9999999999316174
 51
90.0000000000683826
  0
ARC
  5
9847
  8
0
 10
556.3046678065693413
 20
83.7567454069409223
 30
0.0
 40
0.0118
 50
270.0
 51
0.0000000000179129
  0
LINE
  5
9848
  8
0
 10
558.4030836109692473
 20
84.5441690299400932
 30
0.0
 11
558.4030836109692473
 21
83.7567454069409223
 31
0.0
  0
ARC
  5
9849
  8
0
 10
558.3912836109693671
 20
84.5441690299400932
 30
0.0
 40
0.0118
 50
359.9999999999316174
 51
90.0000000000683826
  0
ARC
  5
984A
  8
0
 10
558.3912836109693671
 20
83.7567454069409223
 30
0.0
 40
0.0118
 50
269.9999999999316174
 51
0.0000000000179129
  0
ARC
  5
984B
  8
0
 10
558.9818347920693213
 20
84.5441690299400932
 30
0.0
 40
0.0118
 50
359.9999999999316174
 51
90.0
  0
ARC
  5
984C
  8
0
 10
558.9818347920693213
 20
83.7567454069409223
 30
0.0
 40
0.0118
 50
270.0
 51
359.9999999999820943
  0
LINE
  5
984D
  8
0
 10
558.4148946345692366
 20
84.5559689502796914
 30
0.0
 11
558.4148946345692366
 21
83.7567454069409223
 31
0.0
  0
ARC
  5
984E
  8
0
 10
558.4266946345691167
 20
84.5441690299400932
 30
0.0
 40
0.0118
 50
90.0
 51
180.0000000000341913
  0
ARC
  5
984F
  8
0
 10
558.4266946345691167
 20
83.7567454069408939
 30
0.0
 40
0.0118
 50
179.999999999947903
 51
269.9999999999316174
  0
LINE
  5
9850
  8
0
 10
558.4030836109692473
 20
84.2134492636408964
 30
0.0
 11
558.4148946345692366
 21
84.2134492636408964
 31
0.0
  0
ARC
  5
9851
  8
0
 10
558.4148946345692366
 20
84.1898272204409039
 30
0.0
 40
0.0118110236000035
 50
90.0
 51
180.0000092528887876
  0
LINE
  5
9852
  8
0
 10
556.9463906975693135
 20
84.1504570711409343
 30
0.0
 11
556.9463906975693135
 21
74.8630811306409214
 31
0.0
  0
LINE
  5
9853
  8
0
 10
556.9463906975693135
 20
74.8472811306409085
 30
0.0
 11
556.9463906975693135
 21
66.4457330622667257
 31
0.0
  0
LINE
  5
9854
  8
0
 10
556.9463906975693135
 20
65.2646309743409176
 30
0.0
 11
556.9463906975693135
 21
39.8118999779409179
 31
0.0
  0
LINE
  5
9855
  8
0
 10
556.9463906975693135
 20
39.7980999779409217
 30
0.0
 11
556.9463906975693135
 21
38.0441474527409227
 31
0.0
  0
LINE
  5
9856
  8
0
 10
558.1274930597692219
 20
84.1586980772832192
 30
0.0
 11
558.1274930597692219
 21
78.3984882172409243
 31
0.0
  0
LINE
  5
9857
  8
0
 10
558.1274930597692219
 20
74.8472811306409085
 30
0.0
 11
558.1274930597692219
 21
74.6740787959408578
 31
0.0
  0
LINE
  5
9858
  8
0
 10
558.1274930597692219
 20
74.4063628268156236
 30
0.0
 11
558.1274930597692219
 21
74.0835276148408468
 31
0.0
  0
LINE
  5
9859
  8
0
 10
558.1274930597692219
 20
73.8158116457156552
 30
0.0
 11
558.1274930597692219
 21
66.4457331646887042
 31
0.0
  0
LINE
  5
985A
  8
0
 10
558.1274930597692219
 20
65.2646309743409176
 30
0.0
 11
558.1274930597692219
 21
39.8118999779409179
 31
0.0
  0
LINE
  5
985B
  8
0
 10
558.1274930597692219
 20
39.7980999779409217
 30
0.0
 11
558.1274930597692219
 21
38.0441474527409227
 31
0.0
  0
ARC
  5
985C
  8
0
 10
557.3519025086693546
 20
84.1504570711409343
 30
0.0
 40
0.4055118109999825
 50
114.2475340997132065
 51
180.0000000000032117
  0
ARC
  5
985D
  8
0
 10
557.3436180837396705
 20
84.1688499263511858
 30
0.0
 40
0.3853393342259787
 50
93.0888750157500908
 51
114.2475340997132065
  0
ARC
  5
985E
  8
0
 10
557.4609037645202534
 20
81.9954169132351751
 30
0.0
 40
2.5619346097465909
 50
91.8823338755503727
 51
93.0888750157500908
  0
ARC
  5
985F
  8
0
 10
557.7122631556225087
 20
84.1244118636421945
 30
0.0
 40
0.4319528844344331
 50
52.1330582670687122
 51
92.4529649683206287
  0
ARC
  5
9860
  8
0
 10
557.7448934719789122
 20
84.1663772805419654
 30
0.0
 40
0.3787943125847218
 50
17.4527748327370489
 51
52.1330582670687122
  0
ARC
  5
9861
  8
0
 10
557.6573699641949133
 20
84.1388605155278242
 30
0.0
 40
0.4705414475355343
 50
2.4162494885736381
 51
17.4527748327370489
  0
LINE
  5
9862
  8
0
 10
558.1116699297709829
 20
84.2614198690118883
 30
0.0
 11
558.1152043970693057
 21
84.2651079595015347
 31
0.0
  0
ARC
  5
9863
  8
0
 10
558.1236592016912255
 20
84.2570053300964901
 30
0.0
 40
0.0117105219555387
 50
358.7815070114247078
 51
136.2184926384898063
  0
LINE
  5
9864
  8
0
 10
558.1353670755693201
 20
84.2567563045409145
 30
0.0
 11
558.1353670755693201
 21
84.0441578794409168
 31
0.0
  0
ARC
  5
9865
  8
0
 10
558.1235560519692172
 20
84.0441578794409452
 30
0.0
 40
0.0118110236000312
 50
289.4712203092357186
 51
359.999999999879492
  0
LINE
  5
9866
  8
0
 10
558.9936347920692015
 20
74.8551811306409149
 30
0.0
 11
556.9542906975692631
 21
74.8551811306409149
 31
0.0
  0
ARC
  5
9867
  8
0
 10
556.9542906975692631
 20
74.8630811306409214
 30
0.0
 40
0.0079
 50
180.0
 51
270.0
  0
ARC
  5
9868
  8
0
 10
558.1195930597692723
 20
74.8472811306409085
 30
0.0
 40
0.0079
 50
0.0000000000260551
 51
90.0
  0
LINE
  5
9869
  8
0
 10
558.9936347920692015
 20
74.8551811306409149
 30
0.0
 11
558.9936347920692015
 21
78.3984882343409311
 31
0.0
  0
LINE
  5
986A
  8
0
 10
557.9306426661692058
 20
74.8669811306409088
 30
0.0
 11
557.9306426661692058
 21
78.3866882343408946
 31
0.0
  0
ARC
  5
986B
  8
0
 10
557.9424426661693133
 20
74.8669811306409088
 30
0.0
 40
0.0118
 50
179.999999999947903
 51
269.9999999999316174
  0
LINE
  5
986C
  8
0
 10
557.9424426661691996
 20
78.3984882343409311
 30
0.0
 11
558.9936347920692015
 21
78.3984882343409311
 31
0.0
  0
ARC
  5
986D
  8
0
 10
557.9424426661693133
 20
78.3866882343409372
 30
0.0
 40
0.0118
 50
90.0000000000683826
 51
180.000000000052097
  0
ARC
  5
986E
  8
0
 10
556.9542906975692631
 20
74.8472811306409085
 30
0.0
 40
0.0079
 50
90.0
 51
180.0
  0
ARC
  5
986F
  8
0
 10
558.6411305613445393
 20
74.5402208113782478
 30
0.0
 40
0.5307932206195034
 50
165.3931645939892974
 51
194.6069189612352943
  0
ARC
  5
9870
  8
0
 10
558.1235560519692172
 20
74.4339213151409069
 30
0.0
 40
0.0118110235999994
 50
270.4309282204683882
 51
0.0
  0
LINE
  5
9871
  8
0
 10
558.1353670755693201
 20
74.4339213151409069
 30
0.0
 11
558.1353670755693201
 21
74.6465197402409046
 31
0.0
  0
ARC
  5
9872
  8
0
 10
558.1235560518673537
 20
74.6465197402409046
 30
0.0
 40
0.0118110237019664
 50
359.9999999999772058
 51
89.5696983114946619
  0
ARC
  5
9873
  8
0
 10
558.6411305613445393
 20
73.9496696302782652
 30
0.0
 40
0.5307932206195034
 50
165.3931645939892974
 51
194.6069189612352943
  0
ARC
  5
9874
  8
0
 10
558.1235560519692172
 20
73.8433701340409243
 30
0.0
 40
0.0118110235999994
 50
270.4309282204683882
 51
0.0
  0
LINE
  5
9875
  8
0
 10
558.1353670755693201
 20
73.8433701340409243
 30
0.0
 11
558.1353670755693201
 21
74.055968559140922
 31
0.0
  0
ARC
  5
9876
  8
0
 10
558.1235560518673537
 20
74.055968559140922
 30
0.0
 40
0.0118110237019664
 50
359.9999999999772058
 51
89.5696983114946619
  0
LINE
  5
9877
  8
0
 10
558.3970019271546334
 20
65.2842278258554956
 30
0.0
 11
558.40297992035471
 21
66.4259300162032957
 31
0.0
  0
ARC
  5
9878
  8
0
 10
558.3773021971974231
 20
65.2843309743409463
 30
0.0
 40
0.0197
 50
270.0
 51
359.7000000059200033
  0
ARC
  5
9879
  8
0
 10
558.3832801903974996
 20
66.4260331646887039
 30
0.0
 40
0.0197
 50
359.7000000060226057
 51
90.0000000000423341
  0
LINE
  5
987A
  8
0
 10
556.6560752070200806
 20
65.3045810871099945
 30
0.0
 11
556.6714673294867453
 21
66.4068832774577658
 31
0.0
  0
ARC
  5
987B
  8
0
 10
556.6954713664259771
 20
65.3040309743409182
 30
0.0
 40
0.0394
 50
179.1999958351626105
 51
270.0
  0
ARC
  5
987C
  8
0
 10
556.7108634888927554
 20
66.4063331646887036
 30
0.0
 40
0.0394
 50
90.0
 51
179.1999958351445912
  0
LINE
  5
987D
  8
0
 10
556.7651670797692987
 20
66.427133164688712
 30
0.0
 11
556.7651670797692987
 21
65.2832309743409098
 31
0.0
  0
LINE
  5
987E
  8
0
 10
556.8882024711691656
 20
65.2843309743409179
 30
0.0
 11
556.8882024711691656
 21
66.4260331646887039
 31
0.0
  0
ARC
  5
987F
  8
0
 10
556.7465670797693065
 20
66.4271331646886836
 30
0.0
 40
0.0186
 50
0.000000000043968
 51
90.0
  0
ARC
  5
9880
  8
0
 10
556.7465670797693065
 20
65.2832309743409382
 30
0.0
 40
0.0186
 50
270.0
 51
359.9999999999723173
  0
ARC
  5
9881
  8
0
 10
556.8685024711692222
 20
65.2843309743409179
 30
0.0
 40
0.0197
 50
270.0
 51
0.0000000000309404
  0
ARC
  5
9882
  8
0
 10
556.8685024711692222
 20
66.4260331646887039
 30
0.0
 40
0.0197
 50
359.9999999999690772
 51
90.0000000000423341
  0
LINE
  5
9883
  8
0
 10
556.7603696532601134
 20
66.5520319507409113
 30
0.0
 11
556.7569774223936747
 21
66.4457331646887042
 31
0.0
  0
LINE
  5
9884
  8
0
 10
556.719285822563279
 20
65.2646309743409176
 30
0.0
 11
556.7149945101939466
 21
65.1537807651638161
 31
0.0
  0
LINE
  5
9885
  8
0
 10
555.8534355795590045
 20
66.5520319508329123
 30
0.0
 11
555.8571325489486981
 21
66.4457326256821545
 31
0.0
  0
LINE
  5
9886
  8
0
 10
555.8982099306781492
 20
65.2646306211547937
 30
0.0
 11
555.902888669591448
 21
65.153724532497904
 31
0.0
  0
ARC
  5
9887
  8
0
 10
555.9225767712073321
 20
65.1544091161408829
 30
0.0
 40
0.0197
 50
181.9914544238008034
 51
270.0000000000422915
  0
ARC
  5
9888
  8
0
 10
556.6953045336816785
 20
65.1544091161409256
 30
0.0
 40
0.0197
 50
270.0
 51
358.1721844529412806
  0
LINE
  5
9889
  8
0
 10
555.745664941869336
 20
66.4457326993409083
 30
0.0
 11
555.9033504951692066
 21
66.4457325951409246
 31
0.0
  0
ARC
  5
988A
  8
0
 10
555.9033504691531107
 20
66.4063624899216052
 30
0.0
 40
0.0393701052193262
 50
0.8000378567474811
 51
89.9999621384490922
  0
LINE
  5
988B
  8
0
 10
555.9427167363692206
 20
66.4069122084409287
 30
0.0
 11
555.9581103450633464
 21
65.3045500140121362
 31
0.0
  0
ARC
  5
988C
  8
0
 10
555.9187441199160276
 20
65.304000296080261
 30
0.0
 40
0.0393700631463888
 50
269.9989167421368847
 51
0.8000378567588791
  0
LINE
  5
988D
  8
0
 10
555.9187433755693064
 20
65.2646302329409309
 30
0.0
 11
555.7456649419001451
 21
65.2646335052338458
 31
0.0
  0
ARC
  5
988E
  8
0
 10
555.7456653140412755
 20
65.2843168279608506
 30
0.0
 40
0.0196833227305156
 50
180.0044178997499102
 51
269.9989167421368847
  0
LINE
  5
988F
  8
0
 10
555.7259819913691672
 20
65.2843153102409133
 30
0.0
 11
555.7258939559361579
 21
66.4260475902468386
 31
0.0
  0
ARC
  5
9890
  8
0
 10
555.7455777403736192
 20
66.4260491080023883
 30
0.0
 40
0.0196837844959618
 50
89.7461720833360346
 51
180.0044178997694075
  0
LINE
  5
9891
  8
0
 10
555.8489840727693263
 20
66.4260475554409311
 30
0.0
 11
555.8489838405863566
 21
65.284315285127235
 31
0.0
  0
ARC
  5
9892
  8
0
 10
555.8689126422463005
 20
65.2843152810744982
 30
0.0
 40
0.0199288016600723
 50
179.9999883483382064
 51
261.0292966120996994
  0
ARC
  5
9893
  8
0
 10
555.8684679983659862
 20
66.4264923820133504
 30
0.0
 40
0.0194891178032413
 50
99.166413000698526
 51
181.3079307956517141
  0
LINE
  5
9894
  8
0
 10
556.0157536522692681
 20
65.1347090983910562
 30
0.0
 11
556.0157536522692681
 21
26.9102995622409296
 31
0.0
  0
LINE
  5
9895
  8
0
 10
556.5984308175693513
 20
65.1347090983910562
 30
0.0
 11
556.5984305621692556
 21
26.9102995622409011
 31
0.0
  0
ARC
  5
9896
  8
0
 10
562.5110638335422664
 20
26.9102995227106803
 30
0.0
 40
5.9126332713730534
 50
179.9999996169362078
 51
190.3587186489330918
  0
ARC
  5
9897
  8
0
 10
558.912757281968652
 20
26.2525662280717107
 30
0.0
 40
2.254707202413412
 50
190.3587186489330918
 51
207.2219462450910044
  0
ARC
  5
9898
  8
0
 10
557.710587012349265
 20
25.6341524222539405
 30
0.0
 40
0.90280151325362
 50
207.2219462450896117
 51
227.7079016990581977
  0
ARC
  5
9899
  8
0
 10
557.2643907276890332
 20
25.1436532319016486
 30
0.0
 40
0.2397173706435943
 50
227.7079016990581977
 51
257.2538626503924775
  0
ARC
  5
989A
  8
0
 10
557.2294670081487311
 20
24.9892642472433693
 30
0.0
 40
0.0814276844023311
 50
257.2538626503891237
 51
319.9973453005169972
  0
ARC
  5
989B
  8
0
 10
644.4700269223610576
 20
36.7105145780738198
 30
0.0
 40
87.2243263118421339
 50
180.0627253085716859
 51
183.1026431557004059
  0
ARC
  5
989C
  8
0
 10
-2463.9038795195538114
 20
-131.776814392483999
 30
0.0
 40
3025.7126024216331643
 50
3.0551787966591908
 51
3.102643155700441
  0
ARC
  5
989D
  8
0
 10
489.1130656614240024
 20
25.8361096433859991
 30
0.0
 40
68.4924698733086927
 50
0.6912560676235474
 51
3.0551787966591908
  0
ARC
  5
989E
  8
0
 10
551.502112366880624
 20
26.5888509455230597
 30
0.0
 40
6.098882315903511
 50
347.0235007543735719
 51
0.6912560676235474
  0
ARC
  5
989F
  8
0
 10
556.8583774268902289
 20
25.3552363097881504
 30
0.0
 40
0.6023946883611777
 50
316.0188855097114242
 51
346.9620736649109745
  0
LINE
  5
98A0
  8
0
 10
552.6944221936693111
 20
40.0205364291409396
 30
0.0
 11
556.0157536522692681
 21
40.0205364291409396
 31
0.0
  0
LINE
  5
98A1
  8
0
 10
556.5984306498206706
 20
40.0205364291409396
 30
0.0
 11
556.9463906975693135
 21
40.0205364291409396
 31
0.0
  0
LINE
  5
98A2
  8
0
 10
558.1274930597692219
 20
40.0205364291409396
 30
0.0
 11
558.9936347920692015
 21
40.0205364291409396
 31
0.0
  0
LINE
  5
98A3
  8
0
 10
552.6550521149692941
 20
39.9811663503409065
 30
0.0
 11
556.0157536522692681
 21
39.9811663503409065
 31
0.0
  0
LINE
  5
98A4
  8
0
 10
556.5984306495573719
 20
39.9811663503409065
 30
0.0
 11
556.9463906975693135
 21
39.9811663503409065
 31
0.0
  0
LINE
  5
98A5
  8
0
 10
558.1274930597692219
 20
39.9811663503409065
 30
0.0
 11
558.9936347920692015
 21
39.9811663503409065
 31
0.0
  0
LINE
  5
98A6
  8
0
 10
552.6550521149692941
 20
39.8630561141409174
 30
0.0
 11
554.5523872125912703
 21
39.8630561141409174
 31
0.0
  0
LINE
  5
98A7
  8
0
 10
555.1671658361470918
 20
39.8630561141409174
 30
0.0
 11
556.0157536522692681
 21
39.8630561141409174
 31
0.0
  0
LINE
  5
98A8
  8
0
 10
556.5984306487678168
 20
39.8630561141409174
 30
0.0
 11
556.9463906975693135
 21
39.8630561141409174
 31
0.0
  0
LINE
  5
98A9
  8
0
 10
558.1274930597692219
 20
39.8630561141409174
 30
0.0
 11
558.9936347920692015
 21
39.8630561141409174
 31
0.0
  0
LINE
  5
98AA
  8
0
 10
552.6550521149692941
 20
39.981166350340942
 30
0.0
 11
552.6550521149692941
 21
39.8630561141409174
 31
0.0
  0
LINE
  5
98AB
  8
0
 10
552.6944221936693111
 20
40.0205364291409396
 30
0.0
 11
552.6550521149692941
 21
39.981166350340942
 31
0.0
  0
LINE
  5
98AC
  8
0
 10
552.6944221936693111
 20
39.8630561141409174
 30
0.0
 11
552.7190588909909366
 21
37.949562621636737
 31
0.0
  0
ARC
  5
98AD
  8
0
 10
552.726925880886256
 20
37.9496639110582166
 30
0.0
 40
0.0078676419314086
 50
180.7376564335951059
 51
270.0458043628141809
  0
CIRCLE
  5
98AE
  8
0
 10
554.8597765243692947
 20
38.8866781614409192
 30
0.0
 40
1.0236220471999991
  0
LINE
  5
98AF
  8
0
 10
552.7269321705691709
 20
37.9417962716409178
 30
0.0
 11
554.4660757371692625
 21
37.9417962716409178
 31
0.0
  0
LINE
  5
98B0
  8
0
 10
555.2534773115690996
 20
37.9417962716409178
 30
0.0
 11
556.0157536522692681
 21
37.9417962716409178
 31
0.0
  0
LINE
  5
98B1
  8
0
 10
554.7022962093692513
 20
37.8754991058409232
 30
0.0
 11
554.702296209469182
 21
37.7843159566409028
 31
0.0
  0
ARC
  5
98B2
  8
0
 10
554.7416662882124001
 20
37.7843159566840825
 30
0.0
 40
0.0393700787431612
 50
180.0000000628415933
 51
269.9999999371909212
  0
LINE
  5
98B3
  8
0
 10
554.7416662881690854
 20
37.7449458779409071
 30
0.0
 11
554.9778399145692447
 21
37.7449458776820208
 31
0.0
  0
ARC
  5
98B4
  8
0
 10
554.977839914612332
 20
37.7843003440357776
 30
0.0
 40
0.0393544663537551
 50
269.9999999371942181
 51
0.0227302384773513
  0
LINE
  5
98B5
  8
0
 10
555.0171943778693731
 20
37.7843159566409028
 30
0.0
 11
555.0171583031185492
 21
37.8752490481374195
 31
0.0
  0
ARC
  5
98B6
  8
0
 10
553.0566269180692416
 20
37.9339222559409208
 30
0.0
 40
0.0078740157000006
 50
90.0000000002051763
 51
180.0
  0
LINE
  5
98B7
  8
0
 10
553.0487529023693014
 20
37.9339222559409208
 30
0.0
 11
553.0487529023693014
 21
37.9302963610409094
 31
0.0
  0
ARC
  5
98B8
  8
0
 10
553.0567187549704613
 20
37.9302963610409094
 30
0.0
 40
0.0079658526011315
 50
179.9999999999641034
 51
240.2046458911160016
  0
LINE
  5
98B9
  8
0
 10
553.0527604941702293
 20
37.9233835483643915
 30
0.0
 11
554.683779358310062
 21
37.2310571102328183
 31
0.0
  0
ARC
  5
98BA
  8
0
 10
554.6914709159075301
 20
37.2491772842504005
 30
0.0
 40
0.0196850391084709
 50
246.9999998350226065
 51
269.000000167115104
  0
LINE
  5
98BB
  8
0
 10
554.6911273646617246
 20
37.2294952432677633
 30
0.0
 11
556.0157536523345243
 21
37.2063738092755329
 31
0.0
  0
ARC
  5
98BC
  8
0
 10
555.4243401333035308
 20
37.1968986504281531
 30
0.0
 40
0.019836069446604
 50
31.1029993684647685
 51
85.3260350220144801
  0
ARC
  5
98BD
  8
0
 10
538.5264701732666026
 20
27.0022452751026307
 30
0.0
 40
19.7548041877221401
 50
30.8970006860618298
 51
31.1029993684647685
  0
ARC
  5
98BE
  8
0
 10
555.494742395165872
 20
37.1563403257866227
 30
0.0
 40
0.0196214295949752
 50
210.8970006860432136
 51
269.1030112913645098
  0
LINE
  5
98BF
  8
0
 10
555.4944352262691609
 20
37.1367213006409074
 30
0.0
 11
556.0157536522692681
 21
37.1276216536409081
 31
0.0
  0
LINE
  5
98C0
  8
0
 10
558.9936347920692015
 20
40.0205364291409396
 30
0.0
 11
558.9936347920692015
 21
37.1550566932694366
 31
0.0
  0
LINE
  5
98C1
  8
0
 10
556.9522906975691967
 20
39.8039999779409115
 30
0.0
 11
558.1215930597693387
 21
39.8039999779409115
 31
0.0
  0
ARC
  5
98C2
  8
0
 10
558.1195930597692723
 20
39.8118999779409179
 30
0.0
 40
0.0079
 50
270.0
 51
0.0
  0
ARC
  5
98C3
  8
0
 10
556.9542906975692631
 20
39.8118999779409179
 30
0.0
 40
0.0079
 50
180.0
 51
270.0
  0
ARC
  5
98C4
  8
0
 10
558.1215930597693387
 20
39.7980999779409217
 30
0.0
 40
0.0059
 50
0.0000000000863075
 51
89.9999999998632063
  0
ARC
  5
98C5
  8
0
 10
556.9522906975691967
 20
39.7980999779408791
 30
0.0
 40
0.0059
 50
90.0000000001367937
 51
179.999999999879492
  0
LINE
  5
98C6
  8
0
 10
556.9581906975693073
 20
38.0323474527409005
 30
0.0
 11
558.1156930597692281
 21
38.0323474527409005
 31
0.0
  0
ARC
  5
98C7
  8
0
 10
556.9581906975693073
 20
38.0441474527408872
 30
0.0
 40
0.0118
 50
179.9999999999575948
 51
270.0000000000683826
  0
ARC
  5
98C8
  8
0
 10
558.1156930597693417
 20
38.0441474527408872
 30
0.0
 40
0.0118
 50
269.9999999998631779
 51
0.0000000000602524
  0
LINE
  5
98C9
  8
0
 10
556.5984308175693513
 20
37.9417962716409178
 30
0.0
 11
557.087330111401684
 21
37.9417962716409178
 31
0.0
  0
LINE
  5
98CA
  8
0
 10
557.9865540698931454
 20
37.9417962716409178
 30
0.0
 11
558.9936347920692015
 21
37.9417962716409178
 31
0.0
  0
ARC
  5
98CB
  8
0
 10
558.9494526283324376
 20
37.9614962716409181
 30
0.0
 40
0.0197
 50
270.0
 51
359.2500000006913865
  0
LINE
  5
98CC
  8
0
 10
558.9691509405856777
 20
37.9612384066084019
 30
0.0
 11
558.9936347920692015
 21
39.8315600511409116
 31
0.0
  0
LINE
  5
98CD
  8
0
 10
556.5984308175693513
 20
37.1962031377409232
 30
0.0
 11
557.1135309531077837
 21
37.1872120314402466
 31
0.0
  0
LINE
  5
98CE
  8
0
 10
557.9598398745692975
 20
37.172439654240911
 30
0.0
 11
558.9936347920692015
 21
37.1550566932694366
 31
0.0
  0
LINE
  5
98CF
  8
0
 10
557.0841859731691557
 20
38.0323474527409005
 30
0.0
 11
557.1327387819119394
 21
36.6340265608409013
 31
0.0
  0
ARC
  5
98D0
  8
0
 10
557.1524119655204004
 20
36.6347096574939428
 30
0.0
 40
0.0196850393530249
 50
181.9886378562993059
 51
270.0000004331889158
  0
LINE
  5
98D1
  8
0
 10
557.1524119656692164
 20
36.6150246181409074
 30
0.0
 11
557.9214717917692496
 21
36.6150246239554633
 31
0.0
  0
ARC
  5
98D2
  8
0
 10
557.9214717916204336
 20
36.6347096638257028
 30
0.0
 40
0.0196850398702377
 50
270.0000004331856189
 51
358.0113435961325763
  0
LINE
  5
98D3
  8
0
 10
557.9411449755247077
 20
36.6340265607861895
 30
0.0
 11
557.9896982369277794
 21
38.0323474370200572
 31
0.0
  0
LINE
  5
98D4
  8
0
 10
556.5984308175693513
 20
37.1174509859408985
 30
0.0
 11
556.9463906976692442
 21
37.1113773236094104
 31
0.0
  0
ARC
  5
98D5
  8
0
 10
647.6290773918034347
 20
36.7209231292170202
 30
0.0
 40
89.8005578357749386
 50
180.0675668313635924
 51
183.481978238400103
  0
ARC
  5
98D6
  8
0
 10
420.4191114772621063
 20
22.89589867118897
 30
0.0
 40
137.8296245042479882
 50
1.7660901812897249
 51
3.4819782384001159
  0
ARC
  5
98D7
  8
0
 10
547.5196483807936829
 20
26.8148981332145411
 30
0.0
 40
10.6686830247617195
 50
353.7725346047143944
 51
1.7660901812897249
  0
ARC
  5
98D8
  8
0
 10
555.1844762669032889
 20
25.9785135826936902
 30
0.0
 40
2.9583571146568768
 50
335.3682998749703756
 51
353.7725346047143944
  0
ARC
  5
98D9
  8
0
 10
557.2214113815839482
 20
25.0445683212121217
 30
0.0
 40
0.7175183402550129
 50
286.1392423738644766
 51
335.3682998749703756
  0
ARC
  5
98DA
  8
0
 10
557.2231447644027185
 20
25.0385782766792495
 30
0.0
 40
0.7112825364173427
 50
235.1271362871063104
 51
286.1392423738644766
  0
ARC
  5
98DB
  8
0
 10
557.6155006116141521
 20
25.6015752475730913
 30
0.0
 40
1.3975104140765611
 50
196.3423384674304089
 51
235.1271362871063104
  0
ARC
  5
98DC
  8
0
 10
562.4395194062177552
 20
27.0160864093814084
 30
0.0
 40
6.424636746044956
 50
180.9434640475091953
 51
196.3423299682353047
  0
LINE
  5
98DD
  8
0
  6
CONTINUOUS
 10
552.3402636451208991
 20
39.5896710122255726
 30
0.0
 11
552.3640250483456384
 21
39.6134324154502622
 31
0.0
1001
GRADIENTCOLOR1ACI
1070
     5
1001
GRADIENTCOLOR2ACI
1070
     2
1001
ACAD
1010
0.0
1020
0.0
1030
0.0
  0
LINE
  5
98DE
  8
0
  6
CONTINUOUS
 10
552.3402636451208991
 20
39.5012826645772392
 30
0.0
 11
552.4527013562044431
 21
39.6137203756607406
 31
0.0
1001
GRADIENTCOLOR1ACI
1070
     5
1001
GRADIENTCOLOR2ACI
1070
     2
1001
ACAD
1010
0.0
1020
0.0
1030
0.0
  0
LINE
  5
98DF
  8
0
  6
CONTINUOUS
 10
552.3402636451208991
 20
39.4128943169289414
 30
0.0
 11
552.5413776640632477
 21
39.6140083358712332
 31
0.0
1001
GRADIENTCOLOR1ACI
1070
     5
1001
GRADIENTCOLOR2ACI
1070
     2
1001
ACAD
1010
0.0
1020
0.0
1030
0.0
  0
LINE
  5
98E0
  8
0
  6
CONTINUOUS
 10
552.3402636451208991
 20
39.3245059692806223
 30
0.0
 11
552.5841852448693317
 21
39.5684275690289411
 31
0.0
1001
GRADIENTCOLOR1ACI
1070
     5
1001
GRADIENTCOLOR2ACI
1070
     2
1001
ACAD
1010
0.0
1020
0.0
1030
0.0
  0
LINE
  5
98E1
  8
0
  6
CONTINUOUS
 10
552.3402636451208991
 20
39.2361176216322889
 30
0.0
 11
552.5841852448693317
 21
39.4800392213806219
 31
0.0
1001
GRADIENTCOLOR1ACI
1070
     5
1001
GRADIENTCOLOR2ACI
1070
     2
1001
ACAD
1010
0.0
1020
0.0
1030
0.0
  0
LINE
  5
98E2
  8
0
  6
CONTINUOUS
 10
552.3402636451208991
 20
39.1477292739839768
 30
0.0
 11
552.5841852448693317
 21
39.3916508737322886
 31
0.0
1001
GRADIENTCOLOR1ACI
1070
     5
1001
GRADIENTCOLOR2ACI
1070
     2
1001
ACAD
1010
0.0
1020
0.0
1030
0.0
  0
LINE
  5
98E3
  8
0
  6
CONTINUOUS
 10
552.3402636451208991
 20
39.0593409263356577
 30
0.0
 11
552.5841852448693317
 21
39.3032625260839907
 31
0.0
1001
GRADIENTCOLOR1ACI
1070
     5
1001
GRADIENTCOLOR2ACI
1070
     2
1001
ACAD
1010
0.0
1020
0.0
1030
0.0
  0
LINE
  5
98E4
  8
0
  6
CONTINUOUS
 10
552.3402636451208991
 20
38.9709525786873385
 30
0.0
 11
552.5841852448693317
 21
39.2148741784356716
 31
0.0
1001
GRADIENTCOLOR1ACI
1070
     5
1001
GRADIENTCOLOR2ACI
1070
     2
1001
ACAD
1010
0.0
1020
0.0
1030
0.0
  0
LINE
  5
98E5
  8
0
  6
CONTINUOUS
 10
552.3402636451208991
 20
38.8825642310390194
 30
0.0
 11
552.5841852448693317
 21
39.1264858307873524
 31
0.0
1001
GRADIENTCOLOR1ACI
1070
     5
1001
GRADIENTCOLOR2ACI
1070
     2
1001
ACAD
1010
0.0
1020
0.0
1030
0.0
  0
LINE
  5
98E6
  8
0
  6
CONTINUOUS
 10
552.3402636451208991
 20
38.7941758833907002
 30
0.0
 11
552.5841852448693317
 21
39.0380974831390404
 31
0.0
1001
GRADIENTCOLOR1ACI
1070
     5
1001
GRADIENTCOLOR2ACI
1070
     2
1001
ACAD
1010
0.0
1020
0.0
1030
0.0
  0
LINE
  5
98E7
  8
0
  6
CONTINUOUS
 10
552.3402636451208991
 20
38.7057875357423811
 30
0.0
 11
552.5841852448693317
 21
38.9497091354907212
 31
0.0
1001
GRADIENTCOLOR1ACI
1070
     5
1001
GRADIENTCOLOR2ACI
1070
     2
1001
ACAD
1010
0.0
1020
0.0
1030
0.0
  0
LINE
  5
98E8
  8
0
  6
CONTINUOUS
 10
552.3402636451208991
 20
38.6173991880940619
 30
0.0
 11
552.5841852448693317
 21
38.8613207878423879
 31
0.0
1001
GRADIENTCOLOR1ACI
1070
     5
1001
GRADIENTCOLOR2ACI
1070
     2
1001
ACAD
1010
0.0
1020
0.0
1030
0.0
  0
LINE
  5
98E9
  8
0
  6
CONTINUOUS
 10
552.3402636451208991
 20
38.5290108404457428
 30
0.0
 11
552.5841852448693317
 21
38.7729324401940829
 31
0.0
1001
GRADIENTCOLOR1ACI
1070
     5
1001
GRADIENTCOLOR2ACI
1070
     2
1001
ACAD
1010
0.0
1020
0.0
1030
0.0
  0
LINE
  5
98EA
  8
0
  6
CONTINUOUS
 10
552.3402636451208991
 20
38.4406224927974378
 30
0.0
 11
552.5841852448693317
 21
38.6845440925457567
 31
0.0
1001
GRADIENTCOLOR1ACI
1070
     5
1001
GRADIENTCOLOR2ACI
1070
     2
1001
ACAD
1010
0.0
1020
0.0
1030
0.0
  0
LINE
  5
98EB
  8
0
  6
CONTINUOUS
 10
552.3402636451208991
 20
38.3522341451490973
 30
0.0
 11
552.5841852448693317
 21
38.5961557448974375
 31
0.0
1001
GRADIENTCOLOR1ACI
1070
     5
1001
GRADIENTCOLOR2ACI
1070
     2
1001
ACAD
1010
0.0
1020
0.0
1030
0.0
  0
LINE
  5
98EC
  8
0
  6
CONTINUOUS
 10
552.3402636451208991
 20
38.2638457975007995
 30
0.0
 11
552.5841852448693317
 21
38.5077673972491183
 31
0.0
1001
GRADIENTCOLOR1ACI
1070
     5
1001
GRADIENTCOLOR2ACI
1070
     2
1001
ACAD
1010
0.0
1020
0.0
1030
0.0
  0
LINE
  5
98ED
  8
0
  6
CONTINUOUS
 10
552.3402636451208991
 20
38.1754574498524732
 30
0.0
 11
552.5841852448693317
 21
38.4193790496007992
 31
0.0
1001
GRADIENTCOLOR1ACI
1070
     5
1001
GRADIENTCOLOR2ACI
1070
     2
1001
ACAD
1010
0.0
1020
0.0
1030
0.0
  0
LINE
  5
98EE
  8
0
  6
CONTINUOUS
 10
552.4128350708508606
 20
38.1596405279341511
 30
0.0
 11
552.5841852448693317
 21
38.33099070195248
 31
0.0
1001
GRADIENTCOLOR1ACI
1070
     5
1001
GRADIENTCOLOR2ACI
1070
     2
1001
ACAD
1010
0.0
1020
0.0
1030
0.0
  0
LINE
  5
98EF
  8
0
  6
CONTINUOUS
 10
552.5009143631814368
 20
38.1593314726163229
 30
0.0
 11
552.5841852448693317
 21
38.2426023543041609
 31
0.0
1001
GRADIENTCOLOR1ACI
1070
     5
1001
GRADIENTCOLOR2ACI
1070
     2
1001
ACAD
1010
0.0
1020
0.0
1030
0.0
  0
LINE
  5
98F0
  8
0
  6
CONTINUOUS
 10
552.401810493816356
 20
38.1596792113075978
 30
0.0
 11
552.3402636451208991
 21
38.2212260600029978
 31
0.0
1001
GRADIENTCOLOR1ACI
1070
     5
1001
GRADIENTCOLOR2ACI
1070
     2
1001
ACAD
1010
0.0
1020
0.0
1030
0.0
  0
LINE
  5
98F1
  8
0
  6
CONTINUOUS
 10
552.4905100732648862
 20
38.1593679795073513
 30
0.0
 11
552.3402636451208991
 21
38.3096144076513312
 31
0.0
1001
GRADIENTCOLOR1ACI
1070
     5
1001
GRADIENTCOLOR2ACI
1070
     2
1001
ACAD
1010
0.0
1020
0.0
1030
0.0
  0
LINE
  5
98F2
  8
0
  6
CONTINUOUS
 10
552.5792096527133026
 20
38.1590567477070906
 30
0.0
 11
552.3402636451208991
 21
38.398002755299629
 31
0.0
1001
GRADIENTCOLOR1ACI
1070
     5
1001
GRADIENTCOLOR2ACI
1070
     2
1001
ACAD
1010
0.0
1020
0.0
1030
0.0
  0
LINE
  5
98F3
  8
0
  6
CONTINUOUS
 10
552.5841852448693317
 20
38.2424695031996364
 30
0.0
 11
552.3402636451208991
 21
38.4863911029479695
 31
0.0
1001
GRADIENTCOLOR1ACI
1070
     5
1001
GRADIENTCOLOR2ACI
1070
     2
1001
ACAD
1010
0.0
1020
0.0
1030
0.0
  0
LINE
  5
98F4
  8
0
  6
CONTINUOUS
 10
552.5841852448693317
 20
38.3308578508479627
 30
0.0
 11
552.3402636451208991
 21
38.5747794505962815
 31
0.0
1001
GRADIENTCOLOR1ACI
1070
     5
1001
GRADIENTCOLOR2ACI
1070
     2
1001
ACAD
1010
0.0
1020
0.0
1030
0.0
  0
LINE
  5
98F5
  8
0
  6
CONTINUOUS
 10
552.5841852448693317
 20
38.4192461984962605
 30
0.0
 11
552.3402636451208991
 21
38.6631677982446007
 31
0.0
1001
GRADIENTCOLOR1ACI
1070
     5
1001
GRADIENTCOLOR2ACI
1070
     2
1001
ACAD
1010
0.0
1020
0.0
1030
0.0
  0
LINE
  5
98F6
  8
0
  6
CONTINUOUS
 10
552.5841852448693317
 20
38.507634546144601
 30
0.0
 11
552.3402636451208991
 21
38.7515561458929128
 31
0.0
1001
GRADIENTCOLOR1ACI
1070
     5
1001
GRADIENTCOLOR2ACI
1070
     2
1001
ACAD
1010
0.0
1020
0.0
1030
0.0
  0
LINE
  5
98F7
  8
0
  6
CONTINUOUS
 10
552.5841852448693317
 20
38.5960228937928989
 30
0.0
 11
552.3402636451208991
 21
38.8399444935412319
 31
0.0
1001
GRADIENTCOLOR1ACI
1070
     5
1001
GRADIENTCOLOR2ACI
1070
     2
1001
ACAD
1010
0.0
1020
0.0
1030
0.0
  0
LINE
  5
98F8
  8
0
  6
CONTINUOUS
 10
552.5841852448693317
 20
38.6844112414412322
 30
0.0
 11
552.3402636451208991
 21
38.9283328411895511
 31
0.0
1001
GRADIENTCOLOR1ACI
1070
     5
1001
GRADIENTCOLOR2ACI
1070
     2
1001
ACAD
1010
0.0
1020
0.0
1030
0.0
  0
LINE
  5
98F9
  8
0
  6
CONTINUOUS
 10
552.5841852448693317
 20
38.7727995890895372
 30
0.0
 11
552.3402636451208991
 21
39.0167211888378702
 31
0.0
1001
GRADIENTCOLOR1ACI
1070
     5
1001
GRADIENTCOLOR2ACI
1070
     2
1001
ACAD
1010
0.0
1020
0.0
1030
0.0
  0
LINE
  5
98FA
  8
0
  6
CONTINUOUS
 10
552.5841852448693317
 20
38.8611879367378634
 30
0.0
 11
552.3402636451208991
 21
39.1051095364861894
 31
0.0
1001
GRADIENTCOLOR1ACI
1070
     5
1001
GRADIENTCOLOR2ACI
1070
     2
1001
ACAD
1010
0.0
1020
0.0
1030
0.0
  0
LINE
  5
98FB
  8
0
  6
CONTINUOUS
 10
552.5841852448693317
 20
38.9495762843861826
 30
0.0
 11
552.3402636451208991
 21
39.1934978841345085
 31
0.0
1001
GRADIENTCOLOR1ACI
1070
     5
1001
GRADIENTCOLOR2ACI
1070
     2
1001
ACAD
1010
0.0
1020
0.0
1030
0.0
  0
LINE
  5
98FC
  8
0
  6
CONTINUOUS
 10
552.5841852448693317
 20
39.0379646320345017
 30
0.0
 11
552.3402636451207854
 21
39.2818862317828277
 31
0.0
1001
GRADIENTCOLOR1ACI
1070
     5
1001
GRADIENTCOLOR2ACI
1070
     2
1001
ACAD
1010
0.0
1020
0.0
1030
0.0
  0
LINE
  5
98FD
  8
0
  6
CONTINUOUS
 10
552.5841852448693317
 20
39.1263529796828067
 30
0.0
 11
552.3402636451207854
 21
39.3702745794311468
 31
0.0
1001
GRADIENTCOLOR1ACI
1070
     5
1001
GRADIENTCOLOR2ACI
1070
     2
1001
ACAD
1010
0.0
1020
0.0
1030
0.0
  0
LINE
  5
98FE
  8
0
  6
CONTINUOUS
 10
552.5841852448693317
 20
39.2147413273311329
 30
0.0
 11
552.3402636451207854
 21
39.4586629270794731
 31
0.0
1001
GRADIENTCOLOR1ACI
1070
     5
1001
GRADIENTCOLOR2ACI
1070
     2
1001
ACAD
1010
0.0
1020
0.0
1030
0.0
  0
LINE
  5
98FF
  8
0
  6
CONTINUOUS
 10
552.5841852448693317
 20
39.3031296749794521
 30
0.0
 11
552.3402636451207854
 21
39.5470512747277922
 31
0.0
1001
GRADIENTCOLOR1ACI
1070
     5
1001
GRADIENTCOLOR2ACI
1070
     2
1001
ACAD
1010
0.0
1020
0.0
1030
0.0
  0
LINE
  5
9900
  8
0
  6
CONTINUOUS
 10
552.5841852448693317
 20
39.3915180226277712
 30
0.0
 11
552.3622765300425499
 21
39.6134267374545104
 31
0.0
1001
GRADIENTCOLOR1ACI
1070
     5
1001
GRADIENTCOLOR2ACI
1070
     2
1001
ACAD
1010
0.0
1020
0.0
1030
0.0
  0
LINE
  5
9901
  8
0
  6
CONTINUOUS
 10
552.5841852448693317
 20
39.4799063702760904
 30
0.0
 11
552.45037878162384
 21
39.6137128335214683
 31
0.0
1001
GRADIENTCOLOR1ACI
1070
     5
1001
GRADIENTCOLOR2ACI
1070
     2
1001
ACAD
1010
0.0
1020
0.0
1030
0.0
  0
LINE
  5
9902
  8
0
  6
CONTINUOUS
 10
552.5841852448693317
 20
39.5682947179244096
 30
0.0
 11
552.5384810332052439
 21
39.6139989295883979
 31
0.0
1001
GRADIENTCOLOR1ACI
1070
     5
1001
GRADIENTCOLOR2ACI
1070
     2
1001
ACAD
1010
0.0
1020
0.0
1030
0.0
  0
LINE
  5
9903
  8
0
 10
552.6972634749664621
 20
39.614514546740871
 30
0.0
 11
552.1904846277692513
 21
39.6128688744409132
 31
0.0
  0
LINE
  5
9904
  8
0
 10
552.1904846277692513
 20
39.6128688744409132
 30
0.0
 11
552.1826111700693218
 21
39.6047005689409204
 31
0.0
  0
LINE
  5
9905
  8
0
 10
552.1826111700693218
 20
39.6047005689409204
 30
0.0
 11
552.1826111700693218
 21
38.16863530594091
 31
0.0
  0
LINE
  5
9906
  8
0
 10
552.1826111700693218
 20
38.16863530594091
 30
0.0
 11
552.1904844182691932
 21
38.1604207187120466
 31
0.0
  0
LINE
  5
9907
  8
0
 10
552.1904844182691932
 20
38.1604207187120466
 30
0.0
 11
552.7163227593041483
 21
38.1585756410404429
 31
0.0
  0
LINE
  5
9908
  8
0
 10
552.3402636451208991
 20
39.6133552546071925
 30
0.0
 11
552.3402636451208991
 21
38.1598951687747885
 31
0.0
  0
LINE
  5
9909
  8
0
 10
552.5841852448693317
 20
39.6141473457181235
 30
0.0
 11
552.5841852448693317
 21
38.1590392891969827
 31
0.0
  0
LINE
  5
990A
  8
0
 10
554.7062332263692497
 20
43.7923783466409233
 30
0.0
 11
554.7062332263692497
 21
45.9967260076409019
 31
0.0
  0
ARC
  5
990B
  8
0
 10
554.7259332263693068
 20
43.7923783466408878
 30
0.0
 40
0.0197
 50
179.9999999999641034
 51
270.0000000000422915
  0
ARC
  5
990C
  8
0
 10
554.72593428018547
 20
45.9967255711358902
 30
0.0
 40
0.0197010538211973
 50
89.5464786875223382
 51
179.9987305300803939
  0
LINE
  5
990D
  8
0
 10
554.7260902211462508
 20
46.0164260077828189
 30
0.0
 11
555.3291084316691695
 21
46.0111534551577321
 31
0.0
  0
ARC
  5
990E
  8
0
 10
554.8604447543518745
 20
-7.5895883729422797
 30
0.0
 40
53.6027906938161891
 50
89.1605758600887555
 51
89.4990411411946667
  0
ARC
  5
990F
  8
0
 10
555.6252827619483696
 20
44.611500862422659
 30
0.0
 40
1.3960986463746059
 50
81.6203215427369457
 51
89.1605758600887555
  0
ARC
  5
9910
  8
0
 10
555.7279912651786162
 20
45.3087526238755629
 30
0.0
 40
0.6913227561195019
 50
65.3955419550041057
 51
81.6203215427369457
  0
LINE
  5
9911
  8
0
 10
554.7260902211462508
 20
43.7726783464989779
 30
0.0
 11
555.3291084316691695
 21
43.7779508991240931
 31
0.0
  0
ARC
  5
9912
  8
0
 10
554.8604447543518745
 20
97.3786927272241343
 30
0.0
 40
53.6027906938161891
 50
270.5009588588052907
 51
270.8394241399112161
  0
ARC
  5
9913
  8
0
 10
555.6252827619483696
 20
45.1776034918591307
 30
0.0
 40
1.3960986463746059
 50
270.8394241399112161
 51
278.3796784572630827
  0
ARC
  5
9914
  8
0
 10
555.7279912651786162
 20
44.4803517304062765
 30
0.0
 40
0.6913227561195019
 50
278.3796784572630827
 51
294.6044580449960222
  0
LINE
  5
9915
  8
0
 10
556.5984308175693513
 20
45.430624794640913
 30
0.0
 11
556.6501205955692058
 21
45.4158562866028817
 31
0.0
  0
ARC
  5
9916
  8
0
 10
556.6393050756568073
 20
45.3780019670066324
 30
0.0
 40
0.0393690866426189
 50
359.9953417673061153
 51
74.0546040601088862
  0
LINE
  5
9917
  8
0
 10
556.678674162169159
 20
45.377998766240907
 30
0.0
 11
556.678595552305751
 21
44.4111055912364634
 31
0.0
  0
ARC
  5
9918
  8
0
 10
556.6391879799301705
 20
44.4111087951311205
 30
0.0
 40
0.0394075725058212
 50
286.1065349546057064
 51
359.9953417673061153
  0
LINE
  5
9919
  8
0
 10
556.6501205955692058
 20
44.3732480676409224
 30
0.0
 11
556.5984724183597336
 21
44.3583342055118734
 31
0.0
  0
ARC
  5
991A
  8
0
 10
556.4503276962250311
 20
44.8945521668338401
 30
0.0
 40
0.3543466101388288
 50
41.8080174559767386
 51
49.8605008436740889
  0
ARC
  5
991B
  8
0
 10
556.4503277054703858
 20
44.8945521771396869
 30
0.0
 40
0.3543465962982444
 50
310.1394989509715856
 51
318.1919831816117039
  0
LINE
  5
991C
  8
0
 10
556.7144515376692198
 20
45.1307726496414077
 30
0.0
 11
556.7144515392267294
 21
44.6583317064981529
 31
0.0
  0
LINE
  5
991D
  8
0
 10
556.9463906975693135
 20
45.229197846440897
 30
0.0
 11
556.8479655007693054
 21
45.229197846440897
 31
0.0
  0
ARC
  5
991E
  8
0
 10
556.8479655007693054
 20
45.2095128070409018
 30
0.0
 40
0.0196850394000023
 50
90.0
 51
179.9999999999901945
  0
LINE
  5
991F
  8
0
 10
556.8282804613693315
 20
45.2095128070409018
 30
0.0
 11
556.8282804613691042
 21
44.5795915472409021
 31
0.0
  0
ARC
  5
9920
  8
0
 10
556.8479655007690781
 20
44.5795915472409021
 30
0.0
 40
0.0196850394000023
 50
179.9999999999722888
 51
270.0000000003321929
  0
LINE
  5
9921
  8
0
 10
556.8479655007693054
 20
44.5599065078408998
 30
0.0
 11
556.9463906975693135
 21
44.5599065078414682
 31
0.0
  0
LINE
  5
9922
  8
0
 10
556.7144515376692198
 20
45.0914025708409199
 30
0.0
 11
556.8282804613693315
 21
45.0914025708408914
 31
0.0
  0
LINE
  5
9923
  8
0
 10
556.7144515390967854
 20
44.6977017834409125
 30
0.0
 11
556.8282804613691042
 21
44.6977017834409125
 31
0.0
  0
LINE
  5
9925
  8
0
 10
554.6826108383693281
 20
7.681827553106209
 30
0.0
 11
554.6826108383693281
 21
15.0713407224407607
 31
0.0
  0
LINE
  5
9926
  8
0
 10
554.7416659564690917
 20
7.6825471290618657
 30
0.0
 11
554.7416659564690917
 21
15.0706209583681403
 31
0.0
  0
LINE
  5
9927
  8
0
 10
554.6988249093031982
 20
15.0871352957259592
 30
0.0
 11
554.7262800274030496
 21
15.0864155316533797
 31
0.0
  0
LINE
  5
9928
  8
0
 10
554.6988248011562064
 20
7.6660329769861937
 30
0.0
 11
554.7262799192561715
 21
7.6667525529418512
 31
0.0
  0
ARC
  5
9929
  8
0
 10
554.6984108383692273
 20
7.681827553106209
 30
0.0
 40
0.0158
 50
180.0000000000260059
 51
271.5013313278547002
  0
ARC
  5
992A
  8
0
 10
554.7258659564691925
 20
7.6825471290618657
 30
0.0
 40
0.0158
 50
271.501331327802518
 51
0.0
  0
ARC
  5
992B
  8
0
 10
554.6984108383692273
 20
15.0713407224407607
 30
0.0
 40
0.0158
 50
88.4982763626691451
 51
179.9999999999870113
  0
ARC
  5
992C
  8
0
 10
554.7258659564691925
 20
15.0706209583681403
 30
0.0
 40
0.0158
 50
0.0000000000130276
 51
88.4982763627212847
  0
ARC
  5
992D
  8
0
 10
554.430298677750784
 20
0.2535877637605139
 30
0.0
 40
14.8355976903917899
 50
87.7870352105199885
 51
88.7203867665377572
  0
ARC
  5
992E
  8
0
 10
554.7611659564693127
 20
15.0659905943314705
 30
0.0
 40
0.0195
 50
88.7203867665214858
 51
180.0
  0
ARC
  5
992F
  8
0
 10
554.9585170027211234
 20
13.9228652642344102
 30
0.0
 40
1.156118095619334
 50
76.8405644895893829
 51
87.7870352105199885
  0
ARC
  5
9930
  8
0
 10
555.1077901438856088
 20
14.5613274337030898
 30
0.0
 40
0.5004379811460017
 50
42.2547876622443823
 51
76.8405644895893829
  0
ARC
  5
9931
  8
0
 10
555.1178075211677196
 20
14.5704281063861103
 30
0.0
 40
0.4869039466072795
 50
14.7652156096419507
 51
42.2547876622443823
  0
LINE
  5
9932
  8
0
 10
555.6656665467691028
 20
14.2041406392333105
 30
0.0
 11
555.6656665467691028
 21
12.2669435560456108
 31
0.0
  0
LINE
  5
9933
  8
0
 10
555.6656665467691028
 20
10.4809299315394497
 30
0.0
 11
555.6656665467691028
 21
8.5726357660212713
 31
0.0
  0
ARC
  5
9934
  8
0
 10
553.674235217942055
 20
14.1425476399131398
 30
0.0
 40
1.9923836063870319
 50
1.7715369905898859
 51
16.0836889536903911
  0
ARC
  5
9935
  8
0
 10
554.6483956741574275
 20
14.6059596242896994
 30
0.0
 40
6.9391990900232861
 50
270.9337902112420124
 51
273.4334851067802106
  0
ARC
  5
9936
  8
0
 10
554.7611659564693127
 20
7.687179503495507
 30
0.0
 40
0.0195
 50
180.0
 51
270.9337902112420124
  0
ARC
  5
9937
  8
0
 10
555.0158283248573525
 20
8.4818224169474874
 30
0.0
 40
0.8040492721986408
 50
273.4334851067802106
 51
290.4721222514028796
  0
ARC
  5
9938
  8
0
 10
555.1416310613417409
 20
8.1448479785254264
 30
0.0
 40
0.4443575977651276
 50
290.4721222514028796
 51
327.8697154648384071
  0
ARC
  5
9939
  8
0
 10
554.873393377901948
 20
8.3133107980700274
 30
0.0
 40
0.7611085668024195
 50
327.8697154648384071
 51
353.1186927498089858
  0
ARC
  5
993A
  8
0
 10
544.6448159184426459
 20
9.5477188686680208
 30
0.0
 40
11.0639023689182903
 50
353.1186927498089858
 51
354.9438523512516213
  0
LINE
  5
993B
  8
0
 10
556.4542643816691907
 20
12.0288041456409101
 30
0.0
 11
556.4542643816691907
 21
10.7768356416477697
 31
0.0
  0
LINE
  5
993C
  8
0
 10
556.6117446965693034
 20
11.9898186914847908
 30
0.0
 11
556.6117446965693034
 21
10.8232613658551493
 31
0.0
  0
ARC
  5
993D
  8
0
 10
556.2180439091712287
 20
11.4028198936430503
 30
0.0
 40
0.3543307086971114
 50
41.8103148957594186
 51
48.1588883405117514
  0
LINE
  5
993E
  8
0
 10
556.6117446965693034
 20
11.6390403660409394
 30
0.0
 11
556.4821464262693098
 21
11.6390403660409394
 31
0.0
  0
LINE
  5
993F
  8
0
 10
555.8035065899728124
 20
12.1106754015842402
 30
0.0
 11
556.4542643816691907
 21
12.0288041456409101
 31
0.0
  0
ARC
  5
9940
  8
0
 10
555.8231665467692437
 20
12.2669435560456108
 30
0.0
 40
0.1575
 50
180.0
 51
262.8293430568461986
  0
LINE
  5
9941
  8
0
 10
555.7902555400718256
 20
10.6349530325281201
 30
0.0
 11
556.454264381169196
 21
10.7768356415409308
 31
0.0
  0
ARC
  5
9942
  8
0
 10
555.8231665467692437
 20
10.4809299315394497
 30
0.0
 40
0.1575
 50
102.0613406503698997
 51
180.0
  0
ARC
  5
9943
  8
0
 10
559.4304523137614069
 20
11.3739367437925303
 30
0.0
 40
3.8692470893026392
 50
166.6560589580319061
 51
193.3439410419680087
  0
LINE
  5
9944
  8
0
 10
556.9463906976692442
 20
12.4579552496006407
 30
0.0
 11
556.9463906976692442
 21
12.3431527330397106
 31
0.0
  0
LINE
  5
9945
  8
0
 10
556.9463906976692442
 20
12.4772552496006508
 30
0.0
 11
556.9463906976692442
 21
24.3833454683135891
 31
0.0
  0
LINE
  5
9946
  8
0
 10
556.9463906976692442
 20
25.1534710673395487
 30
0.0
 11
556.9463906976692442
 21
37.1901294691496673
 31
0.0
  0
LINE
  5
9947
  8
0
 10
556.9542906976693075
 20
12.4693552496006408
 30
0.0
 11
558.119593059869203
 21
12.4693552496006408
 31
0.0
  0
ARC
  5
9948
  8
0
 10
556.9542906976693075
 20
12.4772552496006206
 30
0.0
 40
0.0079
 50
179.9999999999739089
 51
270.0
  0
ARC
  5
9949
  8
0
 10
556.9577906976692248
 20
12.4579552496006407
 30
0.0
 40
0.0114
 50
90.0000000000716369
 51
179.9999999999641034
  0
ARC
  5
994A
  8
0
 10
556.6514167545415148
 20
12.3057549671349804
 30
0.0
 40
0.2969732423669191
 50
266.3647712521863014
 51
292.0086408560790119
  0
ARC
  5
994B
  8
0
 10
556.6637048463810515
 20
12.2753540735345297
 30
0.0
 40
0.2641828240597259
 50
292.0086408560790119
 51
329.8877853121545058
  0
ARC
  5
994C
  8
0
 10
556.5450953962215408
 20
12.3441433538395593
 30
0.0
 40
0.4012965241483812
 50
329.8877853121554722
 51
0.1414376780490326
  0
ARC
  5
994D
  8
0
 10
556.6313446965698404
 20
11.9898186914845102
 30
0.0
 40
0.0196
 50
86.3647712541019672
 51
179.9999999992101891
  0
LINE
  5
994E
  8
0
 10
556.6353728730182411
 20
10.8039569769814694
 30
0.0
 11
556.7259718153693484
 21
10.8223926101409393
 31
0.0
  0
ARC
  5
994F
  8
0
 10
556.9767039065383187
 20
10.25435269140279
 30
0.0
 40
0.6209153974753915
 50
91.2034601723924965
 51
113.8166017542481967
  0
ARC
  5
9950
  8
0
 10
556.4844648023492937
 20
13.01772860894018
 30
0.0
 40
2.1955306504465582
 50
282.606898375392575
 51
298.8737138722951272
  0
ARC
  5
9951
  8
0
 10
556.9278911378132761
 20
12.2135914526318103
 30
0.0
 40
1.2772368624142081
 50
298.8737138722951272
 51
319.4088611702666185
  0
ARC
  5
9952
  8
0
 10
557.23974040894268
 20
11.9463879498149694
 30
0.0
 40
0.8665695033248029
 50
319.4088611702666185
 51
354.4001471869290754
  0
ARC
  5
9953
  8
0
 10
554.1131114246325069
 20
12.3297663106699193
 30
0.0
 40
4.016414992398885
 50
353.3094738884241792
 51
1.831414166928558
  0
ARC
  5
9954
  8
0
 10
558.1158807103712434
 20
12.4577552496006003
 30
0.0
 40
0.0116
 50
1.831414167173012
 51
89.999999999859952
  0
ARC
  5
9955
  8
0
 10
556.6314446965692468
 20
10.8232613658551493
 30
0.0
 40
0.0197
 50
180.0000000000212026
 51
281.5018643276113153
  0
LINE
  5
9956
  8
0
 10
558.1274930598691526
 20
12.4772552496006508
 30
0.0
 11
558.1274930598691526
 21
12.8079335551146603
 31
0.0
  0
LINE
  5
9957
  8
0
 10
558.1274930598691526
 20
13.0756589822671696
 30
0.0
 11
558.1274930598691526
 21
13.4732887301409097
 31
0.0
  0
LINE
  5
9958
  8
0
 10
558.1274930598691526
 20
17.0165958166409403
 30
0.0
 11
558.1274930598691526
 21
25.6771684871884212
 31
0.0
  0
LINE
  5
9959
  8
0
 10
558.1274930598691526
 20
28.6757804070963616
 30
0.0
 11
558.1274930598691526
 21
37.1695132507030976
 31
0.0
  0
ARC
  5
995A
  8
0
 10
558.119593059869203
 20
12.4772552496006508
 30
0.0
 40
0.0079
 50
270.0
 51
359.9999999999478746
  0
LINE
  5
995B
  8
0
 10
557.9503445850692742
 20
17.0165958166409403
 30
0.0
 11
558.9936347920692015
 21
17.0165958166409403
 31
0.0
  0
LINE
  5
995C
  8
0
 10
557.9503445850692742
 20
13.4732887301409097
 30
0.0
 11
558.9936347920692015
 21
13.4732887301409097
 31
0.0
  0
LINE
  5
995D
  8
0
 10
557.9306445850693308
 20
13.4929887301409099
 30
0.0
 11
557.9306445850693308
 21
16.9968958166409401
 31
0.0
  0
ARC
  5
995E
  8
0
 10
557.9503445850692742
 20
13.4929887301409099
 30
0.0
 40
0.0197
 50
179.9999999999901945
 51
270.0000000000422915
  0
ARC
  5
995F
  8
0
 10
557.9503445850692742
 20
16.9968958166409401
 30
0.0
 40
0.0197
 50
89.9999999999576659
 51
180.000000000052097
  0
LINE
  5
9960
  8
0
 10
558.9936347920692015
 20
17.0165958166409403
 30
0.0
 11
558.9936347920692015
 21
13.4732887301409097
 31
0.0
  0
ARC
  5
9961
  8
0
 10
558.6411579211077196
 20
12.9417962686909096
 30
0.0
 40
0.5308208885839918
 50
165.3934153905958908
 51
194.6065846094057008
  0
ARC
  5
9962
  8
0
 10
558.1274919197495592
 20
13.0480954833202905
 30
0.0
 40
0.0118110244632757
 50
359.9796688961674249
 51
109.8340718015767976
  0
ARC
  5
9963
  8
0
 10
558.127491919769227
 20
12.8354970590409199
 30
0.0
 40
0.0118110236000014
 50
250.1659190655738882
 51
0.0000009701911076
  0
LINE
  5
9964
  8
0
 10
558.13930294336933
 20
12.8354970592409199
 30
0.0
 11
558.1393029434693744
 21
13.0480912922409207
 31
0.0
  0
ARC
  5
9965
  8
0
 10
557.8833472527112463
 20
36.8635389166710397
 30
0.0
 40
0.1011334418461294
 50
16.7849445290508292
 51
47.4769633666771327
  0
ARC
  5
9966
  8
0
 10
557.8041196758763363
 20
36.8396414152695186
 30
0.0
 40
0.1838866865218269
 50
341.7031912568402845
 51
16.7849445290508292
  0
ARC
  5
9967
  8
0
 10
557.8895385091550452
 20
36.8113971150221317
 30
0.0
 40
0.0939193725953562
 50
305.9398783230860772
 51
341.7031912568402845
  0
ARC
  5
9968
  8
0
 10
557.9130146422505732
 20
36.8872941900731135
 30
0.0
 40
0.0899800729348722
 50
35.0035575878643002
 51
63.7903234913026225
  0
ARC
  5
9969
  8
0
 10
557.8707782483458004
 20
36.8577160401781825
 30
0.0
 40
0.141543431255323
 50
8.1866425655159158
 51
35.0035575878643002
  0
ARC
  5
996A
  8
0
 10
557.8022327769996309
 20
36.8399311059508534
 30
0.0
 40
0.2120680073014049
 50
339.9797012829301934
 51
10.3061050206764495
  0
ARC
  5
996B
  8
0
 10
557.9115271155638993
 20
36.7963862963546831
 30
0.0
 40
0.0945351483741242
 50
310.6920963557893174
 51
342.0991637380860766
  0
ARC
  5
996C
  8
0
 10
557.9071069559339549
 20
36.8015266401369274
 30
0.0
 40
0.1013145985991719
 50
291.1607390281030803
 51
310.6920963557893174
  0
LINE
  5
996D
  8
0
 10
553.9659608530236028
 20
52.6071506327409111
 30
0.0
 11
556.0157536522692681
 21
52.6071506327409111
 31
0.0
  0
LINE
  5
996E
  8
0
 10
556.5984307339713268
 20
52.6071506327409111
 30
0.0
 11
556.9463906975693135
 21
52.6071506327409111
 31
0.0
  0
LINE
  5
996F
  8
0
 10
553.9627310315776185
 20
53.0008515167409229
 30
0.0
 11
556.0157536522692681
 21
53.0008515167409229
 31
0.0
  0
LINE
  5
9970
  8
0
 10
556.5984307366035182
 20
53.0008515167409229
 30
0.0
 11
556.9463906975693135
 21
53.0008515167409229
 31
0.0
  0
LINE
  5
9971
  8
0
 10
554.0871340522752462
 20
53.0874656869409165
 30
0.0
 11
556.0157536522692681
 21
53.0874656869409165
 31
0.0
  0
LINE
  5
9972
  8
0
 10
556.5984307371826389
 20
53.0874656869409165
 30
0.0
 11
556.7347784502921968
 21
53.0874656869409165
 31
0.0
  0
LINE
  5
9973
  8
0
 10
556.5984307297599116
 20
51.9772292042655266
 30
0.0
 11
556.9463906975693135
 21
51.9772292042655266
 31
0.0
  0
LINE
  5
9974
  8
0
 10
558.1274928503693218
 20
51.9772292042655266
 30
0.0
 11
558.3125422534534437
 21
51.9772292042655266
 31
0.0
  0
LINE
  5
9975
  8
0
 10
553.9509314808854015
 20
52.9889485436232377
 30
0.0
 11
553.9541613023312721
 21
52.618847659623242
 31
0.0
  0
LINE
  5
9976
  8
0
 10
554.0432326081150904
 20
53.0431713362472408
 30
0.0
 11
554.0436019319072329
 21
53.0008510270780491
 31
0.0
  0
LINE
  5
9977
  8
0
 10
554.0466509310210768
 20
53.0515806335246083
 30
0.0
 11
554.0787528244891291
 21
53.0839720110857201
 31
0.0
  0
ARC
  5
9978
  8
0
 10
554.0550321588069664
 20
53.0432743093798393
 30
0.0
 40
0.0118
 50
135.2571757504503012
 51
180.5000000666121025
  0
ARC
  5
9979
  8
0
 10
554.0871340522752462
 20
53.0756656869409298
 30
0.0
 40
0.0118
 50
89.9999999999316032
 51
135.2571757504630057
  0
ARC
  5
997A
  8
0
 10
553.9627310315776185
 20
52.989051516740922
 30
0.0
 40
0.0118
 50
90.0000000000683826
 51
180.4999999941288991
  0
ARC
  5
997B
  8
0
 10
553.9659608530236028
 20
52.618950632740912
 30
0.0
 40
0.0118
 50
180.4999999940866076
 51
270.0
  0
LINE
  5
997C
  8
0
 10
556.8677516745052571
 20
52.6188476596208972
 30
0.0
 11
556.8709814960246831
 21
52.9889485436209071
 31
0.0
  0
ARC
  5
997D
  8
0
 10
556.8559521238132675
 20
52.618950632740912
 30
0.0
 40
0.0118
 50
269.9999999999316174
 51
359.4999999945447939
  0
ARC
  5
997E
  8
0
 10
556.8591819453326934
 20
52.9890515167409077
 30
0.0
 40
0.0118
 50
359.4999999945447939
 51
90.0000000000683826
  0
LINE
  5
997F
  8
0
 10
556.7786804349616432
 20
53.0431789036627066
 30
0.0
 11
556.7783110455234237
 21
53.0008510605405903
 31
0.0
  0
LINE
  5
9980
  8
0
 10
556.7431586377363146
 20
53.083973060677728
 30
0.0
 11
556.7752610717133166
 21
53.0515892505037314
 31
0.0
  0
ARC
  5
9981
  8
0
 10
556.7347784502921968
 20
53.0756656869409369
 30
0.0
 40
0.0118
 50
44.7499999195606293
 51
90.0000000001367937
  0
ARC
  5
9982
  8
0
 10
556.7668808842693124
 20
53.0432818767669119
 30
0.0
 40
0.0118
 50
359.5000000712971087
 51
44.7499999193670277
  0
ARC
  5
9983
  8
0
 10
556.596917798726281
 20
52.3307409122025788
 30
0.0
 40
0.2428135089142037
 50
75.6174272806534447
 51
89.6430948964738405
  0
ARC
  5
9984
  8
0
 10
556.5281538881019969
 20
52.0625845788723325
 30
0.0
 40
0.5196461199076968
 50
61.5753331539524922
 51
75.6174272806534447
  0
ARC
  5
9985
  8
0
 10
556.6408643060399299
 20
52.2708238068192586
 30
0.0
 40
0.2828609549000886
 50
45.5016219091590415
 51
61.5753331539492521
  0
ARC
  5
9986
  8
0
 10
556.7794060926200927
 20
52.4118129362160587
 30
0.0
 40
0.0851951732459604
 50
22.1433687184426091
 51
45.5016219091601783
  0
ARC
  5
9987
  8
0
 10
556.8120549019929513
 20
52.4250990392747696
 30
0.0
 40
0.0499465521673062
 50
321.2419901707169174
 51
22.1433687184410992
  0
ARC
  5
9988
  8
0
 10
556.7169733475054727
 20
52.5014319113041026
 30
0.0
 40
0.1718777186342383
 50
301.7017542332461062
 51
321.2419901707173153
  0
ARC
  5
9989
  8
0
 10
556.7088225568356847
 20
52.5146282623301701
 30
0.0
 40
0.1873883301291393
 50
279.4373393669359871
 51
301.7017542332426956
  0
ARC
  5
998A
  8
0
 10
556.7056364091223486
 20
52.5337966862510797
 30
0.0
 40
0.2068197483188354
 50
256.2353062517419175
 51
279.437339366939284
  0
ARC
  5
998B
  8
0
 10
556.697672818400747
 20
52.5012882895812467
 30
0.0
 40
0.1733501407437987
 50
235.0756419208485113
 51
256.2353062517419175
  0
ARC
  5
998C
  8
0
 10
556.6732507483460495
 20
52.3594102711291995
 30
0.0
 40
0.1900315297787327
 50
35.423083400778502
 51
57.4455310996601582
  0
ARC
  5
998D
  8
0
 10
556.7687341095039528
 20
52.4273246771523205
 30
0.0
 40
0.0728588418198406
 50
339.989413119187418
 51
35.4230834007791628
  0
ARC
  5
998E
  8
0
 10
556.7732449110031894
 20
52.4256819357072175
 30
0.0
 40
0.0680582241908209
 50
316.2045389000929276
 51
339.9894131191866222
  0
ARC
  5
998F
  8
0
 10
556.7120251251183163
 20
52.4843802906781605
 30
0.0
 40
0.1528718967919344
 50
297.1471941021836756
 51
316.2045389000941213
  0
ARC
  5
9990
  8
0
 10
556.7224711802423371
 20
52.4640083049066632
 30
0.0
 40
0.1299778392238645
 50
270.9447641637578954
 51
297.1471941021904968
  0
ARC
  5
9991
  8
0
 10
556.7217988456985722
 20
52.5047787340539003
 30
0.0
 40
0.1707538116413175
 50
239.6249068151952031
 51
270.9447641637610786
  0
ARC
  5
9992
  8
0
 10
556.7136851769439545
 20
52.4909355364596806
 30
0.0
 40
0.1547080726338779
 50
221.8426052954978047
 51
239.624906815195601
  0
LINE
  5
9993
  8
0
 10
558.3125422534534437
 20
53.0008512184409426
 30
0.0
 11
558.1274928503693218
 21
53.0008512184409426
 31
0.0
  0
LINE
  5
9994
  8
0
 10
558.3243422534535512
 20
52.9890512184409417
 30
0.0
 11
558.3243422534535512
 21
51.9890292042655275
 31
0.0
  0
ARC
  5
9995
  8
0
 10
558.312542253453671
 20
52.9890512184409417
 30
0.0
 40
0.0118
 50
359.9999999999740226
 51
90.0000000000683826
  0
ARC
  5
9996
  8
0
 10
558.312542253453671
 20
51.9890292042655133
 30
0.0
 40
0.0118
 50
269.9999999999316174
 51
0.0000000000903786
  0
LINE
  5
9997
  8
0
 10
555.7480363064692028
 20
70.9732918184409129
 30
0.0
 11
556.8661481634693473
 21
70.9732918184409129
 31
0.0
  0
LINE
  5
9998
  8
0
 10
555.7480363064692028
 20
70.9654178038409214
 30
0.0
 11
556.8661481634693473
 21
70.9654178038409214
 31
0.0
  0
LINE
  5
9999
  8
0
 10
555.8143553232972636
 20
66.5520319507409113
 30
0.0
 11
556.7994836504411751
 21
66.5520319507409113
 31
0.0
  0
LINE
  5
999A
  8
0
 10
555.7362402505693808
 20
67.181953210640927
 30
0.0
 11
555.7362402505693808
 21
70.1141417473572517
 31
0.0
  0
LINE
  5
999B
  8
0
 10
555.7362402505693808
 20
70.7067004777924524
 30
0.0
 11
555.7362402505693808
 21
70.953922869742911
 31
0.0
  0
LINE
  5
999C
  8
0
 10
555.7362402505693808
 20
70.984786752538696
 30
0.0
 11
555.7362402505693808
 21
71.1160595967494231
 31
0.0
  0
LINE
  5
999D
  8
0
 10
556.8779481634693411
 20
70.9536178038409133
 30
0.0
 11
556.8779481634693411
 21
67.181953210640927
 31
0.0
  0
LINE
  5
999E
  8
0
 10
556.8779481634693411
 20
70.9850918184409068
 30
0.0
 11
556.8779481634693411
 21
71.22776862709037
 31
0.0
  0
ARC
  5
999F
  8
0
 10
558.9550512112175511
 20
67.3065796063176833
 30
0.0
 40
3.2212227086758949
 50
182.2172788810736961
 51
188.23708147084659
  0
ARC
  5
99A0
  8
0
 10
552.7201338244126418
 20
66.4039949086376851
 30
0.0
 40
3.078686334855584
 50
3.1103390311328249
 51
8.2370814708466025
  0
ARC
  5
99A1
  8
0
 10
555.8143553232972636
 20
66.5721319507410101
 30
0.0
 40
0.0201
 50
183.1103390314181922
 51
269.999999999876195
  0
LINE
  5
99A2
  8
0
 10
554.1200140850254456
 20
75.390218477424753
 30
0.0
 11
554.700658962285047
 21
72.8751691969491731
 31
0.0
  0
LINE
  5
99A3
  8
0
 10
554.1266897349991041
 20
75.4031716268173682
 30
0.0
 11
554.712016107069303
 21
72.8671827983409344
 31
0.0
  0
ARC
  5
99A4
  8
0
 10
549.5878598980365268
 20
76.5396710246451448
 30
0.0
 40
4.6789536405231766
 50
345.9424686452624087
 51
354.3891911241249773
  0
ARC
  5
99A5
  8
0
 10
549.626140681563129
 20
76.5359102697509854
 30
0.0
 40
4.6404885698124927
 50
354.3891911241249773
 51
1.1322642635096749
  0
ARC
  5
99A6
  8
0
 10
554.277339092156808
 20
76.6278380076890926
 30
0.0
 40
0.0116181963433352
 50
130.699287972073904
 51
181.1322642635014972
  0
LINE
  5
99A7
  8
0
 10
554.1258673898470306
 20
75.3996773130471922
 30
0.0
 11
554.1274107306356882
 21
75.4000478364557694
 31
0.0
  0
ARC
  5
99A8
  8
0
 10
554.127711608537652
 20
75.391995590751975
 30
0.0
 40
0.0079
 50
103.5000023591817069
 51
192.9999999844285128
  0
LINE
  5
99A9
  8
0
 10
554.265668232796088
 20
76.6543803842757825
 30
0.0
 11
555.3857886004203692
 21
71.8032165766650792
 31
0.0
  0
ARC
  5
99AA
  8
0
 10
554.3668926543457474
 20
76.6552443283143816
 30
0.0
 40
0.1012281083363755
 50
144.4939723008999124
 51
180.4890039823094128
  0
ARC
  5
99AB
  8
0
 10
554.3361449301498851
 20
76.6771813477652699
 30
0.0
 40
0.063457016670788
 50
100.5143026922683021
 51
144.4939723009055967
  0
ARC
  5
99AC
  8
0
 10
554.8780171626972333
 20
74.2847184278413124
 30
0.0
 40
2.5164696364329631
 50
97.1050939659206449
 51
102.7050327664882019
  0
ARC
  5
99AD
  8
0
 10
554.7369514636552594
 20
75.6470375969034876
 30
0.0
 40
1.1475179444963051
 50
72.9740529192509513
 51
98.5293694062890921
  0
ARC
  5
99AE
  8
0
 10
554.76709718439281
 20
75.791207696962374
 30
0.0
 40
1.000929240764957
 50
45.9298938086094282
 51
72.207598285398447
  0
ARC
  5
99AF
  8
0
 10
553.8415595228658503
 20
74.8351292730078939
 30
0.0
 40
2.331607983233011
 50
33.2573432511861569
 51
45.9298938086094282
  0
LINE
  5
99B0
  8
0
 10
556.3726811436166599
 20
73.6309248191360552
 30
0.0
 11
555.7923733034693896
 21
76.1112513926266558
 31
0.0
  0
ARC
  5
99B1
  8
0
 10
570.5532044910856939
 20
78.3697874296151156
 30
0.0
 40
14.9513899437178708
 50
198.4786527868031101
 51
199.0942584951664003
  0
ARC
  5
99B2
  8
0
 10
557.8095779060140558
 20
73.9583411623355005
 30
0.0
 40
1.4658096184652889
 50
199.0942584951664003
 51
209.18555955357931
  0
ARC
  5
99B3
  8
0
 10
557.5916257556435767
 20
73.786051989357361
 30
0.0
 40
1.192329643925113
 50
207.0642710804345086
 51
221.001243190884793
  0
ARC
  5
99B4
  8
0
 10
555.7846810332931682
 20
76.1094516761137925
 30
0.0
 40
0.0079
 50
13.1683019438217901
 51
33.2573432518726833
  0
ARC
  5
99B5
  8
0
 10
555.7959288246795495
 20
76.0916995796482638
 30
0.0
 40
0.0078743797546857
 50
32.053642803400912
 51
95.9302270690987342
  0
ARC
  5
99B6
  8
0
 10
553.4829995346419764
 20
74.6434081934297069
 30
0.0
 40
2.7368283625305381
 50
28.1417955716207686
 51
32.053642803400912
  0
ARC
  5
99B7
  8
0
 10
552.87278676414644
 20
74.3170126542669323
 30
0.0
 40
3.4288498024161211
 50
22.8101781645084607
 51
28.1417955716207686
  0
ARC
  5
99B8
  8
0
 10
-102.0557259054295969
 20
-76.737824278952175
 30
0.0
 40
675.5015378407617845
 50
12.9214696715350694
 51
13.0373778709558508
  0
ARC
  5
99B9
  8
0
 10
560.1455140198486333
 20
75.0747962047407498
 30
0.0
 40
3.8802854395202382
 50
191.2966023872830021
 51
203.7943392079816078
  0
ARC
  5
99BA
  8
0
 10
539.8327637063354132
 20
69.9888812240921538
 30
0.0
 40
17.1279764555984606
 50
10.2030009601650296
 51
11.8608061619487497
  0
ARC
  5
99BB
  8
0
 10
556.682280810751422
 20
73.0213991982608661
 30
0.0
 40
0.0077436712692989
 50
276.2732907085854208
 51
10.9295320674781191
  0
ARC
  5
99BC
  8
0
 10
556.6862906268929692
 20
72.9981475127810455
 30
0.0
 40
0.0078749946980271
 50
10.0796814911579808
 51
45.8068473183700817
  0
ARC
  5
99BD
  8
0
 10
544.6103624234832523
 20
70.8515151016713531
 30
0.0
 40
12.2731133813880504
 50
3.38075984793148
 51
10.0796814911579808
  0
ARC
  5
99BE
  8
0
 10
543.9807751760050678
 20
70.8143228869642201
 30
0.0
 40
12.9037982179124899
 50
1.8361067479804201
 51
3.38075984793148
  0
ARC
  5
99BF
  8
0
 10
556.8661481634693473
 20
70.9850918184409068
 30
0.0
 40
0.0118
 50
270.0
 51
0.0000000000863075
  0
ARC
  5
99C0
  8
0
 10
556.8661481634693473
 20
70.9536178038409133
 30
0.0
 40
0.0118
 50
359.9999999999308216
 51
90.0
  0
LINE
  5
99C1
  8
0
 10
556.840546563969383
 20
70.9732918184409129
 30
0.0
 11
556.8461143590193387
 21
70.9677240232909128
 31
0.0
  0
ARC
  5
99C2
  8
0
 10
556.8516970917331719
 20
70.9733067559046731
 30
0.0
 40
0.0078951762483978
 50
224.9999994854049987
 51
267.7295945701987989
  0
LINE
  5
99C3
  8
0
 10
554.7099323843874572
 20
72.8696993756529992
 30
0.0
 11
554.7113621038673728
 21
72.8700163368471578
 31
0.0
  0
ARC
  5
99C4
  8
0
 10
554.7082281354691986
 20
72.8773867457409636
 30
0.0
 40
0.0078740157000606
 50
256.9770510328530122
 51
282.4999998507266241
  0
ARC
  5
99C5
  8
0
 10
554.7082281354691986
 20
72.8773867457408926
 30
0.0
 40
0.0078740156999724
 50
216.8208708010097041
 51
256.9770510328262958
  0
ARC
  5
99C6
  8
0
 10
554.7084009837178655
 20
72.8775161509774989
 30
0.0
 40
0.0080899375199433
 50
196.8644103478303009
 51
216.82087080099339
  0
ARC
  5
99C7
  8
0
 10
550.4338761955913242
 20
69.3172293087482529
 30
0.0
 40
5.5591951648104851
 50
35.6076953371335776
 51
39.685514653710662
  0
ARC
  5
99C8
  8
0
 10
551.557828245212022
 20
70.1221282959469647
 30
0.0
 40
4.1767586963099648
 50
26.7127541364881083
 51
35.6076953371335776
  0
ARC
  5
99C9
  8
0
 10
543.481300331948205
 20
66.0578050609595664
 30
0.0
 40
13.2182755210573006
 50
25.8796917609009185
 51
26.7127541364881083
  0
ARC
  5
99CA
  8
0
 10
555.3848972292604458
 20
71.8326680670336941
 30
0.0
 40
0.012168985180183
 50
205.8796917609329
 51
254.7644314597829975
  0
ARC
  5
99CB
  8
0
 10
555.4568498748376442
 20
71.8453180295380776
 30
0.0
 40
0.0825968344175686
 50
210.645337653144793
 51
249.8797646351603134
  0
ARC
  5
99CC
  8
0
 10
555.627640860981387
 20
72.3115160908581061
 30
0.0
 40
0.5790947632415731
 50
249.8797646351603134
 51
254.8311381764054886
  0
ARC
  5
99CD
  8
0
 10
555.4262691912169885
 20
71.5687500387834916
 30
0.0
 40
0.190484314890219
 50
52.7566812939806269
 51
74.831138176402078
  0
ARC
  5
99CE
  8
0
 10
555.3624965530779036
 20
71.484864461816386
 30
0.0
 40
0.2958585973235536
 50
30.057478727811521
 51
52.7566812939834691
  0
ARC
  5
99CF
  8
0
 10
555.0533942268452847
 20
71.3184101449331536
 30
0.0
 40
0.6468549401572226
 50
15.4911656018532096
 51
29.1052853463587411
  0
ARC
  5
99D0
  8
0
 10
553.9363049470936176
 20
71.0087993521149343
 30
0.0
 40
1.8060560883475261
 50
8.6984773295592728
 51
15.4911656018532096
  0
ARC
  5
99D1
  8
0
 10
554.4288935449286555
 20
71.0841626023881048
 30
0.0
 40
1.3077357634470581
 50
1.3976404599859329
 51
8.6984773295592728
  0
ARC
  5
99D2
  8
0
 10
555.7480363064692028
 20
70.9850918184409068
 30
0.0
 40
0.0118
 50
179.9999999999137117
 51
270.0
  0
ARC
  5
99D3
  8
0
 10
555.7480363064692028
 20
70.9536178038409133
 30
0.0
 40
0.0118
 50
90.0
 51
180.0000000000692069
  0
LINE
  5
99D4
  8
0
 10
555.7736379059692808
 20
70.9732918184409129
 30
0.0
 11
555.7680701109193251
 21
70.9677240232909128
 31
0.0
  0
ARC
  5
99D5
  8
0
 10
555.7624873782051509
 20
70.9733067559046731
 30
0.0
 40
0.0078951762483978
 50
272.2704054298012011
 51
315.0000005145975024
  0
ARC
  5
99D6
  8
0
 10
555.0682784587286278
 20
70.3431231427221917
 30
0.0
 40
0.7605007783926327
 50
9.378976548400745
 51
28.5598319123780904
  0
ARC
  5
99D7
  8
0
 10
555.2328179916257795
 20
70.417714475542283
 30
0.0
 40
0.5878693495135924
 50
328.9092629572905935
 51
4.8147922725229924
  0
LINE
  5
99D8
  8
0
 10
555.7471088156030419
 20
70.6859799357446548
 30
0.0
 11
555.6965176756692699
 21
70.6850704721409215
 31
0.0
  0
ARC
  5
99D9
  8
0
 10
555.696872103786859
 20
70.6653725218055229
 30
0.0
 40
0.0197011387159872
 50
91.0308201539578192
 51
179.941988209784995
  0
LINE
  5
99DA
  8
0
 10
555.677170975169247
 20
70.6653924691409259
 30
0.0
 11
555.677170975169247
 21
70.1532551760950582
 31
0.0
  0
LINE
  5
99DB
  8
0
 10
555.7480370468382489
 20
70.1346249186111379
 30
0.0
 11
555.6965135085691827
 21
70.1355252924409029
 31
0.0
  0
ARC
  5
99DC
  8
0
 10
555.696859395108504
 20
70.1553185136002924
 30
0.0
 40
0.0197962431123232
 50
185.9827328856796953
 51
268.9988581544715771
  0
ARC
  5
99DD
  8
0
 10
555.061208669589746
 20
70.4116837586055908
 30
0.0
 40
0.691634345020947
 50
336.4745859354695767
 51
23.283211989667759
  0
ARC
  5
99DE
  8
0
 10
553.5279416255151546
 20
67.3220248892873769
 30
0.0
 40
3.35293362288825
 50
351.8220492465781035
 51
357.60572288663991
  0
ARC
  5
99DF
  8
0
 10
559.8937051493260242
 20
66.4039949086376851
 30
0.0
 40
3.078686334855584
 50
171.76291852915341
 51
176.8896609688671049
  0
ARC
  5
99E0
  8
0
 10
556.7994836504411751
 20
66.5721319507410101
 30
0.0
 40
0.0201
 50
270.000000000120508
 51
356.8896609685817225
  0
ARC
  5
99E1
  8
0
 10
556.2180439091712287
 20
11.4011824599741107
 30
0.0
 40
0.3543307086971114
 50
311.8411116594883765
 51
318.1896851042405956
  0
LINE
  5
99E2
  8
0
 10
556.6117446965693034
 20
11.1649619875762198
 30
0.0
 11
556.4821464262693098
 21
11.1649619875762198
 31
0.0
  0
LINE
  5
99E3
  8
0
 10
556.4821452861691569
 20
11.6390403660409198
 30
0.0
 11
556.4821464262254267
 21
11.1649619875094608
 31
0.0
  0
LINE
  5
99E4
  8
0
 10
552.1904840897692566
 20
39.6129355843409314
 30
0.0
 11
552.1904858649686503
 21
38.1604207136358369
 31
0.0
  0
LINE
  5
99E5
  8
0
 10
554.0432321588069726
 20
53.0432743093798393
 30
0.0
 11
556.0157536522692681
 21
53.0432743093798393
 31
0.0
  0
LINE
  5
99E6
  8
0
 10
556.5984307367790507
 20
53.0432743093798393
 30
0.0
 11
556.7786808818427744
 21
53.0432743093798393
 31
0.0
  0
ENDSEC
  0
EOF
