  0
SECTION
  2
HEADER
  9
$ACADVER
  1
AC1009
  9
$INSBASE
 10
6697.415171790414206
 20
124.8214428456126939
 30
0.0
  9
$EXTMIN
 10
6682.5322240762006913
 20
124.8077062506118011
 30
-0.0000000349181948
  9
$EXTMAX
 10
6712.356825300365017
 20
147.4623126238155066
 30
0.0000000814935746
  9
$LIMMIN
 10
0.0
 20
0.0
  9
$LIMMAX
 10
11.6929133858000007
 20
8.2677165353999982
  9
$ORTHOMODE
 70
     0
  9
$REGENMODE
 70
     1
  9
$FILLMODE
 70
     1
  9
$QTEXTMODE
 70
     0
  9
$MIRRTEXT
 70
     0
  9
$DRAGMODE
 70
     2
  9
$LTSCALE
 40
0.6431102362
  9
$OSMODE
 70
  4095
  9
$ATTMODE
 70
     1
  9
$TEXTSIZE
 40
0.2
  9
$TRACEWID
 40
0.05
  9
$TEXTSTYLE
  7
STANDARD
  9
$CLAYER
  8
0
  9
$CELTYPE
  6
BYLAYER
  9
$CECOLOR
 62
   256
  9
$DIMSCALE
 40
1.0
  9
$DIMASZ
 40
0.1875
  9
$DIMEXO
 40
0.0625
  9
$DIMDLI
 40
0.4443307087
  9
$DIMRND
 40
0.0
  9
$DIMDLE
 40
0.0
  9
$DIMEXE
 40
0.125
  9
$DIMTP
 40
0.01
  9
$DIMTM
 40
0.01
  9
$DIMTXT
 40
2.0
  9
$DIMCEN
 40
0.1052362205
  9
$DIMTSZ
 40
0.0
  9
$DIMTOL
 70
     1
  9
$DIMLIM
 70
     0
  9
$DIMTIH
 70
     1
  9
$DIMTOH
 70
     1
  9
$DIMSE1
 70
     0
  9
$DIMSE2
 70
     0
  9
$DIMTAD
 70
     0
  9
$DIMZIN
 70
     0
  9
$DIMBLK
  1

  9
$DIMASO
 70
     1
  9
$DIMSHO
 70
     1
  9
$DIMPOST
  1
\X
  9
$DIMAPOST
  1

  9
$DIMALT
 70
     1
  9
$DIMALTD
 70
     2
  9
$DIMALTF
 40
25.3999999999999986
  9
$DIMLFAC
 40
1.0
  9
$DIMTOFL
 70
     0
  9
$DIMTVP
 40
0.0
  9
$DIMTIX
 70
     0
  9
$DIMSOXD
 70
     0
  9
$DIMSAH
 70
     0
  9
$DIMBLK1
  1

  9
$DIMBLK2
  1

  9
$DIMSTYLE
  2
STANDARD
  9
$DIMCLRD
 70
     0
  9
$DIMCLRE
 70
     0
  9
$DIMCLRT
 70
     0
  9
$DIMTFAC
 40
1.0
  9
$DIMGAP
 40
0.09
  9
$LUNITS
 70
     2
  9
$LUPREC
 70
     4
  9
$SKETCHINC
 40
0.1
  9
$FILLETRAD
 40
0.0
  9
$AUNITS
 70
     0
  9
$AUPREC
 70
     0
  9
$MENU
  1
.
  9
$ELEVATION
 40
0.0
  9
$PELEVATION
 40
0.0
  9
$THICKNESS
 40
0.0
  9
$LIMCHECK
 70
     0
  9
$BLIPMODE
 70
     0
  9
$CHAMFERA
 40
0.0
  9
$CHAMFERB
 40
0.0
  9
$SKPOLY
 70
     0
  9
$TDCREATE
 40
2458060.468368056230247
  9
$TDUPDATE
 40
2460994.7475578710436821
  9
$TDINDWG
 40
0.6138265046
  9
$TDUSRTIMER
 40
0.6138265046
  9
$USRTIMER
 70
     1
  9
$ANGBASE
 50
0.0
  9
$ANGDIR
 70
     0
  9
$PDMODE
 70
     0
  9
$PDSIZE
 40
0.3125
  9
$PLINEWID
 40
0.0
  9
$COORDS
 70
     1
  9
$SPLFRAME
 70
     0
  9
$SPLINETYPE
 70
     6
  9
$SPLINESEGS
 70
     8
  9
$ATTDIA
 70
     1
  9
$ATTREQ
 70
     1
  9
$HANDLING
 70
     1
  9
$HANDSEED
  5
1D946
  9
$SURFTAB1
 70
     6
  9
$SURFTAB2
 70
     6
  9
$SURFTYPE
 70
     6
  9
$SURFU
 70
     6
  9
$SURFV
 70
     6
  9
$UCSNAME
  2

  9
$UCSORG
 10
0.0
 20
0.0
 30
0.0
  9
$UCSXDIR
 10
1.0
 20
0.0
 30
0.0
  9
$UCSYDIR
 10
0.0
 20
1.0
 30
0.0
  9
$PUCSNAME
  2

  9
$PUCSORG
 10
0.0
 20
0.0
 30
0.0
  9
$PUCSXDIR
 10
1.0
 20
0.0
 30
0.0
  9
$PUCSYDIR
 10
0.0
 20
1.0
 30
0.0
  9
$USERI1
 70
     0
  9
$USERI2
 70
     0
  9
$USERI3
 70
     0
  9
$USERI4
 70
     0
  9
$USERI5
 70
     0
  9
$USERR1
 40
0.0
  9
$USERR2
 40
0.0
  9
$USERR3
 40
0.0
  9
$USERR4
 40
0.0
  9
$USERR5
 40
0.0
  9
$WORLDVIEW
 70
     1
  9
$SHADEDGE
 70
     3
  9
$SHADEDIF
 70
    70
  9
$TILEMODE
 70
     1
  9
$MAXACTVP
 70
    64
  9
$PLIMCHECK
 70
     0
  9
$PEXTMIN
 10
1.0000000000000000E+20
 20
1.0000000000000000E+20
 30
1.0000000000000000E+20
  9
$PEXTMAX
 10
-1.0000000000000000E+20
 20
-1.0000000000000000E+20
 30
-1.0000000000000000E+20
  9
$PLIMMIN
 10
0.0
 20
0.0
  9
$PLIMMAX
 10
12.0
 20
9.0
  9
$UNITMODE
 70
     0
  9
$VISRETAIN
 70
     1
  9
$PLINEGEN
 70
     0
  9
$PSLTSCALE
 70
     1
  0
ENDSEC
  0
SECTION
  2
TABLES
  0
TABLE
  2
VPORT
 70
     1
  0
VPORT
  2
*ACTIVE
 70
     0
 10
0.0
 20
0.0
 11
1.0
 21
1.0
 12
3632.4207209773448994
 22
-57.7674698554421582
 13
0.0
 23
0.0
 14
1.0
 24
1.0
 15
0.0
 25
0.0
 16
0.0
 26
0.0
 36
63.7428098394932476
 17
3065.0238037109379547
 27
193.9024792926558121
 37
0.0
 40
22.7776191405678006
 41
2.0591766723842189
 42
50.0
 43
0.0
 44
0.0
 50
0.0
 51
0.0
 71
     0
 72
   100
 73
     1
 74
     1
 75
     0
 76
     0
 77
     0
 78
     0
  0
ENDTAB
  0
TABLE
  2
LTYPE
 70
     1
  0
LTYPE
  2
CONTINUOUS
 70
     0
  3
Solid line
 72
    65
 73
     0
 40
0.0
  0
ENDTAB
  0
TABLE
  2
LAYER
 70
     9
  0
LAYER
  2
0
 70
     0
 62
   255
  6
CONTINUOUS
  0
LAYER
  2
DEFPOINTS
 70
     0
 62
     7
  6
CONTINUOUS
  0
LAYER
  2
ACCESSORIES_FRONT
 70
     0
 62
   251
  6
CONTINUOUS
  0
LAYER
  2
GLASS
 70
     0
 62
     4
  6
CONTINUOUS
  0
LAYER
  2
WOOD
 70
     0
 62
    33
  6
CONTINUOUS
  0
LAYER
  2
ACCESSORIES
 70
     0
 62
   251
  6
CONTINUOUS
  0
LAYER
  2
BACK_VIEW
 70
     0
 62
   255
  6
CONTINUOUS
  0
LAYER
  2
FRONT_VIEW_OPTION_1
 70
     0
 62
     7
  6
CONTINUOUS
  0
LAYER
  2
FRONT_VIEW_OPTION_2
 70
     0
 62
     7
  6
CONTINUOUS
  0
ENDTAB
  0
TABLE
  2
STYLE
 70
     1
  0
STYLE
  2
STANDARD
 70
     0
 40
0.0
 41
0.8
 50
0.0
 71
     0
 42
0.2
  3
txt
  4

  0
ENDTAB
  0
TABLE
  2
VIEW
 70
     0
  0
ENDTAB
  0
TABLE
  2
UCS
 70
     0
  0
ENDTAB
  0
TABLE
  2
APPID
 70
    12
  0
APPID
  2
ACAD
 70
     0
  0
APPID
  2
ACADANNOTATIVE
 70
     0
  0
APPID
  2
ACAD_MLEADERVER
 70
     0
  0
APPID
  2
ACAD_EXEMPT_FROM_CAD_STANDARDS
 70
     0
  0
APPID
  2
ACAD_NAV_VCDISPLAY
 70
     0
  0
APPID
  2
ACAECLAYERSTANDARD
 70
     0
  0
APPID
  2
ACCMTRANSPARENCY
 70
     0
  0
APPID
  2
ACAD_DSTYLE_DIMJAG
 70
     0
  0
APPID
  2
ACAD_DSTYLE_DIMTALN
 70
     0
  0
APPID
  2
ACDBATTR
 70
     0
  0
APPID
  2
CONTENTBLOCKICON
 70
     0
  0
APPID
  2
ACDBDYNAMICBLOCKGUID
 70
     0
  0
ENDTAB
  0
TABLE
  2
DIMSTYLE
 70
     1
  0
DIMSTYLE
  2
STANDARD
 70
     0
  3

  4

  5

  6

  7

 40
1.0
 41
0.1875
 42
0.0625
 43
0.38
 44
0.125
 45
0.0
 46
0.0
 47
0.01
 48
0.01
140
0.15625
141
0.09
142
0.0
143
25.3999999999999986
144
1.0
145
0.0
146
1.0
147
0.09
 71
     1
 72
     0
 73
     1
 74
     1
 75
     0
 76
     0
 77
     0
 78
     4
170
     0
171
     2
172
     0
173
     0
174
     0
175
     0
176
     0
177
     0
178
     0
  0
ENDTAB
  0
ENDSEC
  0
SECTION
  2
BLOCKS
  0
BLOCK
  8
0
  2
$MODEL_SPACE
 70
     0
 10
0.0
 20
0.0
 30
0.0
  3
$MODEL_SPACE
  1

  0
ENDBLK
  5
19FA5
  8
0
  0
BLOCK
 67
     1
  8
0
  2
$PAPER_SPACE
 70
     0
 10
0.0
 20
0.0
 30
0.0
  3
$PAPER_SPACE
  1

  0
ENDBLK
  5
19FA1
 67
     1
  8
0
  0
BLOCK
  8
0
  2
_FILLED
 70
     0
 10
0.0
 20
0.0
 30
0.0
  3
_FILLED
  1

  0
SOLID
  5
1A543
  8
0
  6
BYBLOCK
 62
     0
 10
0.0
 20
0.0
 30
0.0
 11
-1.0
 21
0.1666666667
 31
0.0
 12
-1.0
 22
-0.1666666667
 32
0.0
 13
-1.0
 23
-0.1666666667
 33
0.0
  0
ENDBLK
  5
1A544
  8
0
  6
BYBLOCK
 62
     0
  0
BLOCK
  8
0
  2
MA
 70
     0
 10
0.0
 20
0.0
 30
0.0
  3
MA
  1

  0
LINE
  5
1B046
  8
ACCESSORIES_FRONT
 10
-130.439052953736109
 20
-34.4466320372999917
 30
0.0
 11
-130.5283447466804034
 21
-6.218465423539925
 31
0.0
  0
LINE
  5
1B047
  8
ACCESSORIES_FRONT
 10
-130.5281161768812126
 20
-6.290724095499967
 30
0.0
 11
-131.2540085922881019
 21
-6.1231386261969192
 31
0.0
  0
LINE
  5
1B048
  8
ACCESSORIES_FRONT
 10
-131.2540085922881019
 20
-6.1231386261969192
 30
0.0
 11
-131.2362959109300107
 21
-6.046416574228771
 31
0.0
  0
LINE
  5
1B049
  8
ACCESSORIES_FRONT
 10
-131.2362959109300107
 20
-6.046416574228771
 30
0.0
 11
-131.4089205286452966
 21
-6.0065630408444974
 31
0.0
  0
LINE
  5
1B04A
  8
ACCESSORIES_FRONT
 10
-131.4089205286452966
 20
-6.0065630408444974
 30
0.0
 11
-131.4266332101167052
 21
-6.0832850933148839
 31
0.0
  0
LINE
  5
1B04B
  8
ACCESSORIES_FRONT
 10
-131.4266332101167052
 20
-6.0832850933148839
 30
0.0
 11
-132.1525256256811076
 21
-5.9156996243999913
 31
0.0
  0
LINE
  5
1B04C
  8
ACCESSORIES_FRONT
 10
-132.1525256256811076
 20
-5.9156996243999913
 30
0.0
 11
-132.1525256256811076
 21
-5.9492402667999889
 31
0.0
  0
LINE
  5
1B04D
  8
ACCESSORIES_FRONT
 10
-132.1525256256811076
 20
-5.9492402667999889
 30
0.0
 11
-132.1329959143810981
 21
-5.9492402667999889
 31
0.0
  0
LINE
  5
1B04E
  8
ACCESSORIES_FRONT
 10
-132.1329959143810981
 20
-5.9492402667999889
 30
0.0
 11
-132.1329959143810981
 21
-6.0673505030999868
 31
0.0
  0
ARC
  5
1B04F
  8
ACCESSORIES_FRONT
 10
-132.2904762289855114
 20
-6.0673505030999868
 30
0.0
 40
0.1574803146043564
 50
331.1619235909458894
 51
0.0
  0
ARC
  5
1B050
  8
ACCESSORIES_FRONT
 10
-132.2904762297114019
 20
-6.0673505027003207
 30
0.0
 40
0.1574803154329933
 50
276.1934710171062193
 51
331.161923590962715
  0
LINE
  5
1B051
  8
ACCESSORIES_FRONT
 10
-132.2734862974922976
 20
-6.2239116471521641
 30
0.0
 11
-132.7102801340359122
 21
-6.223774884174019
 31
0.0
  0
ARC
  5
1B052
  8
ACCESSORIES_FRONT
 10
-132.7102364699171062
 20
-6.084320346477198
 30
0.0
 40
0.1394545445325942
 50
185.3609347768112912
 51
269.9820603210758918
  0
ARC
  5
1B053
  8
ACCESSORIES_FRONT
 10
-128.702798790119914
 20
-5.3248979708697561
 30
0.0
 40
4.21762228840982
 50
180.1916293221424041
 51
190.5532098324659955
  0
ARC
  5
1B054
  8
ACCESSORIES_FRONT
 10
-128.9833896153118076
 20
-5.339004046393768
 30
0.0
 40
3.937007873869447
 50
168.889118199533101
 51
180.0000000000912053
  0
ARC
  5
1B055
  8
ACCESSORIES_FRONT
 10
-132.6920740192146866
 20
-4.6106575896275777
 30
0.0
 40
0.1574803149228423
 50
100.1701581404926031
 51
168.8891182233228108
  0
ARC
  5
1B056
  8
ACCESSORIES_FRONT
 10
-132.5241178649077938
 20
-11.9804351477996498
 30
0.0
 40
7.5273295220651191
 50
87.9256037203631138
 51
91.4902557597739019
  0
ARC
  5
1B057
  8
ACCESSORIES_FRONT
 10
-132.2991968761349142
 20
-4.6223569159777753
 30
0.0
 40
0.1710591481235355
 50
32.7367063974949986
 51
73.8617969381958517
  0
ARC
  5
1B058
  8
ACCESSORIES_FRONT
 10
-132.2738641669893127
 20
-4.6060706780691296
 30
0.0
 40
0.1409429116742213
 50
358.1350102054598779
 51
32.7367063974930232
  0
ARC
  5
1B059
  8
ACCESSORIES_FRONT
 10
-130.3193592098139106
 20
-4.669712707799988
 30
0.0
 40
1.8145979177567779
 50
178.1350102054599063
 51
181.8649897945400937
  0
LINE
  5
1B05A
  8
ACCESSORIES_FRONT
 10
-132.1329959143810981
 20
-4.728767825899979
 30
0.0
 11
-132.2314211111811062
 21
-4.728767825899979
 31
0.0
  0
LINE
  5
1B05B
  8
ACCESSORIES_FRONT
 10
-132.2314211111811062
 20
-4.728767825899979
 30
0.0
 11
-132.2314211111811062
 21
-4.7557528828999693
 31
0.0
  0
LINE
  5
1B05C
  8
ACCESSORIES_FRONT
 10
-132.2314211111811062
 20
-4.7557528828999693
 30
0.0
 11
-132.1526809537812994
 21
-4.7557528828999693
 31
0.0
  0
LINE
  5
1B05D
  8
ACCESSORIES_FRONT
 10
-132.1526809537812994
 20
-4.7557528828999693
 30
0.0
 11
-132.1525256256811076
 21
-5.9156996243999913
 31
0.0
  0
LINE
  5
1B05E
  8
ACCESSORIES_FRONT
 10
-130.553828390481101
 20
-4.453177274699982
 30
0.0
 11
-131.9514661856811983
 21
-4.453177274699982
 31
0.0
  0
LINE
  5
1B05F
  8
ACCESSORIES_FRONT
 10
-131.9514661856811983
 20
-4.453177274699982
 30
0.0
 11
-131.9514661856811983
 21
-4.7557528828999693
 31
0.0
  0
LINE
  5
1B060
  8
ACCESSORIES_FRONT
 10
-131.9514661856811983
 20
-4.7557528828999693
 30
0.0
 11
-131.990836264481203
 21
-4.7557528828999693
 31
0.0
  0
LINE
  5
1B061
  8
ACCESSORIES_FRONT
 10
-131.990836264481203
 20
-4.7557528828999693
 30
0.0
 11
-131.990836264481203
 21
-4.4774064261999911
 31
0.0
  0
LINE
  5
1B062
  8
ACCESSORIES_FRONT
 10
-131.990836264481203
 20
-4.4774064261999911
 30
0.0
 11
-132.0695764219811963
 21
-4.4774064261999911
 31
0.0
  0
LINE
  5
1B063
  8
ACCESSORIES_FRONT
 10
-132.0695764219811963
 20
-4.4774064261999911
 30
0.0
 11
-132.0695764219811963
 21
-5.6847766793999881
 31
0.0
  0
ARC
  5
1B064
  8
ACCESSORIES_FRONT
 10
-131.9156088868217012
 20
-5.4840704572267489
 30
0.0
 40
0.2529604504702756
 50
200.4642408199117938
 51
232.5071457209400023
  0
ARC
  5
1B065
  8
ACCESSORIES_FRONT
 10
-133.7720833553748889
 20
-7.5408269198940721
 30
0.0
 40
2.5186211214653982
 50
42.529355377936767
 51
47.4706446220746585
  0
ARC
  5
1B066
  8
ACCESSORIES_FRONT
 10
-131.687339347228999
 20
-5.6628823975180458
 30
0.0
 40
0.288234604082767
 50
217.4928542790661083
 51
235.8245253521322979
  0
ARC
  5
1B067
  8
ACCESSORIES_FRONT
 10
-131.8205980560967987
 20
-5.8591472923889114
 30
0.0
 40
0.0510051951811897
 50
235.8245253521560869
 51
258.9640031464505228
  0
LINE
  5
1B068
  8
ACCESSORIES_FRONT
 10
-132.1525364474375124
 20
-5.8348857789200386
 30
0.0
 11
-131.6572127420911045
 21
-5.9492402667999613
 31
0.0
  0
LINE
  5
1B069
  8
ACCESSORIES_FRONT
 10
-131.9309437391995914
 20
-5.8860444866397748
 30
0.0
 11
-131.6572127419811977
 21
-5.9492402667999889
 31
0.0
  0
LINE
  5
1B06A
  8
ACCESSORIES_FRONT
 10
-131.6572127419811977
 20
-5.9492402667999889
 30
0.0
 11
-131.4089205286452113
 21
-6.0065630408444974
 31
0.0
  0
LINE
  5
1B06B
  8
ACCESSORIES_FRONT
 10
-131.2362959109300107
 20
-6.046416574228771
 30
0.0
 11
-130.5531484968290954
 21
-6.2039092822215594
 31
0.0
  0
ARC
  5
1B06C
  8
ACCESSORIES_FRONT
 10
-130.5341434782482111
 20
-6.1987807286082548
 30
0.0
 40
0.0196847323921001
 50
195.1018555948514006
 51
270.0003701413730823
  0
LINE
  5
1B06D
  8
ACCESSORIES_FRONT
 10
-130.5341433510810987
 20
-6.218465460999993
 30
0.0
 11
-130.5283447466804034
 21
-6.218465423539925
 31
0.0
  0
LINE
  5
1B06E
  8
ACCESSORIES_FRONT
 10
-130.553828390481101
 20
-4.6106575896999971
 30
0.0
 11
-131.9514661856811983
 21
-4.610657589700252
 31
0.0
  0
LINE
  5
1B06F
  8
ACCESSORIES_FRONT
 10
-132.0695764219811963
 20
-4.7557528828999693
 30
0.0
 11
-131.990836264481203
 21
-4.7557528828999693
 31
0.0
  0
LINE
  5
1B070
  8
ACCESSORIES_FRONT
 10
-131.9514661856811983
 20
-4.7557528828999693
 30
0.0
 11
-130.5538283904811863
 21
-4.7557528828999693
 31
0.0
  0
LINE
  5
1B071
  8
ACCESSORIES_FRONT
 10
-131.1454919647815132
 20
-6.0673505030999868
 30
0.0
 11
-130.5538283904811863
 21
-6.0673505030999868
 31
0.0
  0
LINE
  5
1B072
  8
ACCESSORIES_FRONT
 10
-130.553828390481101
 20
-5.9492402667999889
 30
0.0
 11
-131.6572127420911045
 21
-5.9492402667999889
 31
0.0
  0
LINE
  5
1B073
  8
ACCESSORIES_FRONT
 10
-130.553828390481101
 20
-4.453177274699982
 30
0.0
 11
-130.5531483825336068
 21
-6.2039093056478691
 31
0.0
  0
ARC
  5
1B074
  8
ACCESSORIES_FRONT
 10
-130.5079569595044973
 20
-4.436495252000042
 30
0.0
 40
0.0488106347142439
 50
134.9864715894518952
 51
199.9847638564735917
  0
ARC
  5
1B075
  8
ACCESSORIES_FRONT
 10
-128.5549059823094922
 20
-8.0101197363300685
 30
0.0
 40
4.1193577127319134
 50
102.5707640196538932
 51
118.8482855947389965
  0
ARC
  5
1B076
  8
ACCESSORIES_FRONT
 10
-128.7310630755497129
 20
-4.395336620042201
 30
0.0
 40
0.8268448161081733
 50
139.81362554477289
 51
150.6060522384144065
  0
ARC
  5
1B077
  8
ACCESSORIES_FRONT
 10
-125.3860081568422942
 20
-808.6889291732220499
 30
0.0
 40
804.8369603045365466
 50
89.8140436343061452
 51
90.2831012490161271
  0
LINE
  5
1B078
  8
ACCESSORIES_FRONT
 10
-126.7118177155448961
 20
-3.8530608738153651
 30
0.0
 11
-125.7156078215086978
 21
-0.1351549342926432
 31
0.0
  0
ARC
  5
1B079
  8
ACCESSORIES_FRONT
 10
-125.5825078061399012
 20
-0.1708189759234813
 30
0.0
 40
0.1377952755235003
 50
89.9999999755863769
 51
164.9999999998993019
  0
LINE
  5
1B07A
  8
ACCESSORIES_FRONT
 10
-125.5825078060810966
 20
-0.0330237003999514
 30
0.0
 11
-122.7738734649809942
 21
-0.0330237015968464
 31
0.0
  0
LINE
  5
1B07B
  8
ACCESSORIES_FRONT
 10
-127.629944470400801
 20
-34.4466320372999917
 30
0.0
 11
-127.0497877249811012
 21
-32.2814575869999771
 31
0.0
  0
LINE
  5
1B07C
  8
ACCESSORIES_FRONT
 10
-127.0497877249811012
 20
-32.2814575869999771
 30
0.0
 11
-122.7738734649809942
 21
-32.2814575869999771
 31
0.0
  0
LINE
  5
1B07D
  8
ACCESSORIES_FRONT
 10
-132.1525256256811076
 20
-5.9492402667999889
 30
0.0
 11
-132.2314211111811062
 21
-5.9492402667999889
 31
0.0
  0
LINE
  5
1B07E
  8
ACCESSORIES_FRONT
 10
-132.2314211111811062
 20
-5.9492402667999889
 30
0.0
 11
-132.2314211111811062
 21
-5.9295552274999741
 31
0.0
  0
LINE
  5
1B07F
  8
ACCESSORIES_FRONT
 10
-132.2314211111811062
 20
-5.9295552274999741
 30
0.0
 11
-132.1525256256811076
 21
-5.9295552274999741
 31
0.0
  0
LINE
  5
1B080
  8
ACCESSORIES_FRONT
 10
-132.1523702976811876
 20
-9.0514503205999972
 30
0.0
 11
-132.1523702976811876
 21
-9.0653059236999241
 31
0.0
  0
LINE
  5
1B081
  8
ACCESSORIES_FRONT
 10
-132.1523702976811876
 20
-9.0849909629999956
 30
0.0
 11
-132.1328405863812065
 21
-9.0849909629999956
 31
0.0
  0
LINE
  5
1B082
  8
ACCESSORIES_FRONT
 10
-132.1328405863812065
 20
-9.0849909629999956
 30
0.0
 11
-132.1328405863812065
 21
-9.2031011992999652
 31
0.0
  0
ARC
  5
1B083
  8
ACCESSORIES_FRONT
 10
-132.2903209009855061
 20
-9.2031011992999652
 30
0.0
 40
0.1574803146043564
 50
331.1619235909458894
 51
0.0
  0
ARC
  5
1B084
  8
ACCESSORIES_FRONT
 10
-132.2903209017113966
 20
-9.2031011989003275
 30
0.0
 40
0.1574803154329933
 50
276.1934710171062193
 51
331.161923590962715
  0
LINE
  5
1B085
  8
ACCESSORIES_FRONT
 10
-132.2733309694922923
 20
-9.3596623433521682
 30
0.0
 11
-132.7101248060357079
 21
-9.3595255803740258
 31
0.0
  0
ARC
  5
1B086
  8
ACCESSORIES_FRONT
 10
-132.7100811419171862
 20
-9.2200710426772048
 30
0.0
 40
0.1394545445325942
 50
185.3609347768112912
 51
269.9820603210758918
  0
ARC
  5
1B087
  8
ACCESSORIES_FRONT
 10
-128.7026434621199087
 20
-8.4606486670697336
 30
0.0
 40
4.21762228840982
 50
180.1916293221424041
 51
190.5532098324659955
  0
ARC
  5
1B088
  8
ACCESSORIES_FRONT
 10
-128.9832342873116886
 20
-8.4747547425937455
 30
0.0
 40
3.937007873869447
 50
168.889118199533101
 51
180.0000000000912053
  0
ARC
  5
1B089
  8
ACCESSORIES_FRONT
 10
-132.6919186912147097
 20
-7.746408285827556
 30
0.0
 40
0.1574803149228423
 50
100.1701581404926031
 51
168.8891182233228108
  0
ARC
  5
1B08A
  8
ACCESSORIES_FRONT
 10
-132.5239625369079022
 20
-15.1161858439996593
 30
0.0
 40
7.5273295220651191
 50
87.9256037203631138
 51
91.4902557597739019
  0
ARC
  5
1B08B
  8
ACCESSORIES_FRONT
 10
-132.2990415481349089
 20
-7.7581076121777519
 30
0.0
 40
0.1710591481235355
 50
32.7367063974949986
 51
73.8617969381958517
  0
ARC
  5
1B08C
  8
ACCESSORIES_FRONT
 10
-132.2737088389893074
 20
-7.7418213742691364
 30
0.0
 40
0.1409429116742213
 50
358.1350102054598779
 51
32.7367063974930232
  0
ARC
  5
1B08D
  8
ACCESSORIES_FRONT
 10
-130.3192038818139054
 20
-7.8054634039999646
 30
0.0
 40
1.8145979177567779
 50
178.1350102054599063
 51
181.8649897945400937
  0
LINE
  5
1B08E
  8
ACCESSORIES_FRONT
 10
-132.1328405863810929
 20
-7.8645185220999556
 30
0.0
 11
-132.2312657831811862
 21
-7.8645185220999556
 31
0.0
  0
LINE
  5
1B08F
  8
ACCESSORIES_FRONT
 10
-132.2312657831811862
 20
-7.8645185220999556
 30
0.0
 11
-132.2312657831811862
 21
-7.8915035790999752
 31
0.0
  0
LINE
  5
1B090
  8
ACCESSORIES_FRONT
 10
-132.2312657831811862
 20
-7.8915035790999752
 30
0.0
 11
-132.1525256257812089
 21
-7.8915035790999752
 31
0.0
  0
LINE
  5
1B091
  8
ACCESSORIES_FRONT
 10
-132.1525256257812089
 20
-7.8915035790999752
 30
0.0
 11
-132.1523702976811876
 21
-9.0514503205999972
 31
0.0
  0
LINE
  5
1B092
  8
ACCESSORIES_FRONT
 10
-132.1523702976811876
 20
-9.0849909629999956
 30
0.0
 11
-132.2312657831811862
 21
-9.0849909629999956
 31
0.0
  0
LINE
  5
1B093
  8
ACCESSORIES_FRONT
 10
-132.2312657831811862
 20
-9.0849909629999956
 30
0.0
 11
-132.2312657831811862
 21
-9.0653059236999791
 31
0.0
  0
LINE
  5
1B094
  8
ACCESSORIES_FRONT
 10
-132.2312657831811862
 20
-9.0653059236999791
 30
0.0
 11
-132.1523702976811876
 21
-9.0653059236999525
 31
0.0
  0
LINE
  5
1B095
  8
ACCESSORIES_FRONT
 10
-132.1525256256811076
 20
-12.1821392645476596
 30
0.0
 11
-132.1525256256811076
 21
-12.2076122052000091
 31
0.0
  0
LINE
  5
1B096
  8
ACCESSORIES_FRONT
 10
-132.1329959143810981
 20
-12.2272972445000203
 30
0.0
 11
-132.1329959143810981
 21
-12.3337901432476507
 31
0.0
  0
ARC
  5
1B097
  8
ACCESSORIES_FRONT
 10
-132.2904762289855114
 20
-12.3337901432476507
 30
0.0
 40
0.1574803146043564
 50
331.1619235909458894
 51
0.0
  0
ARC
  5
1B098
  8
ACCESSORIES_FRONT
 10
-132.2904762297114019
 20
-12.3337901428479899
 30
0.0
 40
0.1574803154329933
 50
276.1934710171062193
 51
331.161923590962715
  0
LINE
  5
1B099
  8
ACCESSORIES_FRONT
 10
-132.2734862974922976
 20
-12.4903512872998306
 30
0.0
 11
-132.7102801340359122
 21
-12.4902145243216793
 31
0.0
  0
ARC
  5
1B09A
  8
ACCESSORIES_FRONT
 10
-132.7102364699171062
 20
-12.3507599866248601
 30
0.0
 40
0.1394545445325942
 50
185.3609347768112912
 51
269.9820603210758918
  0
ARC
  5
1B09B
  8
ACCESSORIES_FRONT
 10
-128.702798790119914
 20
-11.5913376110174209
 30
0.0
 40
4.21762228840982
 50
180.1916293221424041
 51
190.5532098324659955
  0
ARC
  5
1B09C
  8
ACCESSORIES_FRONT
 10
-128.9833896153118076
 20
-11.6054436865414292
 30
0.0
 40
3.937007873869447
 50
168.889118199533101
 51
180.0000000000912053
  0
ARC
  5
1B09D
  8
ACCESSORIES_FRONT
 10
-132.6920740192146866
 20
-10.8770972297752397
 30
0.0
 40
0.1574803149228423
 50
100.1701581404926031
 51
168.8891182233228108
  0
ARC
  5
1B09E
  8
ACCESSORIES_FRONT
 10
-132.5241178649077938
 20
-18.2468747879473199
 30
0.0
 40
7.5273295220651191
 50
87.9256037203631138
 51
91.4902557597739019
  0
ARC
  5
1B09F
  8
ACCESSORIES_FRONT
 10
-132.2991968761349142
 20
-10.8887965561254401
 30
0.0
 40
0.1710591481235355
 50
32.7367063974949986
 51
73.8617969381958517
  0
ARC
  5
1B0A0
  8
ACCESSORIES_FRONT
 10
-132.2738641669893127
 20
-10.8725103182167899
 30
0.0
 40
0.1409429116742213
 50
358.1350102054598779
 51
32.7367063974930232
  0
ARC
  5
1B0A1
  8
ACCESSORIES_FRONT
 10
-130.3193592098139106
 20
-10.9361523479476492
 30
0.0
 40
1.8145979177567779
 50
178.1350102054599063
 51
181.8649897945400937
  0
LINE
  5
1B0A2
  8
ACCESSORIES_FRONT
 10
-132.1329959143810981
 20
-10.9952074660476402
 30
0.0
 11
-132.2314211111811062
 21
-10.9952074660476402
 31
0.0
  0
LINE
  5
1B0A3
  8
ACCESSORIES_FRONT
 10
-132.2314211111811062
 20
-10.9952074660476402
 30
0.0
 11
-132.2312657831811862
 21
-11.0338098605999999
 31
0.0
  0
LINE
  5
1B0A4
  8
ACCESSORIES_FRONT
 10
-132.2312657831811862
 20
-11.0338098605999999
 30
0.0
 11
-132.1525256256811076
 21
-11.0338098605999999
 31
0.0
  0
LINE
  5
1B0A5
  8
ACCESSORIES_FRONT
 10
-132.1525256256811076
 20
-11.0338098605999999
 30
0.0
 11
-132.1525256256811076
 21
-12.1821392645476596
 31
0.0
  0
LINE
  5
1B0A6
  8
ACCESSORIES_FRONT
 10
-132.1525256256811076
 20
-15.3842035613999997
 30
0.0
 11
-132.1329959143810981
 21
-15.3842035613999997
 31
0.0
  0
LINE
  5
1B0A7
  8
ACCESSORIES_FRONT
 10
-132.1329959143810981
 20
-15.3842035613999997
 30
0.0
 11
-132.1329959143810981
 21
-15.5023137976999692
 31
0.0
  0
ARC
  5
1B0A8
  8
ACCESSORIES_FRONT
 10
-132.2904762289855114
 20
-15.5023137976999692
 30
0.0
 40
0.1574803146043564
 50
331.1619235909458894
 51
0.0
  0
ARC
  5
1B0A9
  8
ACCESSORIES_FRONT
 10
-132.2904762297114019
 20
-15.5023137973003298
 30
0.0
 40
0.1574803154329933
 50
276.1934710171062193
 51
331.161923590962715
  0
LINE
  5
1B0AA
  8
ACCESSORIES_FRONT
 10
-132.2734862974922976
 20
-15.6588749417521704
 30
0.0
 11
-132.7102801340359122
 21
-15.6587381787740298
 31
0.0
  0
ARC
  5
1B0AB
  8
ACCESSORIES_FRONT
 10
-132.7102364699171062
 20
-15.5192836410772106
 30
0.0
 40
0.1394545445325942
 50
185.3609347768112912
 51
269.9820603210758918
  0
ARC
  5
1B0AC
  8
ACCESSORIES_FRONT
 10
-128.702798790119914
 20
-14.7598612654697394
 30
0.0
 40
4.21762228840982
 50
180.1916293221424041
 51
190.5532098324659955
  0
ARC
  5
1B0AD
  8
ACCESSORIES_FRONT
 10
-128.9833896153118076
 20
-14.7739673409937495
 30
0.0
 40
3.937007873869447
 50
168.889118199533101
 51
180.0000000000912053
  0
ARC
  5
1B0AE
  8
ACCESSORIES_FRONT
 10
-132.6920740192146866
 20
-14.0456208842275601
 30
0.0
 40
0.1574803149228423
 50
100.1701581404926031
 51
168.8891182233228108
  0
ARC
  5
1B0AF
  8
ACCESSORIES_FRONT
 10
-132.5241178649077938
 20
-21.4153984423996597
 30
0.0
 40
7.5273295220651191
 50
87.9256037203631138
 51
91.4902557597739019
  0
ARC
  5
1B0B0
  8
ACCESSORIES_FRONT
 10
-132.2991968761349142
 20
-14.0573202105777497
 30
0.0
 40
0.1710591481235355
 50
32.7367063974949986
 51
73.8617969381958517
  0
ARC
  5
1B0B1
  8
ACCESSORIES_FRONT
 10
-132.2738641669893127
 20
-14.0410339726691404
 30
0.0
 40
0.1409429116742213
 50
358.1350102054598779
 51
32.7367063974930232
  0
ARC
  5
1B0B2
  8
ACCESSORIES_FRONT
 10
-130.3193592098139106
 20
-14.1046760023999695
 30
0.0
 40
1.8145979177567779
 50
178.1350102054599063
 51
181.8649897945400937
  0
LINE
  5
1B0B3
  8
ACCESSORIES_FRONT
 10
-132.1329959143810981
 20
-14.1637311204999605
 30
0.0
 11
-132.2314211111811062
 21
-14.1637311204999605
 31
0.0
  0
LINE
  5
1B0B4
  8
ACCESSORIES_FRONT
 10
-132.2314211111811062
 20
-14.1637311204999605
 30
0.0
 11
-132.2314211111811062
 21
-14.1907161774999793
 31
0.0
  0
LINE
  5
1B0B5
  8
ACCESSORIES_FRONT
 10
-132.2314211111811062
 20
-14.1907161774999793
 30
0.0
 11
-132.1526809537812994
 21
-14.1907161774999793
 31
0.0
  0
LINE
  5
1B0B6
  8
ACCESSORIES_FRONT
 10
-132.1526809537812994
 20
-14.1907161774999793
 30
0.0
 11
-132.1525237702817037
 21
-15.3645185220999796
 31
0.0
  0
LINE
  5
1B0B7
  8
ACCESSORIES_FRONT
 10
-132.1525256256811076
 20
-15.3842035613999997
 30
0.0
 11
-132.2314211111811062
 21
-15.3842035613999997
 31
0.0
  0
LINE
  5
1B0B8
  8
ACCESSORIES_FRONT
 10
-132.2314211111811062
 20
-15.3842035613999997
 30
0.0
 11
-132.2314211111811062
 21
-15.3645185220999796
 31
0.0
  0
LINE
  5
1B0B9
  8
ACCESSORIES_FRONT
 10
-132.2314211111811062
 20
-15.3645185220999796
 30
0.0
 11
-132.152523770281789
 21
-15.3645185220999796
 31
0.0
  0
LINE
  5
1B0BA
  8
ACCESSORIES_FRONT
 10
-132.158125706581103
 20
-15.5878525097999692
 30
0.0
 11
-132.0695764219811963
 21
-15.5878525097999692
 31
0.0
  0
LINE
  5
1B0BB
  8
ACCESSORIES_FRONT
 10
-132.0695764219811963
 20
-15.5878525097999692
 30
0.0
 11
-132.0695764219811963
 21
-15.6401090731999908
 31
0.0
  0
LINE
  5
1B0BC
  8
ACCESSORIES_FRONT
 10
-132.0695764219811963
 20
-15.6401090731999908
 30
0.0
 11
-131.990836264481203
 21
-15.6401090731999908
 31
0.0
  0
LINE
  5
1B0BD
  8
ACCESSORIES_FRONT
 10
-131.990836264481203
 20
-15.6401090731999908
 30
0.0
 11
-131.990836264481203
 21
-15.5878525097999692
 31
0.0
  0
LINE
  5
1B0BE
  8
ACCESSORIES_FRONT
 10
-131.990836264481203
 20
-15.5878525097999692
 30
0.0
 11
-131.9514661856811983
 21
-15.5878525097999692
 31
0.0
  0
LINE
  5
1B0BF
  8
ACCESSORIES_FRONT
 10
-131.9514661856811983
 20
-15.5878525097999692
 30
0.0
 11
-131.9514661856811983
 21
-15.65979411259997
 31
0.0
  0
LINE
  5
1B0C0
  8
ACCESSORIES_FRONT
 10
-131.9514661856811983
 20
-15.65979411259997
 30
0.0
 11
-130.4984943214952011
 21
-15.6551980485117497
 31
0.0
  0
LINE
  5
1B0C1
  8
ACCESSORIES_FRONT
 10
-132.2058640973696129
 20
-10.7454430609999996
 30
0.0
 11
-132.1525256256811076
 21
-10.7454430609999996
 31
0.0
  0
LINE
  5
1B0C2
  8
ACCESSORIES_FRONT
 10
-132.155307992362907
 20
-13.9648149605451106
 30
0.0
 11
-132.1547561976468046
 21
-12.4136658127685298
 31
0.0
  0
LINE
  5
1B0C3
  8
ACCESSORIES_FRONT
 10
-132.1541814780966035
 20
-10.7980727045352296
 30
0.0
 11
-132.1536419209743087
 21
-9.2813246351170164
 31
0.0
  0
LINE
  5
1B0C4
  8
ACCESSORIES_FRONT
 10
-132.1525256256811076
 20
-7.5937892147339019
 30
0.0
 11
-132.1525256256811076
 21
-7.6701684560860031
 31
0.0
  0
LINE
  5
1B0C5
  8
ACCESSORIES_FRONT
 10
-132.1525256256811076
 20
-12.2272972445000203
 30
0.0
 11
-132.1329959143810981
 21
-12.2272972445000203
 31
0.0
  0
LINE
  5
1B0C6
  8
ACCESSORIES_FRONT
 10
-132.1525256256811076
 20
-12.2272972445000203
 30
0.0
 11
-132.2314211111811062
 21
-12.2272972445000203
 31
0.0
  0
LINE
  5
1B0C7
  8
ACCESSORIES_FRONT
 10
-132.2314211111811062
 20
-12.2272972445000203
 30
0.0
 11
-132.2314211111811062
 21
-12.2076122052000091
 31
0.0
  0
LINE
  5
1B0C8
  8
ACCESSORIES_FRONT
 10
-132.2314211111811062
 20
-12.2076122052000091
 30
0.0
 11
-132.152523770281789
 21
-12.2076122052000091
 31
0.0
  0
LINE
  5
1B0C9
  8
ACCESSORIES_FRONT
 10
-132.1537077452260007
 20
-7.6678981583839061
 30
0.0
 11
-132.1537077452260007
 21
-6.1454173420141549
 31
0.0
  0
LINE
  5
1B0CA
  8
ACCESSORIES_FRONT
 10
-122.7738734649809942
 20
-0.7416851176999872
 30
0.0
 11
-124.8421490972808954
 21
-0.7416851176999801
 31
0.0
  0
ARC
  5
1B0CB
  8
ACCESSORIES_FRONT
 10
-124.8421490972808954
 20
-1.1353859049778821
 30
0.0
 40
0.3937007872779021
 50
89.9999999999999147
 51
165.0000000213167937
  0
LINE
  5
1B0CC
  8
ACCESSORIES_FRONT
 10
-125.2224348555809001
 20
-1.033488643299989
 30
0.0
 11
-125.7889091031173052
 21
-3.1475993194313769
 31
0.0
  0
LINE
  5
1B0CD
  8
ACCESSORIES_FRONT
 10
-125.7889091031173052
 20
-3.1475993194313769
 30
0.0
 11
-122.7738734649809942
 21
-3.1475993194313769
 31
0.0
  0
LINE
  5
1B0CE
  8
ACCESSORIES_FRONT
 10
-126.6300444525432027
 20
-3.8529303225612921
 30
0.0
 11
-125.6393301951588057
 21
-0.1555343873221777
 31
0.0
  0
ARC
  5
1B0CF
  8
ACCESSORIES_FRONT
 10
-125.5822873281372978
 20
-0.1708189775121744
 30
0.0
 40
0.0590551214994196
 50
100.5027432930751985
 51
164.9999999647479001
  0
LINE
  5
1B0D0
  8
ACCESSORIES_FRONT
 10
-126.5847114331689056
 20
-3.8528615279523128
 30
0.0
 11
-125.5981111048808998
 21
-0.1708189759999925
 31
0.0
  0
LINE
  5
1B0D1
  8
ACCESSORIES_FRONT
 10
-125.5981111048808998
 20
-0.1708189759999925
 30
0.0
 11
-125.586109604823605
 21
-0.0330707817326343
 31
0.0
  0
LINE
  5
1B0D2
  8
ACCESSORIES_FRONT
 10
-125.6622707348053041
 20
-2.6749784939999861
 30
0.0
 11
-122.7738734649809942
 21
-2.6749784939999861
 31
0.0
  0
ENDBLK
  5
1B0D3
  8
0
  0
BLOCK
  8
0
  2
ACCESORIES
 70
     0
 10
0.0
 20
0.0
 30
0.0
  3
ACCESORIES
  1

  0
CIRCLE
  5
1B0D6
  8
ACCESSORIES
 10
-156.3565506302811059
 20
33.3486435532000201
 30
0.0
 40
2.9846695298999979
  0
CIRCLE
  5
1B0D7
  8
ACCESSORIES
 10
-156.3565506302811059
 20
33.3486435532000201
 30
0.0
 40
2.3818897637999981
  0
LINE
  5
1B0D8
  8
ACCESSORIES
 10
-177.1242671656812036
 20
-19.6037107775000017
 30
0.0
 11
-177.1242671656812036
 21
-21.6710414860999698
 31
0.0
  0
LINE
  5
1B0D9
  8
ACCESSORIES
 10
-177.1242671656812036
 20
-21.6710414860999698
 30
0.0
 11
-171.0219049609810895
 21
-21.6710414860999698
 31
0.0
  0
LINE
  5
1B0DA
  8
ACCESSORIES
 10
-171.0219049609810895
 20
-21.6710414860999698
 30
0.0
 11
-171.0219049609810895
 21
-19.6037107775000017
 31
0.0
  0
LINE
  5
1B0DB
  8
ACCESSORIES
 10
-171.0219049609810895
 20
-19.6037107775000017
 30
0.0
 11
-171.1597002365811875
 21
-19.6037107775000017
 31
0.0
  0
LINE
  5
1B0DC
  8
ACCESSORIES
 10
-171.1597002365811875
 20
-19.6037107775000017
 30
0.0
 11
-171.1597002365811875
 21
-21.5332462106000015
 31
0.0
  0
LINE
  5
1B0DD
  8
ACCESSORIES
 10
-171.1597002365811875
 20
-21.5332462106000015
 30
0.0
 11
-176.9864718901810932
 21
-21.5332462106000015
 31
0.0
  0
LINE
  5
1B0DE
  8
ACCESSORIES
 10
-176.9864718901810932
 20
-21.5332462106000015
 30
0.0
 11
-176.9864718901810932
 21
-19.6037107775000017
 31
0.0
  0
LINE
  5
1B0DF
  8
ACCESSORIES
 10
-177.1242671656812036
 20
-21.6710414860999698
 30
0.0
 11
-176.9864718901810932
 21
-21.5332462106000015
 31
0.0
  0
LINE
  5
1B0E0
  8
ACCESSORIES
 10
-171.1597002365811875
 20
-21.5332462106000015
 30
0.0
 11
-171.0219049609810895
 21
-21.6710414860999698
 31
0.0
  0
ARC
  5
1B0E1
  8
ACCESSORIES
 10
-175.1866400503811008
 20
-19.7334143689999983
 30
0.0
 40
0.3937007874000033
 50
160.7647784828455997
 51
19.2352215171543612
  0
ARC
  5
1B0E2
  8
ACCESSORIES
 10
-172.959532078081196
 20
-19.7334143707999807
 30
0.0
 40
0.3937007874000015
 50
160.7647782054006029
 51
19.2352217945993686
  0
CIRCLE
  5
1B0E3
  8
ACCESSORIES
 10
-174.0730860553312027
 20
-20.1947685577499989
 30
0.0
 40
0.3937007921582365
  0
ARC
  5
1B0E4
  8
ACCESSORIES
 10
-134.7030073231813105
 20
33.3486435532000201
 30
0.0
 40
0.8858267717000103
 50
262.3567523593782767
 51
97.6622556590100146
  0
ARC
  5
1B0E5
  8
ACCESSORIES
 10
-134.7030073231813105
 20
33.3486435532000201
 30
0.0
 40
0.8858267717000103
 50
66.4218215274427024
 51
71.8737960391405153
  0
LINE
  5
1B0E6
  8
ACCESSORIES
 10
-134.8211175593810083
 20
33.4687240307417824
 30
0.0
 11
-134.7817474806560938
 21
33.4687240306417735
 31
0.0
  0
ARC
  5
1B0E7
  8
ACCESSORIES
 10
-134.7817474805561915
 20
33.5080941092167919
 30
0.0
 40
0.0393700785750184
 50
269.9999998544888058
 51
0.0000009094566603
  0
ARC
  5
1B0E8
  8
ACCESSORIES
 10
-134.6242671655811023
 20
33.5061238682000067
 30
0.0
 40
0.0393700788000047
 50
179.9999999999658087
 51
269.9999998544888058
  0
LINE
  5
1B0E9
  8
ACCESSORIES
 10
-134.6242671656812036
 20
33.4667537894000233
 30
0.0
 11
-134.4667868506562058
 21
33.466753789000073
 31
0.0
  0
ARC
  5
1B0EA
  8
ACCESSORIES
 10
-134.4667868505561898
 20
33.5061238675750914
 30
0.0
 40
0.0393700785750184
 50
269.9999998544888058
 51
0.0000009094566603
  0
ARC
  5
1B0EB
  8
ACCESSORIES
 10
-134.3093065357811042
 20
33.506125641341697
 30
0.0
 40
0.0393700788000047
 50
179.9999999999658087
 51
269.9999998544888058
  0
LINE
  5
1B0EC
  8
ACCESSORIES
 10
-134.3093065358812055
 20
33.4667555625417208
 30
0.0
 11
-134.1518262208562078
 21
33.4667555621417705
 31
0.0
  0
ARC
  5
1B0ED
  8
ACCESSORIES
 10
-134.1518262207561918
 20
33.5061256407167889
 30
0.0
 40
0.0393700785750184
 50
269.9999998544888058
 51
0.0000009094566603
  0
ARC
  5
1B0EE
  8
ACCESSORIES
 10
-133.9943459058810902
 20
33.5061238682000067
 30
0.0
 40
0.0393700787000171
 50
180.0000000180675954
 51
0.0000000180757284
  0
LINE
  5
1B0EF
  8
ACCESSORIES
 10
-134.7423774019812015
 20
34.2335950018000119
 30
0.0
 11
-134.7423774019812015
 21
33.5080941098417213
 31
0.0
  0
LINE
  5
1B0F0
  8
ACCESSORIES
 10
-134.6636372443811069
 20
33.506123868200028
 30
0.0
 11
-134.6636372444812082
 21
34.233595001791187
 31
0.0
  0
LINE
  5
1B0F1
  8
ACCESSORIES
 10
-134.4274167719810862
 20
34.1905098832000078
 30
0.0
 11
-134.4274167720811874
 21
33.5061238682000067
 31
0.0
  0
LINE
  5
1B0F2
  8
ACCESSORIES
 10
-134.3486766145811941
 20
33.5061256413417325
 30
0.0
 11
-134.3486766145811941
 21
34.1605172000216797
 31
0.0
  0
LINE
  5
1B0F3
  8
ACCESSORIES
 10
-134.1124561420811858
 20
34.0088998458000233
 30
0.0
 11
-134.1124561421810881
 21
33.506125641341697
 31
0.0
  0
LINE
  5
1B0F4
  8
ACCESSORIES
 10
-134.0337159845811925
 20
33.5061238681875935
 30
0.0
 11
-134.0337159845811925
 21
33.9289350088801882
 31
0.0
  0
LINE
  5
1B0F5
  8
ACCESSORIES
 10
-133.9549758271811868
 20
33.8231305924881696
 30
0.0
 11
-133.9549758271811868
 21
33.5061238682124269
 31
0.0
  0
ARC
  5
1B0F6
  8
ACCESSORIES
 10
-134.8211175113812033
 20
33.6458875511000102
 30
0.0
 40
0.0984251968999884
 50
36.8699443321970293
 51
90.0000279419087832
  0
ARC
  5
1B0F7
  8
ACCESSORIES
 10
-134.8211175113812033
 20
33.6458875511000102
 30
0.0
 40
0.0984251968999884
 50
269.9999720580897247
 51
323.1300556678028784
  0
ARC
  5
1B0F8
  8
ACCESSORIES
 10
-134.8211175113812033
 20
33.6458875511000102
 30
0.0
 40
0.0688976377999993
 50
269.9999600829880251
 51
90.0000399170125718
  0
ARC
  5
1B0F9
  8
ACCESSORIES
 10
-134.5852821171341134
 20
33.6458875511000102
 30
0.0
 40
0.0984251968999884
 50
216.8699443321955016
 51
143.1300556678044984
  0
CIRCLE
  5
1B0FA
  8
ACCESSORIES
 10
-134.5852821171341134
 20
33.6458875511000102
 30
0.0
 40
0.0688976377999993
  0
LINE
  5
1B0FB
  8
ACCESSORIES
 10
-134.8211175593810083
 20
33.228563075658279
 30
0.0
 11
-134.7817474806560938
 21
33.2285630757582808
 31
0.0
  0
ARC
  5
1B0FC
  8
ACCESSORIES
 10
-134.7817474805561915
 20
33.1891929971832624
 30
0.0
 40
0.0393700785750184
 50
359.999999090541678
 51
90.0000001455112368
  0
ARC
  5
1B0FD
  8
ACCESSORIES
 10
-134.6242671655811023
 20
33.1911632382000334
 30
0.0
 40
0.0393700788000047
 50
90.0000001455112368
 51
180.000000000032486
  0
LINE
  5
1B0FE
  8
ACCESSORIES
 10
-134.6242671656812036
 20
33.2305333170000168
 30
0.0
 11
-134.4667868506562058
 21
33.2305333173999671
 31
0.0
  0
ARC
  5
1B0FF
  8
ACCESSORIES
 10
-134.4667868505561898
 20
33.1911632388249629
 30
0.0
 40
0.0393700785750184
 50
359.999999090541678
 51
90.0000001455112368
  0
ARC
  5
1B100
  8
ACCESSORIES
 10
-134.3093065357811042
 20
33.1911614650583431
 30
0.0
 40
0.0393700788000047
 50
90.0000001455112368
 51
180.000000000032486
  0
LINE
  5
1B101
  8
ACCESSORIES
 10
-134.3093065358812055
 20
33.2305315438583193
 30
0.0
 11
-134.1518262208562078
 21
33.2305315442582696
 31
0.0
  0
ARC
  5
1B102
  8
ACCESSORIES
 10
-134.1518262207561918
 20
33.1911614656832512
 30
0.0
 40
0.0393700785750184
 50
359.999999090541678
 51
90.0000001455112368
  0
ARC
  5
1B103
  8
ACCESSORIES
 10
-133.9943459058810902
 20
33.1911632382000334
 30
0.0
 40
0.0393700787000171
 50
359.9999999819241907
 51
179.999999981930813
  0
LINE
  5
1B104
  8
ACCESSORIES
 10
-134.7423774019812015
 20
32.4636921046000282
 30
0.0
 11
-134.7423774019812015
 21
33.1891929965583188
 31
0.0
  0
LINE
  5
1B105
  8
ACCESSORIES
 10
-134.6636372444810945
 20
33.1891947697000234
 30
0.0
 11
-134.6636372444812082
 21
32.4636921046088602
 31
0.0
  0
LINE
  5
1B106
  8
ACCESSORIES
 10
-134.4274167719810862
 20
32.5067772232000323
 30
0.0
 11
-134.4274167720811874
 21
33.1911632382000334
 31
0.0
  0
LINE
  5
1B107
  8
ACCESSORIES
 10
-134.3486766145811941
 20
33.1911614650583218
 30
0.0
 11
-134.3486766145811941
 21
32.5367699063783675
 31
0.0
  0
LINE
  5
1B108
  8
ACCESSORIES
 10
-134.1124561420811858
 20
32.6883872606000168
 30
0.0
 11
-134.1124561421810881
 21
33.1911614650583431
 31
0.0
  0
LINE
  5
1B109
  8
ACCESSORIES
 10
-134.0337159845811925
 20
33.1911632382124466
 30
0.0
 11
-134.0337159845811925
 21
32.7683520975198519
 31
0.0
  0
LINE
  5
1B10A
  8
ACCESSORIES
 10
-133.9549758271811868
 20
32.8741565139118705
 30
0.0
 11
-133.9549758271811868
 21
33.1911632381876132
 31
0.0
  0
CIRCLE
  5
1B10B
  8
ACCESSORIES
 10
-134.3070781331811929
 20
33.1538198070000192
 30
0.0
 40
0.0275590550999917
  0
LINE
  5
1B10C
  8
ACCESSORIES
 10
-177.1242671656812036
 20
-19.6037107775000017
 30
0.0
 11
-171.1597002365811875
 21
-19.6037107775000017
 31
0.0
  0
LINE
  5
1B10D
  8
ACCESSORIES
 10
-134.8211175593810083
 20
33.7836828267000229
 30
0.0
 11
-134.7423774019812015
 21
33.7836828267000087
 31
0.0
  0
LINE
  5
1B10E
  8
ACCESSORIES
 10
-134.6636372444193057
 20
33.7836828267000229
 30
0.0
 11
-134.4862514657808958
 21
33.7836828267000229
 31
0.0
  0
LINE
  5
1B10F
  8
ACCESSORIES
 10
-134.4862514657808958
 20
33.7836828267000229
 30
0.0
 11
-134.4862514657808958
 21
33.5080923367000167
 31
0.0
  0
LINE
  5
1B110
  8
ACCESSORIES
 10
-134.4862514657808958
 20
33.5080923367000167
 30
0.0
 11
-134.6636372443813912
 21
33.5080923367000167
 31
0.0
  0
LINE
  5
1B111
  8
ACCESSORIES
 10
-134.8211175593810083
 20
33.5080923367000167
 30
0.0
 11
-134.7423774020211056
 21
33.5080923367000167
 31
0.0
  0
LINE
  5
1B112
  8
ACCESSORIES
 10
-134.8210076618321978
 20
33.5474624155000072
 30
0.0
 11
-134.7423774019812015
 21
33.5474624155000001
 31
0.0
  0
LINE
  5
1B113
  8
ACCESSORIES
 10
-134.6636372443867913
 20
33.5474624155000001
 30
0.0
 11
-134.4862514657808958
 21
33.5474624155000001
 31
0.0
  0
LINE
  5
1B114
  8
ACCESSORIES
 10
-134.8211175113812033
 20
33.7443127480000129
 30
0.0
 11
-134.7423774019812015
 21
33.74431274800002
 31
0.0
  0
LINE
  5
1B115
  8
ACCESSORIES
 10
-134.6636372444139056
 20
33.74431274800002
 30
0.0
 11
-134.4862514657808958
 21
33.7443127480000129
 31
0.0
  0
ARC
  5
1B116
  8
ACCESSORIES
 10
-134.7027868507809103
 20
33.3486435532000769
 30
0.0
 40
0.1574803149999447
 50
104.8102474572026068
 51
130.3139322043730033
  0
ARC
  5
1B117
  8
ACCESSORIES
 10
-134.7027868507809956
 20
33.3486435531998922
 30
0.0
 40
0.1574803150001447
 50
48.5903778255239516
 51
75.4842392136518896
  0
ARC
  5
1B118
  8
ACCESSORIES
 10
-134.7027868507813082
 20
33.3486435531992669
 30
0.0
 40
0.1574803149991509
 50
229.6860677952311107
 51
255.1897525428705933
  0
ARC
  5
1B119
  8
ACCESSORIES
 10
-134.7027868507809103
 20
33.3486435531999987
 30
0.0
 40
0.1574803149999735
 50
284.5157607863324074
 51
311.4096221745584785
  0
LINE
  5
1B11A
  8
ACCESSORIES
 10
-134.8211175593810083
 20
33.1341347720000172
 30
0.0
 11
-134.7423774019812015
 21
33.1341347720000101
 31
0.0
  0
LINE
  5
1B11B
  8
ACCESSORIES
 10
-134.8211175593810083
 20
33.1735048420000211
 30
0.0
 11
-134.7423774019812015
 21
33.1735048420000211
 31
0.0
  0
LINE
  5
1B11C
  8
ACCESSORIES
 10
-134.6636372444810945
 20
33.1341347720000172
 30
0.0
 11
-134.427416772072803
 21
33.1341347720000101
 31
0.0
  0
LINE
  5
1B11D
  8
ACCESSORIES
 10
-134.6636372444810945
 20
33.1735048420000211
 30
0.0
 11
-134.4274167720786011
 21
33.1735048420000211
 31
0.0
  0
ARC
  5
1B11E
  8
ACCESSORIES
 10
-134.7027868507811093
 20
33.3486435531985634
 30
0.0
 40
0.7086614172985285
 50
260.3878530872984811
 51
266.7974083808522892
  0
ARC
  5
1B11F
  8
ACCESSORIES
 10
-134.7027868507807966
 20
33.3486435531996079
 30
0.0
 40
0.7086614172995875
 50
273.166885765602899
 51
292.8660334913947167
  0
ARC
  5
1B120
  8
ACCESSORIES
 10
-134.7027868507809956
 20
33.3486435532001195
 30
0.0
 40
0.7086614173000881
 50
299.9794191873825753
 51
326.4104566281047255
  0
ARC
  5
1B121
  8
ACCESSORIES
 10
-134.7027868507780113
 20
33.3486435531993735
 30
0.0
 40
0.7086614172969531
 50
340.7577024924750049
 51
350.3020424379320161
  0
ARC
  5
1B122
  8
ACCESSORIES
 10
-134.7027868507807966
 20
33.3486435531988974
 30
0.0
 40
0.7086614173011317
 50
93.2025916191642523
 51
99.6121469126920545
  0
ARC
  5
1B123
  8
ACCESSORIES
 10
-134.7027868507809103
 20
33.3486435531999987
 30
0.0
 40
0.708661417300022
 50
67.1339665086001531
 51
86.833114232415582
  0
ARC
  5
1B124
  8
ACCESSORIES
 10
-134.7027868507819903
 20
33.3486435531987766
 30
0.0
 40
0.7086614173016015
 50
33.5895433720632468
 51
60.0205808126441482
  0
ARC
  5
1B125
  8
ACCESSORIES
 10
-134.7027868507817061
 20
33.3486435532000414
 30
0.0
 40
0.7086614173007045
 50
9.6979575620686163
 51
19.2422975077989697
  0
ARC
  5
1B126
  8
ACCESSORIES
 10
-134.7027868507817914
 20
33.348643553191792
 30
0.0
 40
0.807086614191729
 50
261.569209730470277
 51
267.1883040126139122
  0
ARC
  5
1B127
  8
ACCESSORIES
 10
-134.7027868507809103
 20
33.3486435531996577
 30
0.0
 40
0.8070866141996372
 50
272.7803556156874834
 51
289.949406756069493
  0
ARC
  5
1B128
  8
ACCESSORIES
 10
-134.7027868507805124
 20
33.3486435531994232
 30
0.0
 40
0.8070866141992445
 50
296.0242311433812006
 51
317.0067587177069868
  0
ARC
  5
1B129
  8
ACCESSORIES
 10
-134.7027868507794892
 20
33.3486435531993379
 30
0.0
 40
0.8070866141984051
 50
325.995650694101073
 51
337.9041833122997218
  0
ARC
  5
1B12A
  8
ACCESSORIES
 10
-134.7027868507811093
 20
33.3486435532007306
 30
0.0
 40
0.807086614199277
 50
92.8116959874065657
 51
98.4307902694858115
  0
ARC
  5
1B12B
  8
ACCESSORIES
 10
-134.7027868507809103
 20
33.3486435532000414
 30
0.0
 40
0.8070866141999706
 50
70.0505932439326529
 51
87.2196443835408246
  0
ARC
  5
1B12C
  8
ACCESSORIES
 10
-134.7027868507811945
 20
33.3486435531997003
 30
0.0
 40
0.8070866142004017
 50
42.9932412822190528
 51
63.9757688565623823
  0
ARC
  5
1B12D
  8
ACCESSORIES
 10
-134.702786850787902
 20
33.3486435531960979
 30
0.0
 40
0.8070866142080085
 50
22.0958166880809586
 51
34.0043493060136868
  0
ENDBLK
  5
1B12E
  8
0
  0
BLOCK
  8
0
  2
WOOD
 70
     0
 10
0.0
 20
0.0
 30
0.0
  3
WOOD
  1

  0
ARC
  5
1B133
  8
WOOD
 10
-139.3556727027998079
 20
-26.7099796968842291
 30
0.0
 40
0.1181102361998915
 50
359.9999999999632792
 51
90.0
  0
ARC
  5
1B134
  8
WOOD
 10
-139.3556727028010016
 20
-27.458011192984241
 30
0.0
 40
0.1181102362006356
 50
270.0
 51
359.9999999999604938
  0
ARC
  5
1B135
  8
WOOD
 10
-138.3320506555999998
 20
-26.7099796968842291
 30
0.0
 40
0.1181102361998915
 50
90.0
 51
180.0000000000366072
  0
ARC
  5
1B136
  8
WOOD
 10
-138.3320506555986924
 20
-27.458011192984241
 30
0.0
 40
0.1181102362006356
 50
180.0000000000393072
 51
270.0
  0
ARC
  5
1B137
  8
WOOD
 10
-135.4186648287997912
 20
-26.7099796968842291
 30
0.0
 40
0.1181102361998915
 50
359.9999999999632792
 51
90.0
  0
ARC
  5
1B138
  8
WOOD
 10
-135.4186648288010133
 20
-27.458011192984241
 30
0.0
 40
0.1181102362006356
 50
270.0
 51
359.9999999999604938
  0
ARC
  5
1B139
  8
WOOD
 10
-131.4816569547998029
 20
-26.7099796968842291
 30
0.0
 40
0.1181102361998915
 50
359.9999999999632792
 51
90.0
  0
ARC
  5
1B13A
  8
WOOD
 10
-131.4816569548009966
 20
-27.458011192984241
 30
0.0
 40
0.1181102362006356
 50
270.0
 51
359.9999999999604938
  0
ARC
  5
1B13B
  8
WOOD
 10
-127.5446490807998003
 20
-26.7099796968842291
 30
0.0
 40
0.1181102361998915
 50
359.9999999999632792
 51
90.0
  0
ARC
  5
1B13C
  8
WOOD
 10
-127.5446490808009941
 20
-27.458011192984241
 30
0.0
 40
0.1181102362006356
 50
270.0
 51
359.9999999999604938
  0
ARC
  5
1B13D
  8
WOOD
 10
-123.6076412067997978
 20
-26.7099796968842291
 30
0.0
 40
0.1181102361998915
 50
359.9999999999632792
 51
90.0
  0
ARC
  5
1B13E
  8
WOOD
 10
-123.6076412068010058
 20
-27.458011192984241
 30
0.0
 40
0.1181102362006356
 50
270.0
 51
359.9999999999604938
  0
ARC
  5
1B13F
  8
WOOD
 10
-134.3950427816002104
 20
-26.7099796968842291
 30
0.0
 40
0.1181102361998915
 50
90.0
 51
180.0000000000366072
  0
ARC
  5
1B140
  8
WOOD
 10
-134.3950427815989883
 20
-27.458011192984241
 30
0.0
 40
0.1181102362006356
 50
180.0000000000393072
 51
270.0
  0
ARC
  5
1B141
  8
WOOD
 10
-130.4580349076001937
 20
-26.7099796968842291
 30
0.0
 40
0.1181102361998915
 50
90.0
 51
180.0000000000366072
  0
ARC
  5
1B142
  8
WOOD
 10
-130.4580349075988863
 20
-27.458011192984241
 30
0.0
 40
0.1181102362006356
 50
180.0000000000393072
 51
270.0
  0
ARC
  5
1B143
  8
WOOD
 10
-126.5210270336002054
 20
-26.7099796968842291
 30
0.0
 40
0.1181102361998915
 50
90.0
 51
180.0000000000366072
  0
ARC
  5
1B144
  8
WOOD
 10
-126.5210270335989975
 20
-27.458011192984241
 30
0.0
 40
0.1181102362006356
 50
180.0000000000393072
 51
270.0
  0
ARC
  5
1B145
  8
WOOD
 10
-122.5840191596002029
 20
-26.7099796968842291
 30
0.0
 40
0.1181102361998915
 50
90.0
 51
180.0000000000366072
  0
ARC
  5
1B146
  8
WOOD
 10
-122.584019159598995
 20
-27.458011192984241
 30
0.0
 40
0.1181102362006356
 50
180.0000000000393072
 51
270.0
  0
LINE
  5
1B147
  8
WOOD
 10
-87.9680735321882139
 20
-31.5106801814182305
 30
0.0
 11
-87.8691043911001088
 21
-31.5106801814182305
 31
0.0
  0
LINE
  5
1B148
  8
WOOD
 10
-121.9153892382001061
 20
-58.3635230039843123
 30
0.0
 11
-121.9153892382001061
 21
-51.1977434764842982
 31
0.0
  0
LINE
  5
1B149
  8
WOOD
 10
-121.9153892382001061
 20
-51.1977434764842982
 30
0.0
 11
-121.797538844499897
 21
-51.1977434764842698
 31
0.0
  0
LINE
  5
1B14A
  8
WOOD
 10
-117.8211608917003019
 20
-51.1977434764842698
 30
0.0
 11
-94.5140742776000167
 21
-51.1977434764842982
 31
0.0
  0
LINE
  5
1B14B
  8
WOOD
 10
-90.5376963247999811
 20
-51.1977434764842982
 30
0.0
 11
-90.4193262461001268
 21
-51.1977434764842982
 31
0.0
  0
LINE
  5
1B14C
  8
WOOD
 10
-121.9153892382001061
 20
-55.3316017441842973
 30
0.0
 11
-121.797538844499897
 21
-55.3316017441842973
 31
0.0
  0
LINE
  5
1B14D
  8
WOOD
 10
-117.8211608917003019
 20
-55.3316017441842973
 30
0.0
 11
-94.5140742776000167
 21
-55.3316017441844394
 31
0.0
  0
LINE
  5
1B14E
  8
WOOD
 10
-90.5376963247999811
 20
-55.3316017441844394
 30
0.0
 11
-90.4193262461001268
 21
-55.3316017441844679
 31
0.0
  0
LINE
  5
1B14F
  8
WOOD
 10
-90.4193262461001268
 20
-51.1977434764842982
 30
0.0
 11
-90.4193262461002547
 21
-58.3635230039843123
 31
0.0
  0
LINE
  5
1B150
  8
WOOD
 10
-86.1557562552243326
 20
-58.3241529252843023
 30
0.0
 11
-90.4193262461001268
 21
-58.3241529252843023
 31
0.0
  0
LINE
  5
1B151
  8
WOOD
 10
-86.1560405291895677
 20
-57.6548615866843193
 30
0.0
 11
-90.4193262461001268
 21
-57.6548615866843193
 31
0.0
  0
LINE
  5
1B152
  8
WOOD
 10
-90.5376963247999811
 20
-48.7965938701842887
 30
0.0
 11
-86.1858939840416269
 21
-48.7965938701842887
 31
0.0
  0
LINE
  5
1B153
  8
WOOD
 10
-86.1837768726057902
 20
-49.4658846569251409
 30
0.0
 11
-90.5376963247999811
 21
-49.4658846569251693
 31
0.0
  0
LINE
  5
1B154
  8
WOOD
 10
-135.9707512437001071
 20
-43.5206017441843187
 30
0.0
 11
-135.9707512437001924
 21
-58.3635230039843123
 31
0.0
  0
LINE
  5
1B155
  8
WOOD
 10
-135.4195588628001019
 20
-43.5206017441843187
 30
0.0
 11
-135.4195588628001019
 21
-58.3635230039843123
 31
0.0
  0
LINE
  5
1B156
  8
WOOD
 10
-141.7187986870000884
 20
-43.5206017441842832
 30
0.0
 11
-121.797538844499897
 21
-43.5206017441842619
 31
0.0
  0
LINE
  5
1B157
  8
WOOD
 10
-117.8211608917002025
 20
-43.5206017441842619
 30
0.0
 11
-94.5140742776000167
 21
-43.5206017441842832
 31
0.0
  0
LINE
  5
1B158
  8
WOOD
 10
-90.5376963247999811
 20
-43.5206017441843187
 30
0.0
 11
-86.2025830876216332
 21
-43.5206017441843187
 31
0.0
  0
LINE
  5
1B159
  8
WOOD
 10
-139.9077750650000951
 20
-43.5206017441843187
 30
0.0
 11
-139.9077750650000951
 21
-58.3635230039843123
 31
0.0
  0
LINE
  5
1B15A
  8
WOOD
 10
-139.3565826841002036
 20
-43.5206017441843187
 30
0.0
 11
-139.3565826841002888
 21
-58.3635230039843123
 31
0.0
  0
LINE
  5
1B15B
  8
WOOD
 10
-132.0337433697000904
 20
-45.5879324527843082
 30
0.0
 11
-132.0337433697002893
 21
-58.3635230039843123
 31
0.0
  0
LINE
  5
1B15C
  8
WOOD
 10
-131.4825509888001989
 20
-45.5879324527843082
 30
0.0
 11
-131.4825509888001989
 21
-58.3635230039843123
 31
0.0
  0
LINE
  5
1B15D
  8
WOOD
 10
-128.0967354956999884
 20
-45.5879324527843366
 30
0.0
 11
-128.0967354957001874
 21
-58.3635230039843123
 31
0.0
  0
LINE
  5
1B15E
  8
WOOD
 10
-127.5455431148001963
 20
-45.5879324527843366
 30
0.0
 11
-127.5455431148001963
 21
-58.3635230039843123
 31
0.0
  0
LINE
  5
1B15F
  8
WOOD
 10
-124.1597276217000996
 20
-43.5206017441843187
 30
0.0
 11
-124.1597276217000996
 21
-58.3635230039843123
 31
0.0
  0
LINE
  5
1B160
  8
WOOD
 10
-123.6085352408000944
 20
-43.5206017441843187
 30
0.0
 11
-123.6085352408000944
 21
-58.3635230039843123
 31
0.0
  0
LINE
  5
1B161
  8
WOOD
 10
-116.2857278209001066
 20
-43.5206017441842832
 30
0.0
 11
-116.2857278209001066
 21
-45.784782846484319
 31
0.0
  0
LINE
  5
1B162
  8
WOOD
 10
-116.2857278209001066
 20
-49.1706096181843009
 30
0.0
 11
-116.2857278209001066
 21
-51.1977434764842982
 31
0.0
  0
LINE
  5
1B163
  8
WOOD
 10
-116.2857278209001066
 20
-55.3316017441842973
 30
0.0
 11
-116.2857278209002061
 21
-58.1273025315842915
 31
0.0
  0
LINE
  5
1B164
  8
WOOD
 10
-115.7345354400002009
 20
-43.5206017441842832
 30
0.0
 11
-115.7345354400002009
 21
-45.8884337273165386
 31
0.0
  0
LINE
  5
1B165
  8
WOOD
 10
-115.7345354400002009
 20
-49.0669587373520812
 30
0.0
 11
-115.7345354400002009
 21
-51.1977434764842982
 31
0.0
  0
LINE
  5
1B166
  8
WOOD
 10
-115.7345354400002009
 20
-55.3316017441842973
 30
0.0
 11
-115.7345354400003998
 21
-58.1273025315842915
 31
0.0
  0
LINE
  5
1B167
  8
WOOD
 10
-112.3487039996003034
 20
-43.5206017441843187
 30
0.0
 11
-112.3487039996003034
 21
-51.1977434764842982
 31
0.0
  0
LINE
  5
1B168
  8
WOOD
 10
-112.3487039996001045
 20
-55.3316017441842973
 30
0.0
 11
-112.3487039996003034
 21
-58.1273025315843199
 31
0.0
  0
LINE
  5
1B169
  8
WOOD
 10
-111.7975116187001987
 20
-43.5206017441843187
 30
0.0
 11
-111.7975116187002982
 21
-51.1977434764842982
 31
0.0
  0
LINE
  5
1B16A
  8
WOOD
 10
-111.7975116187001987
 20
-55.3316017441842973
 30
0.0
 11
-111.7975116187001987
 21
-58.1273025315843199
 31
0.0
  0
LINE
  5
1B16B
  8
WOOD
 10
-108.4116961256001019
 20
-43.5206017441843187
 30
0.0
 11
-108.4116961256001019
 21
-51.1977434764842982
 31
0.0
  0
LINE
  5
1B16C
  8
WOOD
 10
-108.4116961256001019
 20
-55.3316017441842973
 30
0.0
 11
-108.4116961256002014
 21
-58.1273025315843199
 31
0.0
  0
LINE
  5
1B16D
  8
WOOD
 10
-107.8605037446999972
 20
-43.5206017441843187
 30
0.0
 11
-107.8605037446999972
 21
-51.1977434764842982
 31
0.0
  0
LINE
  5
1B16E
  8
WOOD
 10
-107.8605037447000967
 20
-55.3316017441842973
 30
0.0
 11
-107.8605037447000967
 21
-58.1273025315843199
 31
0.0
  0
LINE
  5
1B16F
  8
WOOD
 10
-104.4746882516000994
 20
-43.5206017441843187
 30
0.0
 11
-104.4746882515999999
 21
-51.1977434764842982
 31
0.0
  0
LINE
  5
1B170
  8
WOOD
 10
-104.4746882516000994
 20
-55.3316017441842973
 30
0.0
 11
-104.4746882516001989
 21
-58.1273025315843199
 31
0.0
  0
LINE
  5
1B171
  8
WOOD
 10
-103.9234958707000942
 20
-43.5206017441843187
 30
0.0
 11
-103.9234958707000942
 21
-51.1977434764842982
 31
0.0
  0
LINE
  5
1B172
  8
WOOD
 10
-103.9234958707000942
 20
-55.3316017441842973
 30
0.0
 11
-103.9234958707000942
 21
-58.1273025315843199
 31
0.0
  0
LINE
  5
1B173
  8
WOOD
 10
-100.5376803776001964
 20
-43.5206017441841411
 30
0.0
 11
-100.5376803776001964
 21
-51.1977434764842982
 31
0.0
  0
LINE
  5
1B174
  8
WOOD
 10
-100.5376803776002959
 20
-55.3316017441842973
 30
0.0
 11
-100.5376803776001964
 21
-58.1273025315843199
 31
0.0
  0
LINE
  5
1B175
  8
WOOD
 10
-99.9864879967001343
 20
-43.5206017441841411
 30
0.0
 11
-99.9864879967001343
 21
-51.1977434764842982
 31
0.0
  0
LINE
  5
1B176
  8
WOOD
 10
-99.986487996700248
 20
-55.3316017441842973
 30
0.0
 11
-99.986487996700248
 21
-58.1273025315843199
 31
0.0
  0
LINE
  5
1B177
  8
WOOD
 10
-96.6006725036002223
 20
-43.5206017441843187
 30
0.0
 11
-96.6006725036002223
 21
-51.1977434764842982
 31
0.0
  0
LINE
  5
1B178
  8
WOOD
 10
-96.6006725036002223
 20
-55.3316017441842973
 30
0.0
 11
-96.6006725036000944
 21
-58.1273025315843199
 31
0.0
  0
LINE
  5
1B179
  8
WOOD
 10
-96.0494801227001744
 20
-43.5206017441843187
 30
0.0
 11
-96.0494801227001744
 21
-51.1977434764842982
 31
0.0
  0
LINE
  5
1B17A
  8
WOOD
 10
-96.0494801227002739
 20
-55.3316017441842973
 30
0.0
 11
-96.0494801227001744
 21
-58.1273025315843199
 31
0.0
  0
LINE
  5
1B17B
  8
WOOD
 10
-88.6733187215158978
 20
-43.5206017441843187
 30
0.0
 11
-88.6733187215159973
 21
-48.7965938701842887
 31
0.0
  0
LINE
  5
1B17C
  8
WOOD
 10
-88.1221263406159778
 20
-43.5206017441843187
 30
0.0
 11
-88.1221263406159778
 21
-48.7965938701842887
 31
0.0
  0
LINE
  5
1B17D
  8
WOOD
 10
-121.797538844499897
 20
-26.5918694606843395
 30
0.0
 11
-141.7187986870000884
 21
-26.5918694606842791
 31
0.0
  0
LINE
  5
1B17E
  8
WOOD
 10
-141.7187986870000884
 20
-27.5761214291843011
 30
0.0
 11
-121.797538844499897
 21
-27.5761214291843011
 31
0.0
  0
LINE
  5
1B17F
  8
WOOD
 10
-141.4031372697002098
 20
-27.5761214291843011
 30
0.0
 11
-141.4031372697002098
 21
-28.1666726102843086
 31
0.0
  0
LINE
  5
1B180
  8
WOOD
 10
-121.797538844499897
 20
-28.1666726102843086
 30
0.0
 11
-141.7187986870000884
 21
-28.1666726102843086
 31
0.0
  0
LINE
  5
1B181
  8
WOOD
 10
-141.7187986870000884
 20
-28.5599992773333895
 30
0.0
 11
-121.797538844499897
 21
-28.5603511335314089
 31
0.0
  0
LINE
  5
1B182
  8
WOOD
 10
-141.7187986870000884
 20
-30.7257277283842996
 30
0.0
 11
-121.797538844499897
 21
-30.7257277283842996
 31
0.0
  0
LINE
  5
1B183
  8
WOOD
 10
-139.6321766398000932
 20
-8.0391498581843166
 30
0.0
 11
-139.6321766398000932
 21
-11.2342674811843004
 31
0.0
  0
LINE
  5
1B184
  8
WOOD
 10
-139.6321766398000932
 20
-11.2342674811843004
 30
0.0
 11
-121.7975388444997975
 21
-11.2340317810715593
 31
0.0
  0
LINE
  5
1B185
  8
WOOD
 10
-117.8211608917002025
 20
-11.2339792298090799
 30
0.0
 11
-94.5140742776000309
 21
-11.2336712065676601
 31
0.0
  0
LINE
  5
1B186
  8
WOOD
 10
-90.5376963247999811
 20
-11.2336186553052109
 30
0.0
 11
-78.4904522304000238
 21
-11.2334594405892005
 31
0.0
  0
LINE
  5
1B187
  8
WOOD
 10
-78.4904522304000238
 20
-8.0391498580843006
 30
0.0
 11
-90.5376963247999811
 21
-8.0391498580843006
 31
0.0
  0
LINE
  5
1B188
  8
WOOD
 10
-94.5140742776000309
 20
-8.0391498580843006
 30
0.0
 11
-117.8211608917002025
 21
-8.0391498580843006
 31
0.0
  0
LINE
  5
1B189
  8
WOOD
 10
-121.7975388444997975
 20
-8.039149858084329
 30
0.0
 11
-139.6321766398000932
 21
-8.0391498580843006
 31
0.0
  0
LINE
  5
1B18A
  8
WOOD
 10
-139.6321766398000932
 20
-12.0282588418843108
 30
0.0
 11
-139.6321766398000932
 21
-15.2233764648843195
 31
0.0
  0
LINE
  5
1B18B
  8
WOOD
 10
-139.6321766398000932
 20
-15.2233764648843195
 30
0.0
 11
-121.7975388444997975
 21
-15.2231407647715606
 31
0.0
  0
LINE
  5
1B18C
  8
WOOD
 10
-117.8211608917002025
 20
-15.2230882135090706
 30
0.0
 11
-94.5140742776000309
 21
-15.2227801902676507
 31
0.0
  0
LINE
  5
1B18D
  8
WOOD
 10
-90.5376963247999811
 20
-15.2227276390051998
 30
0.0
 11
-78.4904522304000238
 21
-15.2225684242891894
 31
0.0
  0
LINE
  5
1B18E
  8
WOOD
 10
-78.4904522304000238
 20
-12.0282588417842895
 30
0.0
 11
-90.5376963247999811
 21
-12.0282588417842895
 31
0.0
  0
LINE
  5
1B18F
  8
WOOD
 10
-94.5140742776000309
 20
-12.0282588417842895
 30
0.0
 11
-117.8211608917002025
 21
-12.0282588417842895
 31
0.0
  0
LINE
  5
1B190
  8
WOOD
 10
-121.7975388444997975
 20
-12.0282588417843197
 30
0.0
 11
-139.6321766398000932
 21
-12.0282588417842895
 31
0.0
  0
LINE
  5
1B191
  8
WOOD
 10
-141.7187986870000884
 20
-39.3867434764842983
 30
0.0
 11
-121.797538844499897
 21
-39.3867434764842983
 31
0.0
  0
LINE
  5
1B192
  8
WOOD
 10
-117.8211608917003019
 20
-39.3867434764843622
 30
0.0
 11
-94.5140742776000167
 21
-39.3867434764842983
 31
0.0
  0
LINE
  5
1B193
  8
WOOD
 10
-90.5376963247999811
 20
-39.3867434764842983
 30
0.0
 11
-88.574832385567106
 21
-39.3867434764842983
 31
0.0
  0
LINE
  5
1B194
  8
WOOD
 10
-86.2129195813894285
 20
-40.2528852087842992
 30
0.0
 11
-90.5376963247999811
 21
-40.2528852087842992
 31
0.0
  0
LINE
  5
1B195
  8
WOOD
 10
-94.5140742776000167
 20
-40.2528852087842779
 30
0.0
 11
-117.8211608917002025
 21
-40.2528852087842992
 31
0.0
  0
LINE
  5
1B196
  8
WOOD
 10
-121.797538844499897
 20
-40.2528852087842992
 30
0.0
 11
-141.7187986870000884
 21
-40.2528852087842992
 31
0.0
  0
LINE
  5
1B197
  8
WOOD
 10
-141.7187986870000884
 20
-38.5993419016842907
 30
0.0
 11
-121.797538844499897
 21
-38.5993419016842907
 31
0.0
  0
LINE
  5
1B198
  8
WOOD
 10
-117.8211608917002025
 20
-38.599341901684312
 30
0.0
 11
-94.5140742776000167
 21
-38.599341901684312
 31
0.0
  0
LINE
  5
1B199
  8
WOOD
 10
-90.5376963247999811
 20
-38.599341901684312
 30
0.0
 11
-88.6357571257040036
 21
-38.599341901684312
 31
0.0
  0
LINE
  5
1B19A
  8
WOOD
 10
-141.7187986870000884
 20
-35.4497356024842816
 30
0.0
 11
-121.797538844499897
 21
-35.4497356024842816
 31
0.0
  0
LINE
  5
1B19B
  8
WOOD
 10
-117.8211608917002025
 20
-35.4497356024842816
 30
0.0
 11
-94.5140742776000167
 21
-35.4497356024842816
 31
0.0
  0
LINE
  5
1B19C
  8
WOOD
 10
-90.5376963247999811
 20
-35.44973560248431
 30
0.0
 11
-88.6361655843131757
 21
-35.44973560248431
 31
0.0
  0
LINE
  5
1B19D
  8
WOOD
 10
-141.7187986870000884
 20
-34.6623340276843308
 30
0.0
 11
-121.797538844499897
 21
-34.6623340276843308
 31
0.0
  0
LINE
  5
1B19E
  8
WOOD
 10
-117.8211608917002025
 20
-34.6623340276843308
 30
0.0
 11
-94.5140742776000167
 21
-34.6623340276843308
 31
0.0
  0
LINE
  5
1B19F
  8
WOOD
 10
-90.5376963247999811
 20
-34.6623340276843308
 30
0.0
 11
-88.495065916924446
 21
-34.6623340276843024
 31
0.0
  0
LINE
  5
1B1A0
  8
WOOD
 10
-141.7187986870000032
 20
-31.5127277283843092
 30
0.0
 11
-121.797538844499897
 21
-31.5127277283843092
 31
0.0
  0
LINE
  5
1B1A1
  8
WOOD
 10
-117.8211608917003019
 20
-31.5127277283842808
 30
0.0
 11
-94.5140742776000167
 21
-31.5127277283843412
 31
0.0
  0
LINE
  5
1B1A2
  8
WOOD
 10
-90.5376963247998674
 20
-31.5127277283843412
 30
0.0
 11
-88.4545489962001739
 21
-31.5127277283843092
 31
0.0
  0
LINE
  5
1B1A3
  8
WOOD
 10
-117.8211608917002025
 20
-30.7257277283843315
 30
0.0
 11
-94.5140742776000167
 21
-30.7257277283842996
 31
0.0
  0
LINE
  5
1B1A4
  8
WOOD
 10
-90.5376963247999811
 20
-30.7257277283842996
 30
0.0
 11
-87.8691043911001088
 21
-30.7257277283842996
 31
0.0
  0
LINE
  5
1B1A5
  8
WOOD
 10
-117.8211608668618027
 20
-27.5759624702364583
 30
0.0
 11
-94.5140742527617164
 21
-27.5763710615264692
 31
0.0
  0
LINE
  5
1B1A6
  8
WOOD
 10
-90.5376963247998674
 20
-27.6940891473890893
 30
0.0
 11
-82.4081073212000774
 21
-27.6942316653843115
 31
0.0
  0
LINE
  5
1B1A7
  8
WOOD
 10
-117.8211608917003019
 20
-26.5918694606843111
 30
0.0
 11
-98.1754916004001643
 21
-26.5918694606843395
 31
0.0
  0
LINE
  5
1B1A8
  8
WOOD
 10
-96.9943892382000428
 20
-26.5918694606843395
 30
0.0
 11
-94.5140742776000167
 21
-26.5918694606843395
 31
0.0
  0
LINE
  5
1B1A9
  8
WOOD
 10
-90.5376963247998674
 20
-26.5918694606843395
 30
0.0
 11
-82.1127302587001253
 21
-26.5918694606843111
 31
0.0
  0
LINE
  5
1B1AA
  8
WOOD
 10
-139.9077750650000951
 20
-26.5918694606843111
 30
0.0
 11
-139.9077750650002088
 21
14.0380517991156903
 31
0.0
  0
LINE
  5
1B1AB
  8
WOOD
 10
-139.3565667368002039
 20
14.0380517991156903
 30
0.0
 11
-139.3565667368002039
 21
-8.0391498580843006
 31
0.0
  0
LINE
  5
1B1AC
  8
WOOD
 10
-139.3568031363313082
 20
-11.2333829549843092
 30
0.0
 11
-139.3567560414460047
 21
-12.0282588417842895
 31
0.0
  0
LINE
  5
1B1AD
  8
WOOD
 10
-139.3565667370160952
 20
-15.2233728224618705
 30
0.0
 11
-139.3558931752002081
 21
-26.5918694606843111
 31
0.0
  0
LINE
  5
1B1AE
  8
WOOD
 10
-135.9776067737786889
 20
-15.2233764648843195
 30
0.0
 11
-135.9769332121786078
 21
-26.5918694606843111
 31
0.0
  0
LINE
  5
1B1AF
  8
WOOD
 10
-135.4257408312786879
 20
-15.2232145697533898
 30
0.0
 11
-135.4250672696786921
 21
-26.5917075655534099
 31
0.0
  0
LINE
  5
1B1B0
  8
WOOD
 10
-132.0344120820637102
 20
-15.2235383601147607
 30
0.0
 11
-132.0337385204636007
 21
-26.5920313559147417
 31
0.0
  0
LINE
  5
1B1B1
  8
WOOD
 10
-131.4825461395635955
 20
-15.2233764649838506
 30
0.0
 11
-131.4818725779635997
 21
-26.5918694607838688
 31
0.0
  0
LINE
  5
1B1B2
  8
WOOD
 10
-128.098082618800106
 20
-15.2233764648843195
 30
0.0
 11
-128.0974090572001103
 21
-26.5918694606843111
 31
0.0
  0
LINE
  5
1B1B3
  8
WOOD
 10
-127.5462166763002045
 20
-15.2232145697533898
 30
0.0
 11
-127.5455431147001946
 21
-26.5917075655534099
 31
0.0
  0
LINE
  5
1B1B4
  8
WOOD
 10
-124.161074744800203
 20
-15.2235383600151994
 30
0.0
 11
-124.1604011832000936
 21
-26.5920313558152088
 31
0.0
  0
LINE
  5
1B1B5
  8
WOOD
 10
-123.6092088023001025
 20
-15.2233764648843195
 30
0.0
 11
-123.6085352407001068
 21
-26.5918694606843111
 31
0.0
  0
LINE
  5
1B1B6
  8
WOOD
 10
-116.2870589968000985
 20
-15.2233764648843195
 30
0.0
 11
-116.2863854352001027
 21
-26.5918694606843111
 31
0.0
  0
LINE
  5
1B1B7
  8
WOOD
 10
-115.735193054300197
 20
-15.2232145697533898
 30
0.0
 11
-115.7345194927002012
 21
-26.5917075655534099
 31
0.0
  0
LINE
  5
1B1B8
  8
WOOD
 10
-112.350051122800096
 20
-15.2235383600151994
 30
0.0
 11
-112.3493775612000007
 21
-26.5920313558152088
 31
0.0
  0
LINE
  5
1B1B9
  8
WOOD
 10
-111.798185180300095
 20
-15.2233764648843195
 30
0.0
 11
-111.7975116187000992
 21
-26.5918694606843111
 31
0.0
  0
LINE
  5
1B1BA
  8
WOOD
 10
-108.4130432487002054
 20
-15.2233764648843195
 30
0.0
 11
-108.4123696871000959
 21
-26.5918694606843111
 31
0.0
  0
LINE
  5
1B1BB
  8
WOOD
 10
-107.8611773062001049
 20
-15.2232145697533898
 30
0.0
 11
-107.8605037446000949
 21
-26.5917075655534099
 31
0.0
  0
LINE
  5
1B1BC
  8
WOOD
 10
-104.4760353747001034
 20
-15.2233764648843195
 30
0.0
 11
-104.4753618131000934
 21
-26.5918694606843111
 31
0.0
  0
LINE
  5
1B1BD
  8
WOOD
 10
-103.9241694322002019
 20
-15.2232145697533898
 30
0.0
 11
-103.9234958706001066
 21
-26.5917075655534099
 31
0.0
  0
LINE
  5
1B1BE
  8
WOOD
 10
-100.5390275007002003
 20
-15.2233764648843195
 30
0.0
 11
-100.5383539391001051
 21
-26.5918694606843111
 31
0.0
  0
LINE
  5
1B1BF
  8
WOOD
 10
-99.9871615582001141
 20
-15.2232145697533898
 30
0.0
 11
-99.9864879966001041
 21
-26.5917075655534099
 31
0.0
  0
LINE
  5
1B1C0
  8
WOOD
 10
-96.6020196267002262
 20
-15.2233764648843195
 30
0.0
 11
-96.6013460651002021
 21
-26.5918694606843111
 31
0.0
  0
LINE
  5
1B1C1
  8
WOOD
 10
-96.0501536842001542
 20
-15.2232145697533898
 30
0.0
 11
-96.04948012260013
 21
-26.5917075655534099
 31
0.0
  0
LINE
  5
1B1C2
  8
WOOD
 10
-88.7280038787001786
 20
-15.2235383600151994
 30
0.0
 11
-88.7273303171001544
 21
-26.5920313558152088
 31
0.0
  0
LINE
  5
1B1C3
  8
WOOD
 10
-88.1761379362001207
 20
-15.2233764648843195
 30
0.0
 11
-88.1754643746000966
 21
-26.5918694606843111
 31
0.0
  0
LINE
  5
1B1C4
  8
WOOD
 10
-84.7909960047002045
 20
-15.2235383600151994
 30
0.0
 11
-84.7903224431001945
 21
-26.5920313558152088
 31
0.0
  0
LINE
  5
1B1C5
  8
WOOD
 10
-84.2391300622001751
 20
-15.2233764648843195
 30
0.0
 11
-84.2384565006001367
 21
-26.5918694606843111
 31
0.0
  0
LINE
  5
1B1C6
  8
WOOD
 10
-80.8539881306001007
 20
-15.2235383600151994
 30
0.0
 11
-80.8534711093916485
 21
-23.9499146672741894
 31
0.0
  0
LINE
  5
1B1C7
  8
WOOD
 10
-80.3021221881001566
 20
-15.2233764648843195
 30
0.0
 11
-80.3016051572997185
 21
-23.9499146675093506
 31
0.0
  0
LINE
  5
1B1C8
  8
WOOD
 10
-135.9707512437001071
 20
14.0380517991156903
 30
0.0
 11
-135.9707512437001071
 21
-8.0391498580843042
 31
0.0
  0
LINE
  5
1B1C9
  8
WOOD
 10
-135.9707512437001071
 20
-11.2342190922913705
 30
0.0
 11
-135.9707512437001071
 21
-12.0282588417843002
 31
0.0
  0
LINE
  5
1B1CA
  8
WOOD
 10
-135.4195588628001872
 20
-12.0282588417843002
 30
0.0
 11
-135.4195588628001872
 21
-11.2342118078089097
 31
0.0
  0
LINE
  5
1B1CB
  8
WOOD
 10
-135.4195588628001019
 20
-8.0391498580843077
 30
0.0
 11
-135.4195588628001019
 21
14.0380517991156903
 31
0.0
  0
LINE
  5
1B1CC
  8
WOOD
 10
-132.0337433697002041
 20
14.0380517991156903
 30
0.0
 11
-132.0337433697002041
 21
-8.039149858084313
 31
0.0
  0
LINE
  5
1B1CD
  8
WOOD
 10
-132.0337433697002041
 20
-11.2341670613384395
 30
0.0
 11
-132.0337433697002041
 21
-12.0282588417843002
 31
0.0
  0
LINE
  5
1B1CE
  8
WOOD
 10
-131.4825509888001989
 20
-12.0282588417843002
 30
0.0
 11
-131.4825509888001989
 21
-11.2341597768559698
 31
0.0
  0
LINE
  5
1B1CF
  8
WOOD
 10
-131.4825509888001989
 20
-8.0391498580843148
 30
0.0
 11
-131.4825509888001989
 21
14.0380517991156903
 31
0.0
  0
LINE
  5
1B1D0
  8
WOOD
 10
-128.0967354957001021
 20
14.0380517991156903
 30
0.0
 11
-128.0967354957001021
 21
-8.0391498580843184
 31
0.0
  0
LINE
  5
1B1D1
  8
WOOD
 10
-128.0967354957001021
 20
-11.2341150303854995
 30
0.0
 11
-128.0967354957001021
 21
-12.0282588417843108
 31
0.0
  0
LINE
  5
1B1D2
  8
WOOD
 10
-127.5455431148001963
 20
-12.0282588417843108
 30
0.0
 11
-127.5455431148001963
 21
-11.2341077459030405
 31
0.0
  0
LINE
  5
1B1D3
  8
WOOD
 10
-127.5455431148001963
 20
-8.0391498580843184
 30
0.0
 11
-127.5455431148001963
 21
14.0380517991156903
 31
0.0
  0
LINE
  5
1B1D4
  8
WOOD
 10
-124.1597276217001991
 20
14.0380517991156903
 30
0.0
 11
-124.1597276217000996
 21
-8.0391498580843237
 31
0.0
  0
LINE
  5
1B1D5
  8
WOOD
 10
-124.1597276217000001
 20
-11.2340629994325703
 30
0.0
 11
-124.1597276217000001
 21
-12.0282588417843197
 31
0.0
  0
LINE
  5
1B1D6
  8
WOOD
 10
-123.6085352408000944
 20
-12.0282588417843108
 30
0.0
 11
-123.6085352408000944
 21
-11.2340557149501006
 31
0.0
  0
LINE
  5
1B1D7
  8
WOOD
 10
-123.6085352408000944
 20
-8.0391498580843237
 30
0.0
 11
-123.6085352408000944
 21
14.0380517991156903
 31
0.0
  0
LINE
  5
1B1D8
  8
WOOD
 10
-116.2857278209001066
 20
13.8018313267156802
 30
0.0
 11
-116.2857278209001066
 21
4.8451384133157092
 31
0.0
  0
LINE
  5
1B1D9
  8
WOOD
 10
-116.2857278209001066
 20
1.4593116416156839
 30
0.0
 11
-116.2857278208999929
 21
-8.0391498580842988
 31
0.0
  0
LINE
  5
1B1DA
  8
WOOD
 10
-116.2857278208999929
 20
-11.2339589377374303
 30
0.0
 11
-116.2857278209001066
 21
-12.0282588417842895
 31
0.0
  0
LINE
  5
1B1DB
  8
WOOD
 10
-115.7345354400002009
 20
-12.0282588417842895
 30
0.0
 11
-115.7345354400002009
 21
-11.2339516532549606
 31
0.0
  0
LINE
  5
1B1DC
  8
WOOD
 10
-115.7345354400002009
 20
-8.0391498580843006
 30
0.0
 11
-115.7345354400002009
 21
1.5629625224478749
 31
0.0
  0
LINE
  5
1B1DD
  8
WOOD
 10
-115.7345354400002009
 20
4.7414875324834886
 30
0.0
 11
-115.7345354400002009
 21
13.8018313267156998
 31
0.0
  0
LINE
  5
1B1DE
  8
WOOD
 10
-112.3487039996001045
 20
13.8018313267157104
 30
0.0
 11
-112.3487039996001045
 21
12.4036729825557508
 31
0.0
  0
LINE
  5
1B1DF
  8
WOOD
 10
-112.3487039996001045
 20
6.4598321904756508
 30
0.0
 11
-112.3487039996001045
 21
-8.0391498580842988
 31
0.0
  0
LINE
  5
1B1E0
  8
WOOD
 10
-112.3487039996001045
 20
-11.2339069065737291
 30
0.0
 11
-112.3487039996001045
 21
-12.0282588417842895
 31
0.0
  0
LINE
  5
1B1E1
  8
WOOD
 10
-111.7975116187000992
 20
-12.0282588417842895
 30
0.0
 11
-111.7975116187000992
 21
-11.2338996220912595
 31
0.0
  0
LINE
  5
1B1E2
  8
WOOD
 10
-111.7975116187000992
 20
-8.0391498580842988
 30
0.0
 11
-111.7975116187000992
 21
6.4598361940653604
 31
0.0
  0
LINE
  5
1B1E3
  8
WOOD
 10
-111.7975116187000992
 20
12.4036689789660404
 30
0.0
 11
-111.7975116187000992
 21
13.8018313267156998
 31
0.0
  0
LINE
  5
1B1E4
  8
WOOD
 10
-108.4116961256002014
 20
13.8018313267156998
 30
0.0
 11
-108.4116961256002014
 21
-8.0391498580842988
 31
0.0
  0
LINE
  5
1B1E5
  8
WOOD
 10
-108.4116961256002014
 20
-11.2338548756207892
 30
0.0
 11
-108.4116961256002014
 21
-12.0282588417842895
 31
0.0
  0
LINE
  5
1B1E6
  8
WOOD
 10
-107.8605037447001962
 20
-12.0282588417842895
 30
0.0
 11
-107.8605037447001962
 21
-11.2338475911383195
 31
0.0
  0
LINE
  5
1B1E7
  8
WOOD
 10
-107.8605037447000967
 20
-8.0391498580842988
 30
0.0
 11
-107.8605037446999972
 21
13.8018313267156998
 31
0.0
  0
LINE
  5
1B1E8
  8
WOOD
 10
-104.4746882516000994
 20
13.8018313267156998
 30
0.0
 11
-104.4746882516000994
 21
-8.0391498580842988
 31
0.0
  0
LINE
  5
1B1E9
  8
WOOD
 10
-104.4746882516000994
 20
-11.2338028446678493
 30
0.0
 11
-104.4746882516000994
 21
-12.0282588417842895
 31
0.0
  0
LINE
  5
1B1EA
  8
WOOD
 10
-103.9234958707001937
 20
-12.0282588417842895
 30
0.0
 11
-103.9234958707001937
 21
-11.2337955601853796
 31
0.0
  0
LINE
  5
1B1EB
  8
WOOD
 10
-103.9234958707001937
 20
-8.0391498580842988
 30
0.0
 11
-103.9234958707001937
 21
13.8018313267156998
 31
0.0
  0
LINE
  5
1B1EC
  8
WOOD
 10
-100.5376803776001964
 20
13.8018313267156998
 30
0.0
 11
-100.5376803776001964
 21
-8.0391498580842988
 31
0.0
  0
LINE
  5
1B1ED
  8
WOOD
 10
-100.5376803776001964
 20
-11.2337508137149094
 30
0.0
 11
-100.5376803776001964
 21
-12.0282588417842895
 31
0.0
  0
LINE
  5
1B1EE
  8
WOOD
 10
-99.9864879967001627
 20
-12.0282588417842895
 30
0.0
 11
-99.9864879967001627
 21
-11.2337435292324397
 31
0.0
  0
LINE
  5
1B1EF
  8
WOOD
 10
-99.9864879967001627
 20
-8.0391498580842988
 30
0.0
 11
-99.9864879967001343
 21
13.8018313267156998
 31
0.0
  0
LINE
  5
1B1F0
  8
WOOD
 10
-96.6006725036003218
 20
13.8018313267156998
 30
0.0
 11
-96.6006725036002365
 21
-8.0391498580842988
 31
0.0
  0
LINE
  5
1B1F1
  8
WOOD
 10
-96.6006725036002365
 20
-11.2336987827619605
 30
0.0
 11
-96.6006725036002365
 21
-12.0282588417842895
 31
0.0
  0
LINE
  5
1B1F2
  8
WOOD
 10
-96.0494801227001744
 20
-12.0282588417842895
 30
0.0
 11
-96.0494801227001744
 21
-11.2336914982794998
 31
0.0
  0
LINE
  5
1B1F3
  8
WOOD
 10
-96.0494801227001744
 20
-8.0391498580842988
 30
0.0
 11
-96.049480122700146
 21
13.8018313267156998
 31
0.0
  0
LINE
  5
1B1F4
  8
WOOD
 10
-88.7266727028002151
 20
14.0380517991156797
 30
0.0
 11
-88.7266727028002151
 21
-8.0391498580843006
 31
0.0
  0
LINE
  5
1B1F5
  8
WOOD
 10
-88.7266727028002151
 20
-11.2335947210668508
 30
0.0
 11
-88.7266727028002151
 21
-12.0282588417842895
 31
0.0
  0
LINE
  5
1B1F6
  8
WOOD
 10
-88.1754803219002099
 20
-12.0282588417842895
 30
0.0
 11
-88.1754803219002241
 21
-11.2335874365843793
 31
0.0
  0
LINE
  5
1B1F7
  8
WOOD
 10
-88.1754803219002099
 20
-8.0391498580843006
 30
0.0
 11
-88.1754803219000678
 21
14.0380517991156797
 31
0.0
  0
LINE
  5
1B1F8
  8
WOOD
 10
-84.789648881500284
 20
14.0380517991156797
 30
0.0
 11
-84.7896488815001703
 21
-8.0391498580843006
 31
0.0
  0
LINE
  5
1B1F9
  8
WOOD
 10
-84.7896488815001561
 20
-11.2335426899031496
 30
0.0
 11
-84.7896488815001561
 21
-12.0282588417842895
 31
0.0
  0
LINE
  5
1B1FA
  8
WOOD
 10
-84.2384565006002077
 20
-12.0282588417842895
 30
0.0
 11
-84.2384565006002077
 21
-11.23353540542068
 31
0.0
  0
LINE
  5
1B1FB
  8
WOOD
 10
-84.2384565006002077
 20
-8.0391498580843006
 30
0.0
 11
-84.2384565006002504
 21
14.0380517991156797
 31
0.0
  0
LINE
  5
1B1FC
  8
WOOD
 10
-80.8526410075001962
 20
14.0380517991156797
 30
0.0
 11
-80.8526410075000683
 21
-8.0391498580843006
 31
0.0
  0
LINE
  5
1B1FD
  8
WOOD
 10
-80.8526410075000541
 20
-11.2334906589502097
 30
0.0
 11
-80.8526410075000683
 21
-12.0282588417842895
 31
0.0
  0
LINE
  5
1B1FE
  8
WOOD
 10
-80.3014486266001626
 20
-12.0282588417842895
 30
0.0
 11
-80.3014486266001626
 21
-11.23348337446774
 31
0.0
  0
LINE
  5
1B1FF
  8
WOOD
 10
-80.3014486266001626
 20
-8.0391498580843006
 30
0.0
 11
-80.3014486266001768
 21
14.0380517991156797
 31
0.0
  0
LINE
  5
1B200
  8
WOOD
 10
-121.9153892382001061
 20
-52.3001056811843412
 30
0.0
 11
-121.797538844499897
 21
-52.3001056811842986
 31
0.0
  0
LINE
  5
1B201
  8
WOOD
 10
-117.8211608917003019
 20
-52.3001056811843412
 30
0.0
 11
-94.5140742776000167
 21
-52.3001056811844833
 31
0.0
  0
LINE
  5
1B202
  8
WOOD
 10
-90.5376963247999811
 20
-52.3001056811844975
 30
0.0
 11
-90.4193262461001268
 21
-52.3001056811844975
 31
0.0
  0
LINE
  5
1B203
  8
WOOD
 10
-139.9077750650000951
 20
-39.3867434764842699
 30
0.0
 11
-139.9077750650000951
 21
-38.5993419016842623
 31
0.0
  0
LINE
  5
1B204
  8
WOOD
 10
-139.9077750650000951
 20
-35.4497356024842816
 30
0.0
 11
-139.9077750650000951
 21
-34.6623340276843308
 31
0.0
  0
LINE
  5
1B205
  8
WOOD
 10
-139.9077750650000951
 20
-31.5127277283842808
 30
0.0
 11
-139.9077750650000951
 21
-30.7257277283843315
 31
0.0
  0
LINE
  5
1B206
  8
WOOD
 10
-139.3565826841002036
 20
-39.3867434764842983
 30
0.0
 11
-139.3565826841002036
 21
-38.5993419016842907
 31
0.0
  0
LINE
  5
1B207
  8
WOOD
 10
-139.3565826841002036
 20
-35.4497356024842603
 30
0.0
 11
-139.3565826841002036
 21
-34.6623340276843521
 31
0.0
  0
LINE
  5
1B208
  8
WOOD
 10
-139.3565826841000899
 20
-31.5127277283843092
 30
0.0
 11
-139.3565826841002036
 21
-30.7257277283842711
 31
0.0
  0
LINE
  5
1B209
  8
WOOD
 10
-135.9707512437001071
 20
-39.3867434764842983
 30
0.0
 11
-135.9707512437001071
 21
-38.5993419016842907
 31
0.0
  0
LINE
  5
1B20A
  8
WOOD
 10
-135.9707512437001071
 20
-35.4497356024842816
 30
0.0
 11
-135.9707512437001071
 21
-34.6623340276843521
 31
0.0
  0
LINE
  5
1B20B
  8
WOOD
 10
-135.9707512436999934
 20
-31.5127277283843092
 30
0.0
 11
-135.9707512436999934
 21
-30.7257277283842996
 31
0.0
  0
LINE
  5
1B20C
  8
WOOD
 10
-135.4195588628001019
 20
-39.3867434764842699
 30
0.0
 11
-135.4195588628001019
 21
-38.5993419016842623
 31
0.0
  0
LINE
  5
1B20D
  8
WOOD
 10
-135.4195588628001872
 20
-35.4497356024842816
 30
0.0
 11
-135.4195588628001872
 21
-34.6623340276843308
 31
0.0
  0
LINE
  5
1B20E
  8
WOOD
 10
-135.4195588628001872
 20
-31.5127277283842808
 30
0.0
 11
-135.4195588628001872
 21
-30.7257277283843315
 31
0.0
  0
LINE
  5
1B20F
  8
WOOD
 10
-132.0337433697000904
 20
-39.3867434764842983
 30
0.0
 11
-132.0337433697000904
 21
-38.5993419016842907
 31
0.0
  0
LINE
  5
1B210
  8
WOOD
 10
-132.0337433697000904
 20
-35.4497356024842603
 30
0.0
 11
-132.0337433697000904
 21
-34.6623340276843024
 31
0.0
  0
LINE
  5
1B211
  8
WOOD
 10
-132.0337433697000904
 20
-31.5127277283843092
 30
0.0
 11
-132.0337433697000904
 21
-30.7257277283842711
 31
0.0
  0
LINE
  5
1B212
  8
WOOD
 10
-131.4825509888001136
 20
-39.3867434764842983
 30
0.0
 11
-131.4825509888001989
 21
-38.5993419016842907
 31
0.0
  0
LINE
  5
1B213
  8
WOOD
 10
-131.4825509888001989
 20
-35.4497356024842816
 30
0.0
 11
-131.4825509888001136
 21
-34.6623340276843308
 31
0.0
  0
LINE
  5
1B214
  8
WOOD
 10
-131.4825509888001136
 20
-31.5127277283843092
 30
0.0
 11
-131.4825509888001136
 21
-30.7257277283842996
 31
0.0
  0
LINE
  5
1B215
  8
WOOD
 10
-128.0967354956999884
 20
-39.3867434764842699
 30
0.0
 11
-128.0967354956999884
 21
-38.5993419016842907
 31
0.0
  0
LINE
  5
1B216
  8
WOOD
 10
-128.0967354956999884
 20
-35.4497356024842816
 30
0.0
 11
-128.0967354956999884
 21
-34.6623340276843308
 31
0.0
  0
LINE
  5
1B217
  8
WOOD
 10
-128.0967354956999884
 20
-31.5127277283843092
 30
0.0
 11
-128.0967354956999884
 21
-30.7257277283842711
 31
0.0
  0
LINE
  5
1B218
  8
WOOD
 10
-127.5455431148000969
 20
-39.3867434764842699
 30
0.0
 11
-127.5455431148000969
 21
-38.5993419016842907
 31
0.0
  0
LINE
  5
1B219
  8
WOOD
 10
-127.5455431148000969
 20
-35.4497356024842603
 30
0.0
 11
-127.5455431148000969
 21
-34.6623340276843521
 31
0.0
  0
LINE
  5
1B21A
  8
WOOD
 10
-127.5455431148000969
 20
-31.5127277283842808
 30
0.0
 11
-127.5455431148000969
 21
-30.7257277283842996
 31
0.0
  0
LINE
  5
1B21B
  8
WOOD
 10
-124.1597276217000001
 20
-39.3867434764842983
 30
0.0
 11
-124.1597276217000996
 21
-38.5993419016842907
 31
0.0
  0
LINE
  5
1B21C
  8
WOOD
 10
-124.1597276217000996
 20
-35.4497356024842603
 30
0.0
 11
-124.1597276217000996
 21
-34.6623340276843521
 31
0.0
  0
LINE
  5
1B21D
  8
WOOD
 10
-124.1597276217000001
 20
-31.5127277283843092
 30
0.0
 11
-124.1597276217000001
 21
-30.7257277283842711
 31
0.0
  0
LINE
  5
1B21E
  8
WOOD
 10
-123.6085352408000944
 20
-39.3867434764842983
 30
0.0
 11
-123.6085352408000944
 21
-38.5993419016842907
 31
0.0
  0
LINE
  5
1B21F
  8
WOOD
 10
-123.6085352408000944
 20
-35.4497356024842816
 30
0.0
 11
-123.6085352408000944
 21
-34.6623340276843308
 31
0.0
  0
LINE
  5
1B220
  8
WOOD
 10
-123.6085352408000944
 20
-31.5127277283842808
 30
0.0
 11
-123.6085352408000944
 21
-30.7257277283842996
 31
0.0
  0
LINE
  5
1B221
  8
WOOD
 10
-116.2857278209001066
 20
-31.5127277283842808
 30
0.0
 11
-116.2857278209001066
 21
-30.7257277283843315
 31
0.0
  0
LINE
  5
1B222
  8
WOOD
 10
-115.7345354400001014
 20
-31.5127277283843092
 30
0.0
 11
-115.7345354400001014
 21
-30.7257277283842711
 31
0.0
  0
LINE
  5
1B223
  8
WOOD
 10
-112.348703999600005
 20
-31.5127277283843092
 30
0.0
 11
-112.348703999600005
 21
-30.7257277283842996
 31
0.0
  0
LINE
  5
1B224
  8
WOOD
 10
-111.7975116187000992
 20
-31.5127277283842808
 30
0.0
 11
-111.7975116187000992
 21
-30.7257277283843315
 31
0.0
  0
LINE
  5
1B225
  8
WOOD
 10
-108.4116961256000025
 20
-31.5127277283843092
 30
0.0
 11
-108.4116961256001019
 21
-30.7257277283842711
 31
0.0
  0
LINE
  5
1B226
  8
WOOD
 10
-107.8605037447000967
 20
-31.5127277283843092
 30
0.0
 11
-107.8605037447000967
 21
-30.7257277283842996
 31
0.0
  0
LINE
  5
1B227
  8
WOOD
 10
-104.4746882515999999
 20
-31.5127277283843092
 30
0.0
 11
-104.4746882515999999
 21
-30.7257277283842711
 31
0.0
  0
LINE
  5
1B228
  8
WOOD
 10
-103.9234958707000942
 20
-31.5127277283842808
 30
0.0
 11
-103.9234958707000942
 21
-30.7257277283842996
 31
0.0
  0
LINE
  5
1B229
  8
WOOD
 10
-100.5376803775999974
 20
-31.5127277283843092
 30
0.0
 11
-100.5376803775999974
 21
-30.7257277283842711
 31
0.0
  0
LINE
  5
1B22A
  8
WOOD
 10
-99.9864879967001343
 20
-31.5127277283842808
 30
0.0
 11
-99.9864879967001343
 21
-30.7257277283842996
 31
0.0
  0
LINE
  5
1B22B
  8
WOOD
 10
-96.6006725036000375
 20
-31.5127277283843092
 30
0.0
 11
-96.6006725036000802
 21
-30.7257277283842711
 31
0.0
  0
LINE
  5
1B22C
  8
WOOD
 10
-96.0494801227001744
 20
-31.5127277283842808
 30
0.0
 11
-96.0494801227001744
 21
-30.7257277283842996
 31
0.0
  0
LINE
  5
1B22D
  8
WOOD
 10
-116.2857278209001066
 20
-35.449334027684273
 30
0.0
 11
-116.2857278209001066
 21
-34.6623340276843308
 31
0.0
  0
LINE
  5
1B22E
  8
WOOD
 10
-115.7345354400001014
 20
-35.4493340276843014
 30
0.0
 11
-115.7345354400001014
 21
-34.6623340276842669
 31
0.0
  0
LINE
  5
1B22F
  8
WOOD
 10
-112.348703999600005
 20
-35.4493340276843014
 30
0.0
 11
-112.348703999600005
 21
-34.6623340276843024
 31
0.0
  0
LINE
  5
1B230
  8
WOOD
 10
-111.7975116187000992
 20
-35.449334027684273
 30
0.0
 11
-111.7975116187000992
 21
-34.6623340276843308
 31
0.0
  0
LINE
  5
1B231
  8
WOOD
 10
-108.4116961256000025
 20
-35.4493340276843014
 30
0.0
 11
-108.4116961256001019
 21
-34.6623340276842669
 31
0.0
  0
LINE
  5
1B232
  8
WOOD
 10
-107.8605037447000967
 20
-35.4493340276843014
 30
0.0
 11
-107.8605037447000967
 21
-34.6623340276843024
 31
0.0
  0
LINE
  5
1B233
  8
WOOD
 10
-104.4746882515999999
 20
-35.4493340276843014
 30
0.0
 11
-104.4746882515999999
 21
-34.6623340276842669
 31
0.0
  0
LINE
  5
1B234
  8
WOOD
 10
-103.9234958707000942
 20
-35.449334027684273
 30
0.0
 11
-103.9234958707000942
 21
-34.6623340276843024
 31
0.0
  0
LINE
  5
1B235
  8
WOOD
 10
-100.5376803775999974
 20
-35.4493340276843014
 30
0.0
 11
-100.5376803775999974
 21
-34.6623340276842669
 31
0.0
  0
LINE
  5
1B236
  8
WOOD
 10
-99.9864879967001343
 20
-35.449334027684273
 30
0.0
 11
-99.9864879967001343
 21
-34.6623340276843024
 31
0.0
  0
LINE
  5
1B237
  8
WOOD
 10
-96.6006725036000375
 20
-35.4493340276843014
 30
0.0
 11
-96.6006725036000802
 21
-34.6623340276842669
 31
0.0
  0
LINE
  5
1B238
  8
WOOD
 10
-96.0494801227001744
 20
-35.449334027684273
 30
0.0
 11
-96.0494801227001744
 21
-34.6623340276843024
 31
0.0
  0
LINE
  5
1B239
  8
WOOD
 10
-116.2857278209001066
 20
-39.3863419016842613
 30
0.0
 11
-116.2857278209001066
 21
-38.599341901684312
 31
0.0
  0
LINE
  5
1B23A
  8
WOOD
 10
-115.7345354400001014
 20
-39.3863419016842897
 30
0.0
 11
-115.7345354400001014
 21
-38.5993419016842623
 31
0.0
  0
LINE
  5
1B23B
  8
WOOD
 10
-112.348703999600005
 20
-39.3863419016842897
 30
0.0
 11
-112.348703999600005
 21
-38.5993419016842907
 31
0.0
  0
LINE
  5
1B23C
  8
WOOD
 10
-111.7975116187000992
 20
-39.3863419016842613
 30
0.0
 11
-111.7975116187000992
 21
-38.599341901684312
 31
0.0
  0
LINE
  5
1B23D
  8
WOOD
 10
-108.4116961256000025
 20
-39.3863419016842897
 30
0.0
 11
-108.4116961256001019
 21
-38.5993419016842623
 31
0.0
  0
LINE
  5
1B23E
  8
WOOD
 10
-107.8605037447000967
 20
-39.3863419016842897
 30
0.0
 11
-107.8605037447000967
 21
-38.5993419016842907
 31
0.0
  0
LINE
  5
1B23F
  8
WOOD
 10
-104.4746882515999999
 20
-39.3863419016842897
 30
0.0
 11
-104.4746882515999999
 21
-38.5993419016842623
 31
0.0
  0
LINE
  5
1B240
  8
WOOD
 10
-103.9234958707000942
 20
-39.3863419016842613
 30
0.0
 11
-103.9234958707000942
 21
-38.5993419016842907
 31
0.0
  0
LINE
  5
1B241
  8
WOOD
 10
-100.5376803775999974
 20
-39.3863419016842897
 30
0.0
 11
-100.5376803775999974
 21
-38.5993419016842623
 31
0.0
  0
LINE
  5
1B242
  8
WOOD
 10
-99.9864879967001343
 20
-39.3863419016842613
 30
0.0
 11
-99.9864879967001343
 21
-38.5993419016842907
 31
0.0
  0
LINE
  5
1B243
  8
WOOD
 10
-96.6006725036000375
 20
-39.3863419016842897
 30
0.0
 11
-96.6006725036000802
 21
-38.5993419016842623
 31
0.0
  0
LINE
  5
1B244
  8
WOOD
 10
-96.0494801227001744
 20
-39.3863419016842613
 30
0.0
 11
-96.0494801227001744
 21
-38.5993419016842907
 31
0.0
  0
LINE
  5
1B245
  8
WOOD
 10
-88.6733187215158978
 20
-31.5127277283843092
 30
0.0
 11
-88.6733187215158978
 21
-30.7257277283842996
 31
0.0
  0
LINE
  5
1B246
  8
WOOD
 10
-88.1221263406159778
 20
-31.5066787591193282
 30
0.0
 11
-88.1221263406159778
 21
-30.7257277283842996
 31
0.0
  0
LINE
  5
1B247
  8
WOOD
 10
-88.6733187215158978
 20
-34.6623340276843024
 30
0.0
 11
-88.6733187215158978
 21
-35.4497356024843384
 31
0.0
  0
LINE
  5
1B248
  8
WOOD
 10
-88.6733187215158978
 20
-38.599341901684312
 30
0.0
 11
-88.6733187215158978
 21
-39.3867434764842983
 31
0.0
  0
LINE
  5
1B249
  8
WOOD
 10
-80.3012281540998742
 20
-24.6585760843843005
 30
0.0
 11
-80.3012281540999169
 21
-26.5918694606843111
 31
0.0
  0
LINE
  5
1B24A
  8
WOOD
 10
-80.8524205350999239
 20
-24.79008433919455
 30
0.0
 11
-80.8524205350999239
 21
-26.5918694606843111
 31
0.0
  0
LINE
  5
1B24B
  8
WOOD
 10
-138.0575995528961073
 20
-11.2342466717907392
 30
0.0
 11
-138.0575659870117136
 21
-12.0282588417842895
 31
0.0
  0
LINE
  5
1B24C
  8
WOOD
 10
-137.0733472221772047
 20
-11.2342336640477196
 30
0.0
 11
-137.0733139870083903
 21
-12.0282588417843002
 31
0.0
  0
LINE
  5
1B24D
  8
WOOD
 10
-139.2375624665999112
 20
-26.7099796968843108
 30
0.0
 11
-139.2375624666003944
 21
-27.4580111929843085
 31
0.0
  0
LINE
  5
1B24E
  8
WOOD
 10
-138.4501608917998965
 20
-26.7099796968843108
 30
0.0
 11
-138.4501608917994133
 21
-27.4580111929843085
 31
0.0
  0
LINE
  5
1B24F
  8
WOOD
 10
-135.3005545925998945
 20
-26.7099796968843108
 30
0.0
 11
-135.3005545926002924
 21
-27.4580111929843085
 31
0.0
  0
LINE
  5
1B250
  8
WOOD
 10
-131.3635467185999062
 20
-26.7099796968843108
 30
0.0
 11
-131.3635467186003041
 21
-27.4580111929843085
 31
0.0
  0
LINE
  5
1B251
  8
WOOD
 10
-127.4265388445999037
 20
-26.7099796968843108
 30
0.0
 11
-127.426538844600401
 21
-27.4580111929843085
 31
0.0
  0
LINE
  5
1B252
  8
WOOD
 10
-123.4895309705999011
 20
-26.7099796968843108
 30
0.0
 11
-123.4895309706003985
 21
-27.4580111929843085
 31
0.0
  0
LINE
  5
1B253
  8
WOOD
 10
-134.5131530178001071
 20
-26.7099796968843108
 30
0.0
 11
-134.5131530177995955
 21
-27.4580111929843191
 31
0.0
  0
LINE
  5
1B254
  8
WOOD
 10
-130.5761451438000904
 20
-26.7099796968843108
 30
0.0
 11
-130.5761451437996072
 21
-27.4580111929843191
 31
0.0
  0
LINE
  5
1B255
  8
WOOD
 10
-126.6391372698001021
 20
-26.7099796968843108
 30
0.0
 11
-126.6391372697996047
 21
-27.4580111929843085
 31
0.0
  0
LINE
  5
1B256
  8
WOOD
 10
-122.7021293958000996
 20
-26.7099796968843108
 30
0.0
 11
-122.7021293957996022
 21
-27.4580111929843085
 31
0.0
  0
LINE
  5
1B257
  8
WOOD
 10
-105.6752632539999013
 20
-11.2338187113014492
 30
0.0
 11
-105.6752632539999013
 21
-12.0282588417842895
 31
0.0
  0
LINE
  5
1B258
  8
WOOD
 10
-106.659515222499806
 20
-11.2338317190396904
 30
0.0
 11
-106.659515222499806
 21
-12.0282588417842895
 31
0.0
  0
ENDBLK
  5
1B259
  8
0
  0
BLOCK
  8
0
  2
GLASS
 70
     0
 10
0.0
 20
0.0
 30
0.0
  3
GLASS
  1

  0
LINE
  5
1B25C
  8
GLASS
 62
     4
 10
-78.4904522302999794
 20
14.0380517991156797
 30
0.0
 11
-78.4904522304000238
 21
-58.3635230039843123
 31
0.0
  0
LINE
  5
1B25D
  8
GLASS
 62
     4
 10
-117.8211608917002025
 20
13.8805714842157109
 30
0.0
 11
-117.8211608917003019
 21
4.8451384133156798
 31
0.0
  0
LINE
  5
1B25E
  8
GLASS
 62
     4
 10
-117.8211608917003019
 20
1.4593116416156979
 30
0.0
 11
-117.8211608917000035
 21
-45.7847828464843474
 31
0.0
  0
LINE
  5
1B25F
  8
GLASS
 62
     4
 10
-117.8211608917000035
 20
-49.1706096181843009
 30
0.0
 11
-117.8211608917002025
 21
-58.2060426890843416
 31
0.0
  0
LINE
  5
1B260
  8
GLASS
 62
     4
 10
-90.5376963247999811
 20
-58.3635230039843123
 30
0.0
 11
-90.5376963247999811
 21
14.0380517991156797
 31
0.0
  0
LINE
  5
1B261
  8
GLASS
 62
     4
 10
-78.4904522302999794
 20
14.0380517991156797
 30
0.0
 11
-90.5376963247999811
 21
14.0380517991156797
 31
0.0
  0
LINE
  5
1B262
  8
GLASS
 62
     4
 10
-78.4904522302999794
 20
-58.3635230039843123
 30
0.0
 11
-90.5376963247999811
 21
-58.3635230039843123
 31
0.0
  0
LINE
  5
1B263
  8
GLASS
 62
     4
 10
-117.8999010491999968
 20
-58.1273025315842915
 30
0.0
 11
-94.4353341200999239
 21
-58.1273025315843199
 31
0.0
  0
LINE
  5
1B264
  8
GLASS
 62
     4
 10
-94.5140742776000167
 20
13.8805714842157109
 30
0.0
 11
-94.5140742776000167
 21
-58.2060426891842724
 31
0.0
  0
LINE
  5
1B265
  8
GLASS
 62
     4
 10
-117.8999010491999968
 20
13.8018313267156998
 30
0.0
 11
-94.4353341201001513
 21
13.8018313267156802
 31
0.0
  0
LINE
  5
1B266
  8
GLASS
 62
     4
 10
-121.797538844499897
 20
-58.3635230039843123
 30
0.0
 11
-121.797538844499897
 21
14.0380517991156797
 31
0.0
  0
LINE
  5
1B267
  8
GLASS
 62
     4
 10
-121.797538844499897
 20
14.0380517991156903
 30
0.0
 11
-141.7187986870000884
 21
14.0380517991156903
 31
0.0
  0
LINE
  5
1B268
  8
GLASS
 62
     4
 10
-141.7187986870000884
 20
14.0380517991156903
 30
0.0
 11
-141.7187986870000884
 21
-58.3635230039843123
 31
0.0
  0
LINE
  5
1B269
  8
GLASS
 62
     4
 10
-121.797538844499897
 20
-58.3635230039843123
 30
0.0
 11
-141.7187986870000884
 21
-58.3635230039843123
 31
0.0
  0
LINE
  5
1B26A
  8
GLASS
 62
     4
 10
-125.5953348077441944
 20
0.9061316505881507
 30
0.0
 11
-129.5008955139369107
 21
-4.3785624155170231
 31
0.0
  0
LINE
  5
1B26B
  8
GLASS
 62
     4
 10
-125.7727893134239991
 20
-0.2727660571438264
 30
0.0
 11
-128.4617655100232128
 21
-3.9616030431079698
 31
0.0
  0
LINE
  5
1B26C
  8
GLASS
 62
     4
 10
-104.7892136748233014
 20
-18.9303766506816906
 30
0.0
 11
-108.539800005698595
 21
-23.8299605529657015
 31
0.0
  0
LINE
  5
1B26D
  8
GLASS
 62
     4
 10
-105.0078081711890974
 20
-20.0284775353637201
 30
0.0
 11
-107.5006700017849965
 21
-23.4130011805566483
 31
0.0
  0
LINE
  5
1B26E
  8
GLASS
 62
     4
 10
-83.854699922920986
 20
3.538404883569342
 30
0.0
 11
-87.7602606291136453
 21
-1.7462891825358611
 31
0.0
  0
LINE
  5
1B26F
  8
GLASS
 62
     4
 10
-84.0321544286007338
 20
2.359507175837364
 30
0.0
 11
-86.7211306251999758
 21
-1.329329810126807
 31
0.0
  0
LINE
  5
1B270
  8
GLASS
 62
     4
 10
-83.4709433452417215
 20
-36.2859953604756313
 30
0.0
 11
-87.3765040514343951
 21
-41.5706894265807989
 31
0.0
  0
LINE
  5
1B271
  8
GLASS
 62
     4
 10
-83.6483978509214694
 20
-37.4648930682076013
 30
0.0
 11
-86.3373740475207114
 21
-41.1537300541717528
 31
0.0
  0
LINE
  5
1B272
  8
GLASS
 62
     4
 10
-128.9798633160118868
 20
-36.5195208446609172
 30
0.0
 11
-132.885424022204603
 21
-41.8042149107660919
 31
0.0
  0
LINE
  5
1B273
  8
GLASS
 62
     4
 10
-129.1573178216916062
 20
-37.6984185523929014
 30
0.0
 11
-131.8462940182909051
 21
-41.3872555383570386
 31
0.0
  0
LINE
  5
1B274
  8
GLASS
 62
     4
 10
-102.7580105657746969
 20
6.2899119578912064
 30
0.0
 11
-106.663571271967399
 21
1.0052178917860171
 31
0.0
  0
LINE
  5
1B275
  8
GLASS
 62
     4
 10
-102.9354650714545016
 20
5.1110142501592293
 30
0.0
 11
-105.624441268053701
 21
1.4221772641950841
 31
0.0
  0
LINE
  5
1B276
  8
GLASS
 62
     4
 10
-106.1438260588745948
 20
-44.068711622958773
 30
0.0
 11
-110.0493867650672968
 21
-49.353405689063969
 31
0.0
  0
LINE
  5
1B277
  8
GLASS
 62
     4
 10
-106.3212805645543995
 20
-45.2476093306907501
 30
0.0
 11
-109.0102567611535989
 21
-48.9364463166549228
 31
0.0
  0
LINE
  5
1B278
  8
GLASS
 62
     4
 10
-126.6702192866222987
 20
0.3904638661100534
 30
0.0
 11
-129.4073069757868097
 21
-3.2628171628718969
 31
0.0
  0
LINE
  5
1B279
  8
GLASS
 62
     4
 10
-130.0547477948900905
 20
-37.0351886291389292
 30
0.0
 11
-132.7918354840543884
 21
-40.6884696581208729
 31
0.0
  0
LINE
  5
1B27A
  8
GLASS
 62
     4
 10
-105.7091237783841962
 20
-19.0609342713385708
 30
0.0
 11
-108.4462114675484941
 21
-22.7142153003205216
 31
0.0
  0
LINE
  5
1B27B
  8
GLASS
 62
     4
 10
-103.8328950446529007
 20
5.7742441734131802
 30
0.0
 11
-106.5699827338171986
 21
2.1209631444312289
 31
0.0
  0
LINE
  5
1B27C
  8
GLASS
 62
     4
 10
-107.2187105377527985
 20
-44.5843794074368134
 30
0.0
 11
-109.9557982269171958
 21
-48.2376604364187571
 31
0.0
  0
LINE
  5
1B27D
  8
GLASS
 62
     4
 10
-84.9295844017991755
 20
3.0227370990913012
 30
0.0
 11
-87.666672090963516
 21
-0.6305439298906493
 31
0.0
  0
LINE
  5
1B27E
  8
GLASS
 62
     4
 10
-84.5458278241198968
 20
-36.8016631449536433
 30
0.0
 11
-87.2829155132842516
 21
-40.45494417393558
 31
0.0
  0
LINE
  5
1B27F
  8
GLASS
 62
     4
 10
-117.8211608918000053
 20
13.8805714842156895
 30
0.0
 11
-94.5140742776000309
 21
13.8805714842156895
 31
0.0
  0
LINE
  5
1B280
  8
GLASS
 62
     4
 10
-117.8211608917002025
 20
13.8805714842156895
 30
0.0
 11
-117.8999010491999968
 21
13.8018313267156998
 31
0.0
  0
LINE
  5
1B281
  8
GLASS
 62
     4
 10
-117.8999010491999968
 20
13.8018313267156998
 30
0.0
 11
-117.8999010491999968
 21
4.8451384133156798
 31
0.0
  0
LINE
  5
1B282
  8
GLASS
 62
     4
 10
-117.8999010491999968
 20
-49.1706096181843009
 30
0.0
 11
-117.8999010491999968
 21
-58.1273025315842915
 31
0.0
  0
LINE
  5
1B283
  8
GLASS
 62
     4
 10
-117.8999010491999968
 20
-58.1273025315842915
 30
0.0
 11
-117.8211608917002025
 21
-58.2060426890843132
 31
0.0
  0
LINE
  5
1B284
  8
GLASS
 62
     4
 10
-117.8211608917002025
 20
-58.2060426891842724
 30
0.0
 11
-94.5140742776000167
 21
-58.2060426891842724
 31
0.0
  0
LINE
  5
1B285
  8
GLASS
 62
     4
 10
-94.4353341200999239
 20
-22.4147041063843098
 30
0.0
 11
-94.4353341200999239
 21
-58.1273025315842915
 31
0.0
  0
LINE
  5
1B286
  8
GLASS
 62
     4
 10
-94.4353341200999239
 20
-58.1273025315842915
 30
0.0
 11
-94.5140742776000167
 21
-58.2060426890843132
 31
0.0
  0
LINE
  5
1B287
  8
GLASS
 62
     4
 10
-94.4353341201001513
 20
-21.9107670984843104
 30
0.0
 11
-94.4353341201001513
 21
13.8018313267156998
 31
0.0
  0
LINE
  5
1B288
  8
GLASS
 62
     4
 10
-94.4353341200999239
 20
13.8018313267156998
 30
0.0
 11
-94.5140742776000167
 21
13.8805714842156895
 31
0.0
  0
ENDBLK
  5
1B289
  8
0
  0
BLOCK
  8
0
  2
FRAME_BLOCK
 70
     0
 10
0.0
 20
0.0
 30
0.0
  3
FRAME_BLOCK
  1

  0
LINE
  5
1B28E
  8
0
 10
-109.7817474806811049
 20
44.3722656005000005
 30
0.0
 11
-191.1201096854807986
 21
44.3722656004999791
 31
0.0
  0
LINE
  5
1B28F
  8
0
 10
-110.7266293704810067
 20
-39.0923013287000032
 30
0.0
 11
-190.175227795680911
 21
-39.0923013287000032
 31
0.0
  0
LINE
  5
1B290
  8
0
 10
-109.7817474806811049
 20
-36.3363958169000014
 30
0.0
 11
-191.1201096854807986
 21
-36.3363958168999872
 31
0.0
  0
LINE
  5
1B291
  8
0
 10
-109.7817474806811049
 20
44.3722656005000005
 30
0.0
 11
-109.7817474806811049
 21
-36.3363958169000014
 31
0.0
  0
LINE
  5
1B292
  8
0
 10
-110.7266293704810067
 20
-39.0923013287000032
 30
0.0
 11
-110.7266293704810067
 21
-36.3363958169000014
 31
0.0
  0
LINE
  5
1B293
  8
0
 10
-142.5769128350808899
 20
46.1045490650000076
 30
0.0
 11
-142.5968533265181009
 21
47.2469390520150085
 31
0.0
  0
ARC
  5
1B294
  8
0
 10
-142.6362473257071883
 20
47.2462514271999865
 30
0.0
 40
0.0394
 50
1.0000000020246489
 51
90.0
  0
LINE
  5
1B295
  8
0
 10
-142.5769128350808899
 20
46.1045490650000076
 30
0.0
 11
-158.3249443311810865
 21
46.1045490650000289
 31
0.0
  0
LINE
  5
1B296
  8
0
 10
-142.6064403941809928
 20
46.1045490650000076
 30
0.0
 11
-142.6064403941809928
 21
46.0454939469000166
 31
0.0
  0
LINE
  5
1B297
  8
0
 10
-142.6064403941809928
 20
46.0454939469000166
 30
0.0
 11
-158.2954167720810972
 21
46.0454939469000166
 31
0.0
  0
LINE
  5
1B298
  8
0
 10
-142.6064403941809928
 20
46.0454939469000166
 30
0.0
 11
-142.5769128350808899
 21
46.0284462027999979
 31
0.0
  0
LINE
  5
1B299
  8
0
 10
-142.5769128350808899
 20
46.0284462027999979
 30
0.0
 11
-143.5290965343245944
 21
46.0284462027999979
 31
0.0
  0
LINE
  5
1B29A
  8
0
 10
-142.5769128350808899
 20
46.0284462027999979
 30
0.0
 11
-142.5769128350808899
 21
44.3722656005000005
 31
0.0
  0
LINE
  5
1B29B
  8
0
 10
-142.9706136224810962
 20
46.4197337492000131
 30
0.0
 11
-142.9706136224810962
 21
46.1045490650000076
 31
0.0
  0
LINE
  5
1B29C
  8
0
 10
-143.3071099719809922
 20
46.5021868603000001
 30
0.0
 11
-143.5317912021810116
 21
46.5021868603000001
 31
0.0
  0
LINE
  5
1B29D
  8
0
 10
-143.5475392336809932
 20
46.5078169414000087
 30
0.0
 11
-143.7050195484459039
 21
46.5078169689449084
 31
0.0
  0
LINE
  5
1B29E
  8
0
 10
-143.7207675801809899
 20
46.5021868603000001
 30
0.0
 11
-143.7680116746809915
 21
46.5021868603000001
 31
0.0
  0
LINE
  5
1B29F
  8
0
 10
-143.7837597061810015
 20
46.5078169414000087
 30
0.0
 11
-143.9412400210810006
 21
46.5078169414000087
 31
0.0
  0
LINE
  5
1B2A0
  8
0
 10
-143.3071099719809922
 20
46.5021868603000001
 30
0.0
 11
-143.3122294855810139
 21
47.2469684511000168
 31
0.0
  0
LINE
  5
1B2A1
  8
0
 10
-143.7837597061810015
 20
46.5078169414000087
 30
0.0
 11
-143.7837597061810015
 21
47.2699033957000196
 31
0.0
  0
LINE
  5
1B2A2
  8
0
 10
-143.7050195484459039
 20
46.5078169689449084
 30
0.0
 11
-143.7049640981630887
 21
47.2669260260667983
 31
0.0
  0
LINE
  5
1B2A3
  8
0
 10
-143.5475392273895068
 20
46.5078169414000087
 30
0.0
 11
-143.5474928068310874
 21
47.2654843433500034
 31
0.0
  0
LINE
  5
1B2A4
  8
0
 10
-143.9412400210810006
 20
46.5078169414000087
 30
0.0
 11
-143.9412369341810063
 21
47.2638653150000181
 31
0.0
  0
LINE
  5
1B2A5
  8
0
 10
-143.9569880537297024
 20
46.5021868603000001
 30
0.0
 11
-156.9448691125313076
 21
46.5021868602999717
 31
0.0
  0
ARC
  5
1B2A6
  8
0
 10
-143.0694489985054929
 20
47.0810866005964925
 30
0.0
 40
0.6257856243384711
 50
247.6799331855480943
 51
265.6844670422424883
  0
ARC
  5
1B2A7
  8
0
 10
-143.1490525787889965
 20
46.026217828835648
 30
0.0
 40
0.4320824466563172
 50
65.6081853612306105
 51
85.6844670422424599
  0
LINE
  5
1B2A8
  8
0
 10
-142.9706136224810962
 20
46.4197337492000131
 30
0.0
 11
-157.9312435437809938
 21
46.4197337492000131
 31
0.0
  0
ARC
  5
1B2A9
  8
0
 10
-143.9578422105012123
 20
46.5294156796989213
 30
0.0
 40
0.0272422133764693
 50
271.7967580387966109
 51
307.5482129707899048
  0
ARC
  5
1B2AA
  8
0
 10
-143.7654209461394998
 20
46.534273081817922
 30
0.0
 40
0.0321906428278775
 50
235.2712311519368029
 51
265.383797599423815
  0
ARC
  5
1B2AB
  8
0
 10
-143.7231340368396957
 20
46.5336456402817404
 30
0.0
 40
0.0315476616058243
 50
274.3019181093761745
 51
305.0432300825459038
  0
ARC
  5
1B2AC
  8
0
 10
-143.5291356763785018
 20
46.5344543071863583
 30
0.0
 40
0.0323765338764327
 50
235.3597035481786008
 51
265.2953106907717142
  0
ARC
  5
1B2AD
  8
0
 10
-143.9655724085168913
 20
47.2629325965660172
 30
0.0
 40
0.0243533421001355
 50
2.1949307493906849
 51
68.8888538564221733
  0
ARC
  5
1B2AE
  8
0
 10
-143.7672206267984052
 20
47.2690969876004417
 30
0.0
 40
0.0165587270297546
 50
91.3038632888500672
 51
177.2085980083209904
  0
ARC
  5
1B2AF
  8
0
 10
-143.7229873132453122
 20
47.2678366720273502
 30
0.0
 40
0.0180462061931177
 50
357.1075173017106863
 51
80.8137240544661353
  0
ARC
  5
1B2B0
  8
0
 10
-143.5281343832272967
 20
47.2664378879680882
 30
0.0
 40
0.0193818939156822
 50
97.557305715340263
 51
182.8199589774056051
  0
ARC
  5
1B2B1
  8
0
 10
-143.274526534914088
 20
47.2495232984343971
 30
0.0
 40
0.0377894129869176
 50
107.0521259853106955
 51
183.876580795787703
  0
LINE
  5
1B2B2
  8
0
 10
-143.5414797641811049
 20
46.0398113655000003
 30
0.0
 11
-143.541479764180707
 21
44.3722656005000005
 31
0.0
  0
LINE
  5
1B2B3
  8
0
 10
-143.5414797641811049
 20
46.0398113655000003
 30
0.0
 11
-143.6989600791810062
 21
46.0398113655000003
 31
0.0
  0
LINE
  5
1B2B4
  8
0
 10
-143.6989600791810062
 20
46.0398113655000003
 30
0.0
 11
-143.6989600791810062
 21
44.3722656005000005
 31
0.0
  0
LINE
  5
1B2B5
  8
0
 10
-143.7186451185812075
 20
46.0284462027032006
 30
0.0
 11
-143.7580151972811109
 21
46.0284462027032006
 31
0.0
  0
LINE
  5
1B2B6
  8
0
 10
-143.7777002366811132
 20
46.0398113655000003
 30
0.0
 11
-143.9351805515809133
 21
46.0398113655000003
 31
0.0
  0
LINE
  5
1B2B7
  8
0
 10
-143.9351805515809133
 20
46.0398113655000003
 30
0.0
 11
-143.9351805515809133
 21
44.3722656005000005
 31
0.0
  0
LINE
  5
1B2B8
  8
0
 10
-143.7777002366811132
 20
46.0398113655001211
 30
0.0
 11
-143.7777002366811132
 21
44.3722656005000005
 31
0.0
  0
LINE
  5
1B2B9
  8
0
 10
-143.9548655909811998
 20
46.0284462027032006
 30
0.0
 11
-156.9469915752812028
 21
46.0284462027032291
 31
0.0
  0
ARC
  5
1B2BA
  8
0
 10
-143.9564008083453075
 20
46.0538356027715992
 30
0.0
 40
0.0254357726084309
 50
273.4602829182763912
 51
326.5397170823305828
  0
ARC
  5
1B2BB
  8
0
 10
-143.7573738054940975
 20
46.052287451458561
 30
0.0
 40
0.0238498747510054
 50
211.5410342338188059
 51
268.4589657648152752
  0
ARC
  5
1B2BC
  8
0
 10
-143.7223795631828978
 20
46.0576447763333405
 30
0.0
 40
0.0294364191583253
 50
277.2884567834414042
 51
322.7115427946408204
  0
ARC
  5
1B2BD
  8
0
 10
-143.5254456293853025
 20
46.0448534843822728
 30
0.0
 40
0.0168085691180266
 50
197.4600822969312048
 51
257.4550790647787721
  0
LINE
  5
1B2BE
  8
0
 10
-158.3249443311810865
 20
46.1045490650000076
 30
0.0
 11
-158.3050038397439039
 21
47.2469390520150085
 31
0.0
  0
ARC
  5
1B2BF
  8
0
 10
-158.265609840554788
 20
47.2462514271999865
 30
0.0
 40
0.0394
 50
90.0
 51
178.9999999979752943
  0
LINE
  5
1B2C0
  8
0
 10
-158.2954167720810119
 20
46.1045490650000076
 30
0.0
 11
-158.2954167720810119
 21
46.0454939469000166
 31
0.0
  0
LINE
  5
1B2C1
  8
0
 10
-158.2954167720810119
 20
46.0454939469000166
 30
0.0
 11
-158.3249443311810865
 21
46.0284462027999979
 31
0.0
  0
LINE
  5
1B2C2
  8
0
 10
-158.3249443311810865
 20
46.0284462027999979
 30
0.0
 11
-157.3727606319374956
 21
46.0284462027999979
 31
0.0
  0
LINE
  5
1B2C3
  8
0
 10
-158.3249443311810865
 20
46.0284462027999979
 30
0.0
 11
-158.3249443311810865
 21
44.3722656005000005
 31
0.0
  0
LINE
  5
1B2C4
  8
0
 10
-157.9312435437809938
 20
46.4197337492000131
 30
0.0
 11
-157.9312435437809938
 21
46.1045490650000076
 31
0.0
  0
LINE
  5
1B2C5
  8
0
 10
-157.5947471942810125
 20
46.5021868603000001
 30
0.0
 11
-157.3700659640809931
 21
46.5021868603000001
 31
0.0
  0
LINE
  5
1B2C6
  8
0
 10
-157.3543179325810115
 20
46.5078169414000087
 30
0.0
 11
-157.1968376178161861
 21
46.5078169689449084
 31
0.0
  0
LINE
  5
1B2C7
  8
0
 10
-157.1810895860809865
 20
46.5021868603000001
 30
0.0
 11
-157.1338454915810132
 21
46.5021868603000001
 31
0.0
  0
LINE
  5
1B2C8
  8
0
 10
-157.1180974600810032
 20
46.5078169414000087
 30
0.0
 11
-156.9606171451810042
 21
46.5078169414000087
 31
0.0
  0
LINE
  5
1B2C9
  8
0
 10
-157.5947471942810125
 20
46.5021868603000001
 30
0.0
 11
-157.5896276806809908
 21
47.2469684511000168
 31
0.0
  0
LINE
  5
1B2CA
  8
0
 10
-157.1180974600810032
 20
46.5078169414000087
 30
0.0
 11
-157.1180974600810032
 21
47.2699033957000196
 31
0.0
  0
LINE
  5
1B2CB
  8
0
 10
-157.1968376178161861
 20
46.5078169689449084
 30
0.0
 11
-157.1968930680988876
 21
47.2669260260667983
 31
0.0
  0
LINE
  5
1B2CC
  8
0
 10
-157.354317938872498
 20
46.5078169414000087
 30
0.0
 11
-157.3543643594310026
 21
47.2654843433500034
 31
0.0
  0
LINE
  5
1B2CD
  8
0
 10
-156.9606171451810042
 20
46.5078169414000087
 30
0.0
 11
-156.9606202320809984
 21
47.2638653150000181
 31
0.0
  0
ARC
  5
1B2CE
  8
0
 10
-157.8324081677565118
 20
47.0810866005964925
 30
0.0
 40
0.6257856243384711
 50
274.3155329577575117
 51
292.3200668144448855
  0
ARC
  5
1B2CF
  8
0
 10
-157.7528045874730083
 20
46.026217828835648
 30
0.0
 40
0.4320824466563172
 50
94.3155329577575543
 51
114.3918146387694037
  0
ARC
  5
1B2D0
  8
0
 10
-156.9440149557607924
 20
46.5294156796989213
 30
0.0
 40
0.0272422133764693
 50
232.4517870292100952
 51
268.2032419612033891
  0
ARC
  5
1B2D1
  8
0
 10
-157.1364362201225049
 20
46.534273081817922
 30
0.0
 40
0.0321906428278775
 50
274.6162024005695912
 51
304.7287688480632255
  0
ARC
  5
1B2D2
  8
0
 10
-157.1787231294223943
 20
46.5336456402817404
 30
0.0
 40
0.0315476616058243
 50
234.9567699174540962
 51
265.6980818906237118
  0
ARC
  5
1B2D3
  8
0
 10
-157.3727214898835882
 20
46.5344543071863583
 30
0.0
 40
0.0323765338764327
 50
274.7046893092218056
 51
304.6402964518214276
  0
ARC
  5
1B2D4
  8
0
 10
-156.9362847577451134
 20
47.2629325965660172
 30
0.0
 40
0.0243533421001355
 50
111.1111461435777983
 51
177.8050692506093071
  0
ARC
  5
1B2D5
  8
0
 10
-157.1346365394635995
 20
47.2690969876004417
 30
0.0
 40
0.0165587270297546
 50
2.791401991679026
 51
88.696136711149947
  0
ARC
  5
1B2D6
  8
0
 10
-157.1788698530166926
 20
47.2678366720273502
 30
0.0
 40
0.0180462061931177
 50
99.1862759455272709
 51
182.8924826982888874
  0
ARC
  5
1B2D7
  8
0
 10
-157.3737227830347081
 20
47.2664378879680882
 30
0.0
 40
0.0193818939156822
 50
357.1800410225935138
 51
82.4426942846531716
  0
ARC
  5
1B2D8
  8
0
 10
-157.6273306313478884
 20
47.2495232984343971
 30
0.0
 40
0.0377894129869176
 50
356.1234192042122118
 51
72.9478740146892903
  0
LINE
  5
1B2D9
  8
0
 10
-157.3603774020810135
 20
46.0398113655000003
 30
0.0
 11
-157.3603774020814114
 21
44.3722656005000005
 31
0.0
  0
LINE
  5
1B2DA
  8
0
 10
-157.3603774020810135
 20
46.0398113655000003
 30
0.0
 11
-157.2028970870809985
 21
46.0398113655000003
 31
0.0
  0
LINE
  5
1B2DB
  8
0
 10
-157.2028970870809985
 20
46.0398113655000003
 30
0.0
 11
-157.2028970870809985
 21
44.3722656005000005
 31
0.0
  0
LINE
  5
1B2DC
  8
0
 10
-157.1832120476809109
 20
46.0284462027032006
 30
0.0
 11
-157.1438419689810075
 21
46.0284462027032006
 31
0.0
  0
LINE
  5
1B2DD
  8
0
 10
-157.1241569295808915
 20
46.0398113655000003
 30
0.0
 11
-156.9666766146810915
 21
46.0398113655000003
 31
0.0
  0
LINE
  5
1B2DE
  8
0
 10
-156.9666766146810915
 20
46.0398113655000003
 30
0.0
 11
-156.9666766146810915
 21
44.3722656005000005
 31
0.0
  0
LINE
  5
1B2DF
  8
0
 10
-157.1241569295808915
 20
46.0398113655001211
 30
0.0
 11
-157.1241569295808915
 21
44.3722656005000005
 31
0.0
  0
ARC
  5
1B2E0
  8
0
 10
-156.9454563579168962
 20
46.0538356027715992
 30
0.0
 40
0.0254357726084309
 50
213.4602829176633918
 51
266.5397170817234951
  0
ARC
  5
1B2E1
  8
0
 10
-157.1444833607679072
 20
46.052287451458561
 30
0.0
 40
0.0238498747510054
 50
271.5410342351847248
 51
328.4589657661812225
  0
ARC
  5
1B2E2
  8
0
 10
-157.1794776030791922
 20
46.0576447763333405
 30
0.0
 40
0.0294364191583253
 50
217.288457205359208
 51
262.7115432165587094
  0
ARC
  5
1B2E3
  8
0
 10
-157.3764115368767023
 20
46.0448534843822728
 30
0.0
 40
0.0168085691180266
 50
282.5449209352212279
 51
342.5399177030686815
  0
LINE
  5
1B2E4
  8
0
 10
-142.619428810320187
 20
47.285651427199987
 30
0.0
 11
-158.2487913251677014
 21
47.285651427199987
 31
0.0
  0
CIRCLE
  5
1B2E5
  8
0
 10
-144.8013222838810066
 20
46.8919506398000223
 30
0.0
 40
0.1574803150000008
  0
CIRCLE
  5
1B2E6
  8
0
 10
-144.3288813389810912
 20
46.8919506398000223
 30
0.0
 40
0.1574803150000008
  0
CIRCLE
  5
1B2E7
  8
0
 10
-142.9705797638810054
 20
47.0176186112000067
 30
0.0
 40
0.0632999656658278
  0
LINE
  5
1B2E8
  8
0
 10
-141.3565506302811059
 20
7.0691159942000112
 30
0.0
 11
-142.3801726775811005
 21
7.0691159942000112
 31
0.0
  0
LINE
  5
1B2E9
  8
0
 10
-142.3801726775811005
 20
7.0691159942000112
 30
0.0
 11
-142.4589128349811062
 21
6.9903758367000028
 31
0.0
  0
LINE
  5
1B2EA
  8
0
 10
-142.4589128349811062
 20
6.9903758367000028
 30
0.0
 11
-142.4589128349811062
 21
-3.482065108199996
 31
0.0
  0
LINE
  5
1B2EB
  8
0
 10
-141.2778104727811126
 20
-3.482065108199996
 30
0.0
 11
-141.2778104727811126
 21
6.9903758367000028
 31
0.0
  0
LINE
  5
1B2EC
  8
0
 10
-141.2778104727811126
 20
6.9903758367000028
 30
0.0
 11
-142.4589128349811062
 21
6.9903758367000028
 31
0.0
  0
LINE
  5
1B2ED
  8
0
 10
-141.3565506302811059
 20
7.0691159942000112
 30
0.0
 11
-141.2778104727811126
 21
6.9903758367000028
 31
0.0
  0
CIRCLE
  5
1B2EE
  8
0
 10
-141.8683616539310037
 20
5.2974624509000057
 30
0.0
 40
0.1968503937000001
  0
CIRCLE
  5
1B2EF
  8
0
 10
-141.8683616539310037
 20
-1.7891517223999991
 30
0.0
 40
0.1968503937000001
  0
LINE
  5
1B2F0
  8
0
 10
-141.3565506302811059
 20
-3.5608052656999898
 30
0.0
 11
-142.3801726775811005
 21
-3.5608052656999898
 31
0.0
  0
LINE
  5
1B2F1
  8
0
 10
-142.3801726775811005
 20
-3.5608052656999898
 30
0.0
 11
-142.4589128349811062
 21
-3.482065108199996
 31
0.0
  0
LINE
  5
1B2F2
  8
0
 10
-141.2778104727811126
 20
-3.482065108199996
 30
0.0
 11
-142.4589128349811062
 21
-3.482065108199996
 31
0.0
  0
LINE
  5
1B2F3
  8
0
 10
-141.3565506302811059
 20
-3.5608052656999898
 30
0.0
 11
-141.2778104727811126
 21
-3.482065108199996
 31
0.0
  0
LINE
  5
1B2F4
  8
0
 10
-112.8919837011810046
 20
44.3722656004999934
 30
0.0
 11
-112.8919837011810046
 21
-36.3363958169000014
 31
0.0
  0
LINE
  5
1B2F5
  8
0
 10
-113.2069443310811039
 20
-36.3363958169000014
 30
0.0
 11
-113.2069443310811039
 21
44.3722656004999934
 31
0.0
  0
LINE
  5
1B2F6
  8
0
 10
-120.7659994491810949
 20
44.3722656004999934
 30
0.0
 11
-120.7659994491810949
 21
-36.3363958169000014
 31
0.0
  0
LINE
  5
1B2F7
  8
0
 10
-121.0809600790809952
 20
-36.3363958169000014
 30
0.0
 11
-121.0809600790809952
 21
44.3722656004999934
 31
0.0
  0
LINE
  5
1B2F8
  8
0
 10
-120.4673396111810035
 20
27.3888724142999997
 30
0.0
 11
-120.4673396111810035
 21
26.8813874910000195
 31
0.0
  0
LINE
  5
1B2F9
  8
0
 10
-120.1537898863810057
 20
27.698349837300011
 30
0.0
 11
-113.8191538939809959
 21
27.698349837300011
 31
0.0
  0
LINE
  5
1B2FA
  8
0
 10
-120.011283828181007
 20
27.530759591999999
 30
0.0
 11
-113.9482917022136945
 21
27.530759592000031
 31
0.0
  0
LINE
  5
1B2FB
  8
0
 10
-120.2041972139810042
 20
27.3378462061653202
 30
0.0
 11
-120.2041972139810042
 21
24.4244603794000099
 31
0.0
  0
LINE
  5
1B2FC
  8
0
 10
-120.3576553951809984
 20
27.3666508966000102
 30
0.0
 11
-120.3576553952845956
 21
23.26764408390002
 31
0.0
  0
LINE
  5
1B2FD
  8
0
 10
-120.0437588635810044
 20
27.6759880719000009
 30
0.0
 11
-113.9259136626218947
 21
27.6760052973341999
 31
0.0
  0
LINE
  5
1B2FE
  8
0
 10
-120.2544772167810976
 20
27.3666508966000102
 30
0.0
 11
-120.2544772167810976
 21
23.2676440838000005
 31
0.0
  0
LINE
  5
1B2FF
  8
0
 10
-120.0437588635810044
 20
27.5766332125000098
 30
0.0
 11
-113.9291849167812956
 21
27.5766332125000098
 31
0.0
  0
ARC
  5
1B300
  8
0
 10
-120.1561409053636993
 20
27.3871552747182214
 30
0.0
 40
0.3112034432179865
 50
89.567148919679596
 51
179.6838552006699956
  0
ARC
  5
1B301
  8
0
 10
-120.0470301177399932
 20
27.3653774093081594
 30
0.0
 40
0.310627888026054
 50
89.396601113852185
 51
179.7651027023063079
  0
ARC
  5
1B302
  8
0
 10
-120.0419493209326021
 20
27.3640976837881382
 30
0.0
 40
0.2125432318598426
 50
90.4878085660680256
 51
179.3117078553499084
  0
ARC
  5
1B303
  8
0
 10
-120.011283828181007
 20
27.3378462061999912
 30
0.0
 40
0.1929133858000078
 50
89.9999999752020443
 51
180.0000000102982085
  0
LINE
  5
1B304
  8
0
 10
-113.5056041691810975
 20
27.3888724142999997
 30
0.0
 11
-113.5056041691810975
 21
23.2454225661000109
 31
0.0
  0
LINE
  5
1B305
  8
0
 10
-113.7553783163809982
 20
27.3378462063000107
 30
0.0
 11
-113.7553135842854033
 21
24.4245708747369186
 31
0.0
  0
LINE
  5
1B306
  8
0
 10
-113.6152883851810032
 20
27.3666508966000102
 30
0.0
 11
-113.6152883851810032
 21
23.2676440838000005
 31
0.0
  0
LINE
  5
1B307
  8
0
 10
-113.7184665635810035
 20
27.3666508966000102
 30
0.0
 11
-113.7184665635810035
 21
23.2676440838000005
 31
0.0
  0
ARC
  5
1B308
  8
0
 10
-113.8168028749984018
 20
27.3871552747182214
 30
0.0
 40
0.3112034432179865
 50
0.3161447993300028
 51
90.4328510803204182
  0
ARC
  5
1B309
  8
0
 10
-113.9259136626218947
 20
27.3653774093081594
 30
0.0
 40
0.310627888026054
 50
0.2348972976936746
 51
90.6033988861543378
  0
ARC
  5
1B30A
  8
0
 10
-113.930994459429499
 20
27.3640976837881382
 30
0.0
 40
0.2125432318598426
 50
0.6882921446501004
 51
89.5121914339254516
  0
ARC
  5
1B30B
  8
0
 10
-113.9482917021809953
 20
27.3378462061999912
 30
0.0
 40
0.1929133858000185
 50
0.0000000297028185
 51
90.0000000096925135
  0
ARC
  5
1B30C
  8
0
 10
-120.5026660914331984
 20
26.8299486831696399
 30
0.0
 40
0.111618525673427
 50
0.572307633626401
 51
25.4070754717091916
  0
LINE
  5
1B30D
  8
0
 10
-120.4018430521809933
 20
26.8778382414000099
 30
0.0
 11
-120.4673396111810035
 21
26.8813874909770583
 31
0.0
  0
LINE
  5
1B30E
  8
0
 10
-120.3910531339810035
 20
26.8310635833000184
 30
0.0
 11
-120.3910531339810035
 21
24.9363523837024808
 31
0.0
  0
LINE
  5
1B30F
  8
0
 10
-120.4673396111810035
 20
23.2454225661000109
 30
0.0
 11
-120.4673396111810035
 21
24.8860281388000111
 31
0.0
  0
LINE
  5
1B310
  8
0
 10
-120.1537898863810057
 20
22.9359451432000192
 30
0.0
 11
-113.8191538939809959
 21
22.9359451432000014
 31
0.0
  0
LINE
  5
1B311
  8
0
 10
-120.011283828181007
 20
24.2315469935999985
 30
0.0
 11
-113.9482917021809953
 21
24.2315469935999985
 31
0.0
  0
LINE
  5
1B312
  8
0
 10
-120.0437588635810044
 20
22.9583069086000009
 30
0.0
 11
-113.9259136626218947
 21
22.958289683165809
 31
0.0
  0
LINE
  5
1B313
  8
0
 10
-120.0437588635810044
 20
23.0576617680000204
 30
0.0
 11
-113.9291849167812956
 21
23.0576617679999991
 31
0.0
  0
ARC
  5
1B314
  8
0
 10
-120.1561409053636993
 20
23.2471397057818088
 30
0.0
 40
0.3112034432179865
 50
180.3161447993298907
 51
270.4328510803139238
  0
ARC
  5
1B315
  8
0
 10
-120.0470301177399932
 20
23.2689175711918708
 30
0.0
 40
0.310627888026054
 50
180.2348972976936068
 51
270.6033988861544231
  0
ARC
  5
1B316
  8
0
 10
-120.0419493209326021
 20
23.27019729671186
 30
0.0
 40
0.2125432318598426
 50
180.6882921446492958
 51
269.512191433925409
  0
ARC
  5
1B317
  8
0
 10
-120.0112365916001949
 20
24.4245723047775591
 30
0.0
 40
0.1930253169573133
 50
178.5165375396022114
 51
269.9859787720808981
  0
ARC
  5
1B318
  8
0
 10
-113.8168028749984018
 20
23.2471397057818088
 30
0.0
 40
0.3112034432179865
 50
269.5671489196860762
 51
359.6838552006699956
  0
ARC
  5
1B319
  8
0
 10
-113.9259136626218947
 20
23.2689175711918708
 30
0.0
 40
0.310627888026054
 50
269.3966011138455769
 51
359.7651027023064216
  0
ARC
  5
1B31A
  8
0
 10
-113.930994459429499
 20
23.27019729671186
 30
0.0
 40
0.2125432318598426
 50
270.487808566074591
 51
359.3117078553499937
  0
ARC
  5
1B31B
  8
0
 10
-113.9483374708479033
 20
24.42457087473624
 30
0.0
 40
0.1930238865624375
 50
270.0135856318977972
 51
359.9999999999976126
  0
ARC
  5
1B31C
  8
0
 10
-120.5025972609206946
 20
24.93745106097602
 30
0.0
 40
0.1115495376345661
 50
334.5851263773074038
 51
359.4356714517695082
  0
LINE
  5
1B31D
  8
0
 10
-120.4018430521809933
 20
24.8895773883999887
 30
0.0
 11
-120.4673396111810035
 21
24.8860281388229687
 31
0.0
  0
LINE
  5
1B31E
  8
0
 10
-122.7738734649809942
 20
44.3722656005000005
 30
0.0
 11
-122.7738734649809942
 21
37.9549427658000127
 31
0.0
  0
LINE
  5
1B31F
  8
0
 10
-137.4589128349811062
 20
37.9549427658000127
 30
0.0
 11
-163.4431648034810109
 21
37.9549427658000127
 31
0.0
  0
LINE
  5
1B320
  8
0
 10
-161.7855072358811128
 20
37.9549427658000127
 30
0.0
 11
-161.7855072358811128
 21
37.7974624509000066
 31
0.0
  0
LINE
  5
1B321
  8
0
 10
-161.7699364569810996
 20
37.834920599600018
 30
0.0
 11
-161.7699364569810996
 21
37.7974624509000066
 31
0.0
  0
LINE
  5
1B322
  8
0
 10
-162.2117008400811073
 20
37.9549427658000127
 30
0.0
 11
-162.2117008400811073
 21
28.7620293800000013
 31
0.0
  0
LINE
  5
1B323
  8
0
 10
-162.2117008400811073
 20
25.3762026083000194
 30
0.0
 11
-162.2117008400811073
 21
-21.8678918797999984
 31
0.0
  0
LINE
  5
1B324
  8
0
 10
-162.2117008400811073
 20
-25.253718651499991
 30
0.0
 11
-162.2117008400811073
 21
-34.4466320372999988
 31
0.0
  0
LINE
  5
1B325
  8
0
 10
-161.7699364569810996
 20
-34.2891517223999998
 30
0.0
 11
-161.7699364569810996
 21
-34.3266098710999827
 31
0.0
  0
LINE
  5
1B326
  8
0
 10
-163.4431648034810109
 20
44.3722656004999934
 30
0.0
 11
-163.4431648034810109
 21
-36.3363958169000014
 31
0.0
  0
LINE
  5
1B327
  8
0
 10
-160.3132435436810965
 20
28.7620293800000191
 30
0.0
 11
-163.2659994491810949
 21
28.7620293800000013
 31
0.0
  0
LINE
  5
1B328
  8
0
 10
-163.2659994491810949
 20
28.7620293800000013
 30
0.0
 11
-163.2659994491810949
 21
25.3762026083000194
 31
0.0
  0
LINE
  5
1B329
  8
0
 10
-163.2659994491810949
 20
25.3762026083000194
 30
0.0
 11
-160.3132435436810965
 21
25.3762026083000194
 31
0.0
  0
LINE
  5
1B32A
  8
0
 10
-159.8408025987810106
 20
25.8486435532000094
 30
0.0
 11
-159.8408025987810106
 21
28.2895884351000184
 31
0.0
  0
ARC
  5
1B32B
  8
0
 10
-160.3132435436810965
 20
28.2895884351000007
 30
0.0
 40
0.4724409449000007
 50
0.0
 51
89.9999999999934914
  0
ARC
  5
1B32C
  8
0
 10
-160.3132435436810965
 20
25.8486435532000094
 30
0.0
 40
0.4724409449000114
 50
270.0
 51
359.9999999999984084
  0
LINE
  5
1B32D
  8
0
 10
-162.6358577168809063
 20
27.8171474902
 30
0.0
 11
-163.2659994491810949
 21
27.8171474902000213
 31
0.0
  0
LINE
  5
1B32E
  8
0
 10
-162.6236391895810982
 20
27.8328955216999994
 30
0.0
 11
-163.2659994491810949
 21
27.8328955216999994
 31
0.0
  0
LINE
  5
1B32F
  8
0
 10
-162.7148183467811009
 20
27.8171474902000213
 30
0.0
 11
-162.7148183467811009
 21
27.8269900099000083
 31
0.0
  0
LINE
  5
1B330
  8
0
 10
-162.7148183467811009
 20
27.8269900099000083
 30
0.0
 11
-163.1872592916811016
 21
27.8269900099000083
 31
0.0
  0
LINE
  5
1B331
  8
0
 10
-163.1872592916811016
 20
27.8269900099000083
 30
0.0
 11
-163.1872592916811016
 21
27.8171474902000213
 31
0.0
  0
LINE
  5
1B332
  8
0
 10
-162.7935585042810942
 20
27.8328955216999994
 30
0.0
 11
-162.7935585042810942
 21
27.8269900099000083
 31
0.0
  0
LINE
  5
1B333
  8
0
 10
-162.6236391895810982
 20
27.8328955216999994
 30
0.0
 11
-162.6236391895810982
 21
26.3053364666
 31
0.0
  0
LINE
  5
1B334
  8
0
 10
-162.6358577168809063
 20
27.8171474902
 30
0.0
 11
-162.6360781908811077
 21
26.3210844981000101
 31
0.0
  0
LINE
  5
1B335
  8
0
 10
-162.6360781908811077
 20
26.3210844981000101
 30
0.0
 11
-163.2659994491810949
 21
26.3210844981000101
 31
0.0
  0
LINE
  5
1B336
  8
0
 10
-162.6236391895810982
 20
26.3053364666
 30
0.0
 11
-163.2659994491810949
 21
26.3053364666
 31
0.0
  0
LINE
  5
1B337
  8
0
 10
-162.7148183467811009
 20
26.3210844981000101
 30
0.0
 11
-162.7148183467811009
 21
26.3112419784000302
 31
0.0
  0
LINE
  5
1B338
  8
0
 10
-162.7148183467811009
 20
26.3112419784000302
 30
0.0
 11
-163.1872592916811016
 21
26.3112419784000302
 31
0.0
  0
LINE
  5
1B339
  8
0
 10
-163.1872592916811016
 20
26.3112419784000302
 30
0.0
 11
-163.1872592916811016
 21
26.3210844981000101
 31
0.0
  0
LINE
  5
1B33A
  8
0
 10
-162.7935585042810942
 20
26.3053364666
 30
0.0
 11
-162.7935585042810942
 21
26.3112419784000302
 31
0.0
  0
LINE
  5
1B33B
  8
0
 10
-160.3132435436810965
 20
-21.8678918797999913
 30
0.0
 11
-163.2659994491810949
 21
-21.8678918797999984
 31
0.0
  0
LINE
  5
1B33C
  8
0
 10
-163.2659994491810949
 20
-21.8678918797999984
 30
0.0
 11
-163.2659994491810949
 21
-25.253718651499991
 31
0.0
  0
LINE
  5
1B33D
  8
0
 10
-163.2659994491810949
 20
-25.253718651499991
 30
0.0
 11
-160.3132435436810965
 21
-25.253718651499991
 31
0.0
  0
LINE
  5
1B33E
  8
0
 10
-159.8408025987810106
 20
-24.781277706600001
 30
0.0
 11
-159.8408025987810106
 21
-22.3403328246999884
 31
0.0
  0
ARC
  5
1B33F
  8
0
 10
-160.3132435436810965
 20
-22.340332824699999
 30
0.0
 40
0.4724409449000007
 50
0.0
 51
89.9999999999934914
  0
ARC
  5
1B340
  8
0
 10
-160.3132435436810965
 20
-24.7812777065999796
 30
0.0
 40
0.4724409449000114
 50
270.0
 51
359.9999999999984084
  0
LINE
  5
1B341
  8
0
 10
-162.6358577168809063
 20
-22.812773769599989
 30
0.0
 11
-163.2659994491810949
 21
-22.812773769599989
 31
0.0
  0
LINE
  5
1B342
  8
0
 10
-162.6236391895810982
 20
-22.7970257380999897
 30
0.0
 11
-163.2659994491810949
 21
-22.7970257380999897
 31
0.0
  0
LINE
  5
1B343
  8
0
 10
-162.7148183467811009
 20
-22.812773769599989
 30
0.0
 11
-162.7148183467811009
 21
-22.8029312498999914
 31
0.0
  0
LINE
  5
1B344
  8
0
 10
-162.7148183467811009
 20
-22.8029312498999914
 30
0.0
 11
-163.1872592916811016
 21
-22.8029312498999914
 31
0.0
  0
LINE
  5
1B345
  8
0
 10
-163.1872592916811016
 20
-22.8029312498999914
 30
0.0
 11
-163.1872592916811016
 21
-22.812773769599989
 31
0.0
  0
LINE
  5
1B346
  8
0
 10
-162.7935585042810942
 20
-22.7970257380999897
 30
0.0
 11
-162.7935585042810942
 21
-22.8029312498999914
 31
0.0
  0
LINE
  5
1B347
  8
0
 10
-162.6236391895810982
 20
-22.7970257380999897
 30
0.0
 11
-162.6236391895810982
 21
-24.324584793199989
 31
0.0
  0
LINE
  5
1B348
  8
0
 10
-162.6358577168809063
 20
-22.812773769599989
 30
0.0
 11
-162.6360781908811077
 21
-24.3088367617000003
 31
0.0
  0
LINE
  5
1B349
  8
0
 10
-162.6360781908811077
 20
-24.3088367616999896
 30
0.0
 11
-163.2659994491810949
 21
-24.3088367616999896
 31
0.0
  0
LINE
  5
1B34A
  8
0
 10
-162.6236391895810982
 20
-24.324584793199989
 30
0.0
 11
-163.2659994491810949
 21
-24.324584793199989
 31
0.0
  0
LINE
  5
1B34B
  8
0
 10
-162.7148183467811009
 20
-24.3088367616999896
 30
0.0
 11
-162.7148183467811009
 21
-24.3186792813999908
 31
0.0
  0
LINE
  5
1B34C
  8
0
 10
-162.7148183467811009
 20
-24.3186792813999908
 30
0.0
 11
-163.1872592916811016
 21
-24.3186792813999908
 31
0.0
  0
LINE
  5
1B34D
  8
0
 10
-163.1872592916811016
 20
-24.3186792813999908
 30
0.0
 11
-163.1872592916811016
 21
-24.3088367616999896
 31
0.0
  0
LINE
  5
1B34E
  8
0
 10
-162.7935585042810942
 20
-24.324584793199989
 30
0.0
 11
-162.7935585042810942
 21
-24.3186792813999908
 31
0.0
  0
LINE
  5
1B34F
  8
0
 10
-171.8289915751811066
 20
46.3801199311879131
 30
0.0
 11
-171.8289915751811066
 21
44.3722656005879017
 31
0.0
  0
ARC
  5
1B350
  8
0
 10
-171.9864915751811054
 20
46.3801199311879131
 30
0.0
 40
0.1575
 50
0.0
 51
89.999999998625583
  0
LINE
  5
1B351
  8
0
 10
-171.9864915751772969
 20
46.537619931187912
 30
0.0
 11
-176.1597002366752065
 21
46.5376199312878995
 31
0.0
  0
LINE
  5
1B352
  8
0
 10
-171.9864718901810079
 20
46.3014396162879223
 30
0.0
 11
-171.9864718901810079
 21
44.4903356791879006
 31
0.0
  0
ARC
  5
1B353
  8
0
 10
-172.0651718901810909
 20
46.3014396162879223
 30
0.0
 40
0.0787
 50
0.0
 51
90.0
  0
LINE
  5
1B354
  8
0
 10
-172.0651718901810909
 20
46.3801396162879129
 30
0.0
 11
-176.0809600791810965
 21
46.3801396162878774
 31
0.0
  0
LINE
  5
1B355
  8
0
 10
-176.3171403941809956
 20
46.3801199311879131
 30
0.0
 11
-176.3171403941809956
 21
44.3722656005879017
 31
0.0
  0
ARC
  5
1B356
  8
0
 10
-176.1596394497402969
 20
46.3801189985747015
 30
0.0
 40
0.157500944443436
 50
90.0221131049013934
 51
179.9996607334641112
  0
LINE
  5
1B357
  8
0
 10
-176.1596600791810943
 20
46.3014396162879223
 30
0.0
 11
-176.1596600791810943
 21
44.4903356791879006
 31
0.0
  0
ARC
  5
1B358
  8
0
 10
-176.0809600791810965
 20
44.4903356791879006
 30
0.0
 40
0.0787
 50
180.0
 51
270.0
  0
ARC
  5
1B359
  8
0
 10
-176.0809600791810965
 20
46.3014396162879223
 30
0.0
 40
0.0787
 50
90.0
 51
180.0
  0
LINE
  5
1B35A
  8
0
 10
-176.0809600791810965
 20
44.4116356791879028
 30
0.0
 11
-172.0651718901810909
 21
44.4116356791879028
 31
0.0
  0
ARC
  5
1B35B
  8
0
 10
-172.0651718901810909
 20
44.4903356791879006
 30
0.0
 40
0.0787
 50
270.0
 51
0.0
  0
LINE
  5
1B35C
  8
0
 10
-134.8211175593810083
 20
37.9549427658000127
 30
0.0
 11
-134.8211175593810083
 21
44.3722656005000005
 31
0.0
  0
LINE
  5
1B35D
  8
0
 10
-163.4431648034810109
 20
-34.4466320372999988
 30
0.0
 11
-137.4589128349809926
 21
-34.4466320372999988
 31
0.0
  0
LINE
  5
1B35E
  8
0
 10
-161.7699364570810019
 20
-34.326609871099997
 30
0.0
 11
-139.1321411814809892
 21
-34.326609871099997
 31
0.0
  0
LINE
  5
1B35F
  8
0
 10
-139.1321411814809892
 20
-34.326609871099997
 30
0.0
 11
-139.1321411814809892
 21
-34.2891517224999518
 31
0.0
  0
LINE
  5
1B360
  8
0
 10
-161.7855072358811128
 20
-34.2891517224999518
 30
0.0
 11
-161.7855072358811128
 21
-34.4466320372999988
 31
0.0
  0
LINE
  5
1B361
  8
0
 10
-139.1165704025810896
 20
-34.2891517223999998
 30
0.0
 11
-139.1165704025810896
 21
-34.4466320372999988
 31
0.0
  0
LINE
  5
1B362
  8
0
 10
-138.6903767983810098
 20
1.502186860300007
 30
0.0
 11
-138.6903767983810098
 21
-34.4466320372999988
 31
0.0
  0
LINE
  5
1B363
  8
0
 10
-137.4589128349809926
 20
-36.3363958169000014
 30
0.0
 11
-137.4589128349809926
 21
44.3722656005000005
 31
0.0
  0
LINE
  5
1B364
  8
0
 10
-138.5612750396809929
 20
2.4431317422500101
 30
0.0
 11
-138.6282041735811106
 21
2.4431317422500101
 31
0.0
  0
LINE
  5
1B365
  8
0
 10
-138.6282041735811106
 20
2.4431317422500101
 30
0.0
 11
-138.6282041735811106
 21
1.0651789862500101
 31
0.0
  0
LINE
  5
1B366
  8
0
 10
-138.6282041735811106
 20
1.0651789862500101
 30
0.0
 11
-138.5612750396809929
 21
1.0651789862500101
 31
0.0
  0
LINE
  5
1B367
  8
0
 10
-138.6282041735811106
 20
2.0061238681500049
 30
0.0
 11
-138.7266293703810049
 21
2.0061238681500049
 31
0.0
  0
LINE
  5
1B368
  8
0
 10
-138.7266293703810049
 20
2.0061238681500049
 30
0.0
 11
-138.7659994491810949
 21
1.966753789450002
 31
0.0
  0
LINE
  5
1B369
  8
0
 10
-138.7659994491810949
 20
1.966753789450002
 30
0.0
 11
-138.7659994491810949
 21
1.541556939050003
 31
0.0
  0
LINE
  5
1B36A
  8
0
 10
-138.7659994491810949
 20
1.966753789450002
 30
0.0
 11
-138.6282041735811106
 21
1.966753789450002
 31
0.0
  0
LINE
  5
1B36B
  8
0
 10
-138.7659994491810949
 20
1.541556939050003
 30
0.0
 11
-138.6282041735811106
 21
1.541556939050003
 31
0.0
  0
LINE
  5
1B36C
  8
0
 10
-138.7659994491810949
 20
1.541556939050003
 30
0.0
 11
-138.7266293703810049
 21
1.502186860350001
 31
0.0
  0
LINE
  5
1B36D
  8
0
 10
-138.7266293703810049
 20
1.502186860350001
 30
0.0
 11
-138.6282041735811106
 21
1.502186860350001
 31
0.0
  0
LINE
  5
1B36E
  8
0
 10
-138.5612750396809929
 20
2.325021505949997
 30
0.0
 11
-138.6282041735811106
 21
2.325021505949997
 31
0.0
  0
LINE
  5
1B36F
  8
0
 10
-138.5612750396809929
 20
1.183289222550008
 30
0.0
 11
-138.6282041735811106
 21
1.183289222550008
 31
0.0
  0
LINE
  5
1B370
  8
0
 10
-138.5612750396809929
 20
-34.4466320372999988
 30
0.0
 11
-138.5612750396809929
 21
37.9549427658000127
 31
0.0
  0
LINE
  5
1B371
  8
0
 10
-138.6903767983810098
 20
2.0061238682000062
 30
0.0
 11
-138.6903767983810098
 21
37.9549427658000127
 31
0.0
  0
LINE
  5
1B372
  8
0
 10
-161.7699364570810019
 20
37.834920599600018
 30
0.0
 11
-139.1321411814809892
 21
37.834920599600018
 31
0.0
  0
LINE
  5
1B373
  8
0
 10
-139.1321411814809892
 20
37.834920599600018
 30
0.0
 11
-139.1321411814809892
 21
37.7974624509999728
 31
0.0
  0
LINE
  5
1B374
  8
0
 10
-139.1165704025810896
 20
37.7974624509000066
 30
0.0
 11
-139.1165704025810896
 21
37.9549427658000127
 31
0.0
  0
LINE
  5
1B375
  8
0
 10
-191.1201096854807986
 20
44.3722656005000005
 30
0.0
 11
-191.1201096854807986
 21
-36.3363958169000014
 31
0.0
  0
LINE
  5
1B376
  8
0
 10
-190.175227795680911
 20
-39.0923013287000032
 30
0.0
 11
-190.175227795680911
 21
-36.3363958169000014
 31
0.0
  0
LINE
  5
1B377
  8
0
 10
-188.0098734649808989
 20
44.3722656004999934
 30
0.0
 11
-188.0098734649808989
 21
-36.3363958169000014
 31
0.0
  0
LINE
  5
1B378
  8
0
 10
-187.6949128350809133
 20
-36.3363958169000014
 30
0.0
 11
-187.6949128350809133
 21
44.3722656004999934
 31
0.0
  0
LINE
  5
1B379
  8
0
 10
-166.0809600790809952
 20
37.9549427658000127
 30
0.0
 11
-166.0809600790809952
 21
44.3722656005000005
 31
0.0
  0
LINE
  5
1B37A
  8
0
 10
-186.0022199215810019
 20
44.3722656005000005
 30
0.0
 11
-186.0022199215810019
 21
37.9549427658000127
 31
0.0
  0
LINE
  5
1B37B
  8
0
 10
-157.1968929980006067
 20
47.2659663877999989
 30
0.0
 11
-157.3543466250216056
 21
47.2659663877999989
 31
0.0
  0
LINE
  5
1B37C
  8
0
 10
-157.1180974600810032
 20
47.2659663877999918
 30
0.0
 11
-156.9604483953478109
 21
47.2659663877999918
 31
0.0
  0
LINE
  5
1B37D
  8
0
 10
-143.7049641682613981
 20
47.2659663877999989
 30
0.0
 11
-143.5475105412403991
 21
47.2659663877999918
 31
0.0
  0
LINE
  5
1B37E
  8
0
 10
-143.7837597061810015
 20
47.2659663877999989
 30
0.0
 11
-143.9414087709141938
 21
47.2659663877999989
 31
0.0
  0
LINE
  5
1B37F
  8
0
 10
-141.8878262208808962
 20
5.4933481526071466
 30
0.0
 11
-141.8878262208808962
 21
5.1015767491928647
 31
0.0
  0
LINE
  5
1B380
  8
0
 10
-141.8484561420808916
 20
5.4933038359487991
 30
0.0
 11
-141.8484561420808916
 21
5.1016210658512131
 31
0.0
  0
LINE
  5
1B381
  8
0
 10
-141.8878262208808962
 20
-1.5932660206928579
 30
0.0
 11
-141.8878262208808962
 21
-1.98503742410714
 31
0.0
  0
LINE
  5
1B382
  8
0
 10
-141.8484561420808916
 20
-1.593310337351207
 30
0.0
 11
-141.8484561420808916
 21
-1.9849931074487921
 31
0.0
  0
LINE
  5
1B383
  8
0
 10
-176.2382199216808942
 20
44.3722656004999934
 30
0.0
 11
-176.2382199216808942
 21
46.3801396160862467
 31
0.0
  0
ARC
  5
1B384
  8
0
 10
-176.1594797641672017
 20
46.3801396160862609
 30
0.0
 40
0.0787401575137423
 50
90.0000000099986437
 51
180.0
  0
LINE
  5
1B385
  8
0
 10
-176.1594797641809009
 20
46.4588797736000032
 30
0.0
 11
-171.9862514176809043
 21
46.4588797743283095
 31
0.0
  0
ARC
  5
1B386
  8
0
 10
-171.986251417667205
 20
46.3801396168420581
 30
0.0
 40
0.0787401574862514
 50
359.9999994600283912
 51
90.0000000099937552
  0
LINE
  5
1B387
  8
0
 10
-171.907511260180911
 20
46.3801396160999886
 30
0.0
 11
-171.9075112791036872
 21
44.3722656004999791
 31
0.0
  0
LINE
  5
1B388
  8
0
 10
-122.8916529924808998
 20
44.3722656005000005
 30
0.0
 11
-122.8916529924808998
 21
37.9549427657999985
 31
0.0
  0
LINE
  5
1B389
  8
0
 10
-134.7028970869808973
 20
44.3722656005000005
 30
0.0
 11
-134.7028970869808973
 21
37.9549427658000127
 31
0.0
  0
LINE
  5
1B38A
  8
0
 10
-137.5766923625809
 20
44.3722656005000005
 30
0.0
 11
-137.5766923625809
 21
37.9549427657999985
 31
0.0
  0
LINE
  5
1B38B
  8
0
 10
-163.3249443310808999
 20
44.3722656004999934
 30
0.0
 11
-163.3249443310808999
 21
37.9549427658000127
 31
0.0
  0
LINE
  5
1B38C
  8
0
 10
-166.1987396066809026
 20
44.3722656004999934
 30
0.0
 11
-166.1987396066809026
 21
37.9549427658000127
 31
0.0
  0
LINE
  5
1B38D
  8
0
 10
-185.8839994491808909
 20
44.3722656004999791
 30
0.0
 11
-185.8839994491808909
 21
37.9549427658000127
 31
0.0
  0
LINE
  5
1B38E
  8
0
 10
-163.108298661780907
 20
27.8328955216999994
 30
0.0
 11
-163.108298661780907
 21
27.8269900099000083
 31
0.0
  0
LINE
  5
1B38F
  8
0
 10
-163.108298661780907
 20
26.3112419784000302
 30
0.0
 11
-163.108298661780907
 21
26.3053364666
 31
0.0
  0
LINE
  5
1B390
  8
0
 10
-163.108298661780907
 20
-24.3186792813999908
 30
0.0
 11
-163.108298661780907
 21
-24.324584793199989
 31
0.0
  0
LINE
  5
1B391
  8
0
 10
-163.108298661780907
 20
-22.8029312498999914
 30
0.0
 11
-163.108298661780907
 21
-22.7970257380999897
 31
0.0
  0
LINE
  5
1B392
  8
0
 10
-162.3405821263808946
 20
-34.4466320372999988
 30
0.0
 11
-162.3405821263808946
 21
-25.253718651499991
 31
0.0
  0
LINE
  5
1B393
  8
0
 10
-162.3405821263808946
 20
-21.8678918797999984
 30
0.0
 11
-162.3405821263808946
 21
25.3762026083000194
 31
0.0
  0
LINE
  5
1B394
  8
0
 10
-162.3405821263808946
 20
28.7620293800000013
 30
0.0
 11
-162.3405821263808946
 21
37.9549427658000127
 31
0.0
  0
LINE
  5
1B395
  8
0
 10
-166.0809600790809952
 20
-34.4466320372999775
 30
0.0
 11
-163.4431648034810109
 21
-34.4466320372999775
 31
0.0
  0
LINE
  5
1B396
  8
0
 10
-186.0022199215810019
 20
-34.4466320372999988
 30
0.0
 11
-187.6949128350809133
 21
-34.4466320372999988
 31
0.0
  0
LINE
  5
1B397
  8
0
 10
-137.4589128349809926
 20
-34.4466320372999917
 30
0.0
 11
-134.8211175593810083
 21
-34.4466320372999988
 31
0.0
  0
LINE
  5
1B398
  8
0
 10
-122.7738734649809942
 20
-34.4466320372999988
 30
0.0
 11
-121.0809600790809952
 21
-34.4466320372999988
 31
0.0
  0
LINE
  5
1B399
  8
0
 10
-186.0022199215810019
 20
37.9549427658000127
 30
0.0
 11
-187.6949128350809133
 21
37.9549427658000127
 31
0.0
  0
LINE
  5
1B39A
  8
0
 10
-166.0809600790809952
 20
37.9549427658000127
 30
0.0
 11
-163.4431648034810109
 21
37.9549427658000127
 31
0.0
  0
LINE
  5
1B39B
  8
0
 10
-137.4589128349809926
 20
37.9549427658000127
 30
0.0
 11
-134.8211175593810083
 21
37.9549427657999985
 31
0.0
  0
LINE
  5
1B39C
  8
0
 10
-122.7738734649809942
 20
37.9549427658000127
 30
0.0
 11
-121.0809600790809952
 21
37.9549427658000127
 31
0.0
  0
ENDBLK
  5
1B39D
  8
0
  0
BLOCK
  8
0
  2
FRONT_GLASS
 70
     0
 10
0.0
 20
0.0
 30
0.0
  3
FRONT_GLASS
  1

  0
INSERT
  5
1B3A0
  8
0
  2
FRAME_BLOCK
 10
44.2834212345810485
 20
-23.9168909666843206
 30
0.0
  0
INSERT
  5
1B3A1
  8
0
  2
MA
 10
44.2834212345810485
 20
-23.9168909666843206
 30
0.0
  0
INSERT
  5
1B3A2
  8
0
  2
ACCESORIES
 10
44.2834212345810485
 20
-23.9168909666843206
 30
0.0
  0
INSERT
  5
1B3A3
  8
0
  2
GLASS
 10
0.0
 20
0.0
 30
0.0
  0
INSERT
  5
1B3A4
  8
0
  2
WOOD
 10
0.0
 20
0.0
 30
0.0
  0
ENDBLK
  5
1B3A5
  8
0
  0
ENDSEC
  0
SECTION
  2
ENTITIES
  0
ATTDEF
  5
C5C4
  8
DEFPOINTS
 10
6697.410430331682619
 20
124.8196901481701957
 30
0.0
 40
0.001
  1
K-EX34378T-DUN
  3

  2
MODELNUMBER
 70
     0
1001
ACDBATTR
1070
     0
1070
     1
  0
ATTDEF
  5
C5C5
  8
DEFPOINTS
 10
6697.410430331682619
 20
124.8180234815036016
 30
0.0
 40
0.001
  1
KOHLER
  3

  2
BRANDNAME
 70
     0
1001
ACDBATTR
1070
     0
1070
     1
  0
ATTDEF
  5
C5C6
  8
DEFPOINTS
 10
6697.410430331682619
 20
124.8163568148368938
 30
0.0
 40
0.001
  1
BATH 
  3

  2
PRODUCT
 70
     0
1001
ACDBATTR
1070
     0
1070
     1
  0
LINE
  5
1D81C
  8
0
 10
6682.7318457684095847
 20
147.4592381212127066
 30
0.0
 11
6712.0984978035776294
 21
147.4592381212127066
 31
0.0
  0
LINE
  5
1D81D
  8
0
 10
6685.4072981457629794
 20
124.8214428456126939
 30
0.0
 11
6709.4230454350627042
 21
124.8214428456126939
 31
0.0
  0
ARC
  5
1D81E
  8
0
 10
6924.2265033883268188
 20
147.9287305752210102
 30
0.0
 40
241.5739798170756103
 50
180.130061096739098
 51
183.5486751886467118
  0
ARC
  5
1D81F
  8
0
 10
6682.7318457684095847
 20
147.3805381212127088
 30
0.0
 40
0.0787
 50
90.0
 51
180.1300610967342095
  0
ARC
  5
1D820
  8
0
 10
6715.2561532263171102
 20
135.3716568619049099
 30
0.0
 40
32.2313614226246514
 50
184.2625121096207863
 51
194.6982284129566949
  0
ARC
  5
1D821
  8
0
 10
6690.0135842566096471
 20
128.9573183607396913
 30
0.0
 40
6.1905846259956876
 50
196.5525234783106043
 51
221.9199181220016044
  0
ARC
  5
1D822
  8
0
 10
6470.6038498674997754
 20
147.9287301162771939
 30
0.0
 40
241.5739701322196993
 50
356.4513247779603944
 51
359.8699390069327819
  0
ARC
  5
1D823
  8
0
 10
6712.0984978035776294
 20
147.3805381212127088
 30
0.0
 40
0.0787
 50
359.8699390068871935
 51
90.0
  0
ARC
  5
1D824
  8
0
 10
6679.5741903545085734
 20
135.3716568619049099
 30
0.0
 40
32.2313614226246514
 50
345.3017715870462894
 51
355.7374878903792137
  0
ARC
  5
1D825
  8
0
 10
6704.8167593242160365
 20
128.957318360739805
 30
0.0
 40
6.1905846259959878
 50
318.0800818779969177
 51
343.4474765216922947
  0
ARC
  5
1D827
  8
0
 10
6643.469654686494323
 20
145.345746124893509
 30
0.0
 40
39.2512579458148707
 50
0.2886940337893464
 51
2.9656036296299888
  0
ARC
  5
1D828
  8
0
 10
6682.7469409159593852
 20
147.3805381212127088
 30
0.0
 40
0.0787
 50
90.0
 51
182.9656036296300101
  0
ARC
  5
1D829
  8
0
 10
7141.0857873972599918
 20
152.8768254212581041
 30
0.0
 40
458.4240314020752862
 50
180.9165868192384892
 51
181.3289060574076075
  0
ARC
  5
1D82A
  8
0
 10
6963.7562171239833333
 20
148.7631436094877131
 30
0.0
 40
281.0467530619409899
 50
181.3289060574076075
 51
181.7705385255939063
  0
ARC
  5
1D82B
  8
0
 10
7006.8793626331507767
 20
150.0961476005992097
 30
0.0
 40
324.1904962728074224
 50
181.7705385255939063
 51
182.2127336896674024
  0
ARC
  5
1D82C
  8
0
 10
6797.2235305409776629
 20
141.9953188669730082
 30
0.0
 40
114.3782198054068999
 50
182.2127336896674024
 51
183.6588888906952945
  0
ARC
  5
1D82D
  8
0
 10
6784.2895517413044217
 20
141.1682347987128878
 30
0.0
 40
101.417823374495697
 50
183.6588888906952945
 51
185.3562354271450943
  0
ARC
  5
1D82E
  8
0
 10
6707.8998005517869387
 20
134.006143669476387
 30
0.0
 40
24.6930579063641886
 50
185.3562354271450943
 51
188.5805407308569954
  0
ARC
  5
1D82F
  8
0
 10
6708.1227733100358819
 20
134.0397876727431026
 30
0.0
 40
24.9185546244701115
 50
188.5805407308569954
 51
195.4139799026337982
  0
ARC
  5
1D830
  8
0
 10
6690.5521645324879501
 20
129.5937290187235931
 30
0.0
 40
6.8090619006200104
 50
198.6467403567577037
 51
211.9921970087935961
  0
ARC
  5
1D831
  8
0
 10
6692.0252442288146995
 20
129.6166953574872025
 30
0.0
 40
8.1063741274826935
 50
206.6057728273260068
 51
214.79568654910139
  0
ARC
  5
1D832
  8
0
 10
6685.7366604007029309
 20
125.2467178214290016
 30
0.0
 40
0.4485029984505508
 50
214.79568654910139
 51
251.4796169093455944
  0
ARC
  5
1D833
  8
0
 10
8651.8382340940988797
 20
192.0433140865968085
 30
0.0
 40
1969.4754856029248913
 50
181.2994882422295859
 51
181.4743541694884073
  0
ARC
  5
1D834
  8
0
 10
6682.9479538635841891
 20
147.3805381212127088
 30
0.0
 40
0.0787
 50
90.0
 51
181.2994882415979987
  0
ARC
  5
1D835
  8
0
 10
8651.8382340940988797
 20
192.0433140865968085
 30
0.0
 40
1969.150300574018047
 50
181.299702884812092
 51
181.4743541694884073
  0
ARC
  5
1D836
  8
0
 10
6683.2732225615382049
 20
147.3805381212127088
 30
0.0
 40
0.0787
 50
90.0
 51
181.2997028845090881
  0
ARC
  5
1D837
  8
0
 10
6862.8258613294892712
 20
146.5133735577321943
 30
0.0
 40
179.8846564692883874
 50
181.6385538523944092
 51
183.3154897023424894
  0
ARC
  5
1D838
  8
0
 10
6862.8258613294892712
 20
146.5133735577321943
 30
0.0
 40
179.5594714403808894
 50
181.6385538523944092
 51
183.3154897023424894
  0
ARC
  5
1D839
  8
0
 10
6707.7400563201890691
 20
134.9444099373012023
 30
0.0
 40
24.5254741970191397
 50
177.2760969907400863
 51
193.3816439767931001
  0
ARC
  5
1D83A
  8
0
 10
6707.8307695000639796
 20
134.9593546360954122
 30
0.0
 40
24.2919990945015591
 50
177.2407773830404096
 51
193.3664181722494959
  0
ARC
  5
1D83B
  8
0
 10
6691.4248766376113053
 20
129.9067730916621883
 30
0.0
 40
7.5713957618186756
 50
184.8371254246947046
 51
222.1946558536861005
  0
ARC
  5
1D83C
  8
0
 10
6691.9636739543366275
 20
130.0456667847450092
 30
0.0
 40
7.7985382339474896
 50
185.1651735756964001
 51
222.0589577563364969
  0
ARC
  5
1D83D
  8
0
 10
6311.6524625999900309
 20
110.6190694426822034
 30
0.0
 40
373.766693555802874
 50
3.1250292675034941
 51
5.6432052346741921
  0
ARC
  5
1D83E
  8
0
 10
6683.6860265475070264
 20
147.3805381212127088
 30
0.0
 40
0.0787
 50
90.0
 51
185.6432052346725072
  0
ARC
  5
1D83F
  8
0
 10
6698.1254130772813369
 20
131.7619704451732048
 30
0.0
 40
13.2842274541841903
 50
183.3099871547979944
 51
211.4979478296409923
  0
ARC
  5
1D840
  8
0
 10
6293.1433418680735485
 20
101.5669175155689032
 30
0.0
 40
394.0142201493944754
 50
4.1586220020972924
 51
6.6757750215304403
  0
ARC
  5
1D841
  8
0
 10
6684.5642685938673822
 20
147.3805381212127088
 30
0.0
 40
0.0787
 50
90.0
 51
186.6757750215271017
  0
ARC
  5
1D842
  8
0
 10
6700.3939419355729115
 20
131.2444421135714094
 30
0.0
 40
14.31644012104735
 50
184.424419246521694
 51
206.6567761518124087
  0
ARC
  5
1D843
  8
0
 10
4964.4597859733667065
 20
38.8454102815455116
 30
0.0
 40
1725.00004261421509
 50
3.0004596087899391
 51
3.6072061964487649
  0
ARC
  5
1D844
  8
0
 10
6686.1208426986058839
 20
147.3805381212127088
 30
0.0
 40
0.0787
 50
90.0
 51
183.6072061964455031
  0
ARC
  5
1D845
  8
0
 10
6696.0539262106112801
 20
129.6487270569209045
 30
0.0
 40
8.9733774550574843
 50
183.2579673913438967
 51
212.5446083368948962
  0
ARC
  5
1D846
  8
0
 10
6318.4729929854993316
 20
126.204811422134199
 30
0.0
 40
370.6265624680005999
 50
0.7107051751876222
 51
3.2746785296981109
  0
ARC
  5
1D847
  8
0
 10
6688.5729527534431327
 20
147.3805381212127088
 30
0.0
 40
0.0787
 50
90.0
 51
183.2746785296980931
  0
ARC
  5
1D848
  8
0
 10
6703.4887652257548325
 20
130.9942579588172009
 30
0.0
 40
14.4190040478114394
 50
180.7639874313416044
 51
205.3472125097690082
  0
ARC
  5
1D849
  8
0
 10
8818.0458028672728688
 20
144.528037557830686
 30
0.0
 40
2127.5899446973799058
 50
179.9231795870809947
 51
180.3102235573556982
  0
ARC
  5
1D84A
  8
0
 10
6690.5364704425392119
 20
147.3805381212127088
 30
0.0
 40
0.0787
 50
90.0
 51
179.9231795870078088
  0
ARC
  5
1D84B
  8
0
 10
6720.0579226802683479
 20
133.1765540008219944
 30
0.0
 40
29.5713563710795491
 50
180.3257628463200035
 51
196.4118904847958902
  0
ARC
  5
1D84C
  8
0
 10
6579.1634570383594109
 20
134.1962246218982955
 30
0.0
 40
113.3145626712034044
 50
356.8371242828097252
 51
6.6769222318635686
  0
ARC
  5
1D84D
  8
0
 10
6691.7876369322530081
 20
147.3805381212127088
 30
0.0
 40
0.0787
 50
90.0
 51
186.6769222318619086
  0
ARC
  5
1D84E
  8
0
 10
6699.919975031643844
 20
127.4812776703261932
 30
0.0
 40
7.6286198175566682
 50
176.5214494573442892
 51
200.4056472517850125
  0
ARC
  5
1D84F
  8
0
 10
6857.3019517730099324
 20
140.3008088345625879
 30
0.0
 40
163.0397483423872984
 50
177.4835604134916025
 51
184.6049454835398933
  0
ARC
  5
1D850
  8
0
 10
6647.754652626043935
 20
122.8959529731917968
 30
0.0
 40
47.2313901732024419
 50
2.3364354834981298
 51
5.2420420265531238
  0
ARC
  5
1D851
  8
0
 10
-13342.0713456565099477
 20
839.6000500418684851
 30
0.0
 40
20050.8179161773914529
 50
357.9796481832690915
 51
358.0217950475055204
  0
ARC
  5
1D852
  8
0
 10
6729.0382195783722636
 20
131.5157033801822877
 30
0.0
 40
32.7779771226148426
 50
177.8965118943368111
 51
191.7844476421074091
  0
ARC
  5
1D853
  8
0
 10
6750.1241272183169713
 20
145.345746124893509
 30
0.0
 40
39.2512579458148707
 50
177.0343963703699899
 51
179.7113059662106025
  0
ARC
  5
1D854
  8
0
 10
6710.8468409888528186
 20
147.3805381212127088
 30
0.0
 40
0.0787
 50
357.0343963703700183
 51
90.0
  0
ARC
  5
1D855
  8
0
 10
6252.5079945075513024
 20
152.8768254212581041
 30
0.0
 40
458.4240314020752862
 50
358.6710939425922788
 51
359.0834131807615108
  0
ARC
  5
1D856
  8
0
 10
6429.8375647808288704
 20
148.7631436094877131
 30
0.0
 40
281.0467530619409899
 50
358.2294614744060937
 51
358.6710939425922788
  0
ARC
  5
1D857
  8
0
 10
6386.714419271661427
 20
150.0961476005992097
 30
0.0
 40
324.1904962728074224
 50
357.787266310332484
 51
358.2294614744060937
  0
ARC
  5
1D858
  8
0
 10
6596.3702513638327218
 20
141.9953188669730082
 30
0.0
 40
114.3782198054068999
 50
356.341111109304677
 51
357.787266310332484
  0
ARC
  5
1D859
  8
0
 10
6609.304230163505963
 20
141.1682347987128878
 30
0.0
 40
101.417823374495697
 50
354.6437645728548205
 51
356.341111109304677
  0
ARC
  5
1D85A
  8
0
 10
6685.693981353023446
 20
134.006143669476387
 30
0.0
 40
24.6930579063641886
 50
351.4194592691429193
 51
354.6437645728548205
  0
ARC
  5
1D85B
  8
0
 10
6685.4710085947763218
 20
134.0397876727431026
 30
0.0
 40
24.9185546244701115
 50
344.5860200973662018
 51
351.4194592691429193
  0
ARC
  5
1D85C
  8
0
 10
6703.0416173723224347
 20
129.593729018723792
 30
0.0
 40
6.8090619006209092
 50
328.0078029912035049
 51
341.3532596432423247
  0
ARC
  5
1D85D
  8
0
 10
6705.2418111197748658
 20
127.6095305918815939
 30
0.0
 40
3.926009202689376
 50
314.7502437237653794
 51
335.5772996244074875
  0
ARC
  5
1D85E
  8
0
 10
4741.7555478107124145
 20
192.0433140865968085
 30
0.0
 40
1969.4754856029248913
 50
358.5256458305112233
 51
358.7005117577705278
  0
ARC
  5
1D85F
  8
0
 10
6710.6458280412280146
 20
147.3805381212127088
 30
0.0
 40
0.0787
 50
358.7005117572256268
 51
90.0
  0
ARC
  5
1D860
  8
0
 10
4741.7555478107124145
 20
192.0433140865968085
 30
0.0
 40
1969.150300574018047
 50
358.5256458305112233
 51
358.7002971151878796
  0
ARC
  5
1D861
  8
0
 10
6710.3205593432721798
 20
147.3805381212127088
 30
0.0
 40
0.0787
 50
358.7002971149728978
 51
90.0
  0
ARC
  5
1D862
  8
0
 10
6576.7632077250591465
 20
144.8607342366863122
 30
0.0
 40
133.8613443745456095
 50
353.3109006924559026
 51
358.5055884156740831
  0
ARC
  5
1D863
  8
0
 10
6576.0648675083830312
 20
144.8858260357193899
 30
0.0
 40
134.2349175839682118
 50
353.3511597055485822
 51
358.5030048631870727
  0
ARC
  5
1D864
  8
0
 10
7081.9413193048212634
 20
110.6190694426822034
 30
0.0
 40
373.766693555802874
 50
174.3567947653257875
 51
176.8749707324965073
  0
ARC
  5
1D865
  8
0
 10
6709.9077553573042678
 20
147.3805381212127088
 30
0.0
 40
0.0787
 50
354.3567947653033912
 51
90.0
  0
ARC
  5
1D866
  8
0
 10
6695.4683688275308668
 20
131.7619704451732048
 30
0.0
 40
13.2842274541841991
 50
328.5020521703589793
 51
356.6900128452019771
  0
ARC
  5
1D867
  8
0
 10
7100.4504400367377457
 20
101.5669175155689032
 30
0.0
 40
394.0142201493944754
 50
173.3242249784694877
 51
175.841377997902697
  0
ARC
  5
1D868
  8
0
 10
6709.0295133109439121
 20
147.3805381212127088
 30
0.0
 40
0.0787
 50
353.3242249785020022
 51
90.0
  0
ARC
  5
1D869
  8
0
 10
6693.1998399692383828
 20
131.2444421135714094
 30
0.0
 40
14.3164401210473393
 50
333.3432238481876198
 51
355.5755807534782207
  0
ARC
  5
1D86A
  8
0
 10
8429.1339959314445878
 20
38.8454102815455116
 30
0.0
 40
1725.00004261421509
 50
176.3927938035512
 51
176.999540391210104
  0
ARC
  5
1D86B
  8
0
 10
6707.4729392062054103
 20
147.3805381212127088
 30
0.0
 40
0.0787
 50
356.3927938033656915
 51
90.0
  0
ARC
  5
1D86C
  8
0
 10
6697.5398556941991046
 20
129.6487270569209045
 30
0.0
 40
8.9733774550574843
 50
327.4553916631048196
 51
356.7420326086560181
  0
ARC
  5
1D86D
  8
0
 10
7075.1207889193128722
 20
126.204811422134199
 30
0.0
 40
370.6265624680005999
 50
176.7253214703019069
 51
179.2892948248122877
  0
ARC
  5
1D86E
  8
0
 10
6705.0208291513672521
 20
147.3805381212127088
 30
0.0
 40
0.0787
 50
356.7253214703280264
 51
90.0
  0
ARC
  5
1D86F
  8
0
 10
6690.1050166790546427
 20
130.9942579588172009
 30
0.0
 40
14.4190040478114394
 50
334.6527874902308781
 51
359.2360125686583956
  0
ARC
  5
1D870
  8
0
 10
4575.5479790375402445
 20
144.528037557830686
 30
0.0
 40
2127.5899446973799058
 50
359.6897764426441881
 51
0.0768204129189502
  0
ARC
  5
1D871
  8
0
 10
6703.0573114622729918
 20
147.3805381212127088
 30
0.0
 40
0.0787
 50
0.0768204129189502
 51
90.0
  0
ARC
  5
1D872
  8
0
 10
6673.5358592245429463
 20
133.1765540008219944
 30
0.0
 40
29.5713563710795491
 50
343.5881095152041098
 51
359.6742371536801102
  0
ARC
  5
1D873
  8
0
 10
6814.4303248664527928
 20
134.1962246218982955
 30
0.0
 40
113.3145626712034044
 50
173.3230777681363861
 51
183.1628757171903032
  0
ARC
  5
1D874
  8
0
 10
6701.8061449725573766
 20
147.3805381212127088
 30
0.0
 40
0.0787
 50
353.323077768126609
 51
90.0
  0
ARC
  5
1D875
  8
0
 10
6693.6738068731683597
 20
127.4812776703263069
 30
0.0
 40
7.6286198175566797
 50
339.5943527482148738
 51
3.4785505426556531
  0
ARC
  5
1D876
  8
0
 10
6536.2918301318013619
 20
140.3008088345625879
 30
0.0
 40
163.0397483423872984
 50
355.395054516459993
 51
2.5164395865083882
  0
ARC
  5
1D877
  8
0
 10
6745.8391292787682687
 20
122.8959529731915978
 30
0.0
 40
47.2313901732023993
 50
174.7579579734469064
 51
177.6635645165019071
  0
ARC
  5
1D878
  8
0
 10
6694.6586625218433255
 20
132.4975531251025131
 30
0.0
 40
15.3971123238380496
 50
330.0964003758147101
 51
347.8935066465642763
  0
ARC
  5
1D879
  8
0
 10
6619.6547209336122251
 20
163.7282154472800073
 30
0.0
 40
96.1039831150017818
 50
336.1189403739202817
 51
339.0357305018355873
  0
ARC
  5
1D87A
  8
0
 10
6600.3230633101684361
 20
142.5479175215374141
 30
0.0
 40
111.1959442405402001
 50
355.7807586631117829
 51
2.492647554650846
  0
ARC
  5
1D87B
  8
0
 10
6711.3351696128202093
 20
147.3805381212127088
 30
0.0
 40
0.0787
 50
2.492647554650846
 51
90.0
  0
ARC
  5
1D87C
  8
0
 10
6681.4375416033699366
 20
136.6413636829668121
 30
0.0
 40
29.8668367740242218
 50
336.6870368484118785
 51
355.6324703387116983
  0
ENDSEC
  0
EOF
