  0
SECTION
  2
HEADER
  9
$ACADVER
  1
AC1009
  9
$INSBASE
 10
6725.5555609676493987
 20
177.4586998014254959
 30
0.0
  9
$EXTMIN
 10
6724.2478012104493246
 20
170.1363102156144009
 30
0.0
  9
$EXTMAX
 10
6726.8628764462609979
 20
178.7664603398256133
 30
0.0
  9
$LIMMIN
 10
0.0
 20
0.0
  9
$LIMMAX
 10
11.6929133858000007
 20
8.2677165353999982
  9
$ORTHOMODE
 70
     0
  9
$REGENMODE
 70
     1
  9
$FILLMODE
 70
     1
  9
$QTEXTMODE
 70
     0
  9
$MIRRTEXT
 70
     0
  9
$DRAGMODE
 70
     2
  9
$LTSCALE
 40
0.6431102362
  9
$OSMODE
 70
  4095
  9
$ATTMODE
 70
     1
  9
$TEXTSIZE
 40
0.2
  9
$TRACEWID
 40
0.05
  9
$TEXTSTYLE
  7
STANDARD
  9
$CLAYER
  8
0
  9
$CELTYPE
  6
BYLAYER
  9
$CECOLOR
 62
   256
  9
$DIMSCALE
 40
1.0
  9
$DIMASZ
 40
0.1875
  9
$DIMEXO
 40
0.0625
  9
$DIMDLI
 40
0.4443307087
  9
$DIMRND
 40
0.0
  9
$DIMDLE
 40
0.0
  9
$DIMEXE
 40
0.125
  9
$DIMTP
 40
0.01
  9
$DIMTM
 40
0.01
  9
$DIMTXT
 40
2.0
  9
$DIMCEN
 40
0.1052362205
  9
$DIMTSZ
 40
0.0
  9
$DIMTOL
 70
     1
  9
$DIMLIM
 70
     0
  9
$DIMTIH
 70
     1
  9
$DIMTOH
 70
     1
  9
$DIMSE1
 70
     0
  9
$DIMSE2
 70
     0
  9
$DIMTAD
 70
     0
  9
$DIMZIN
 70
     0
  9
$DIMBLK
  1

  9
$DIMASO
 70
     1
  9
$DIMSHO
 70
     1
  9
$DIMPOST
  1
\X
  9
$DIMAPOST
  1

  9
$DIMALT
 70
     1
  9
$DIMALTD
 70
     2
  9
$DIMALTF
 40
25.3999999999999986
  9
$DIMLFAC
 40
1.0
  9
$DIMTOFL
 70
     0
  9
$DIMTVP
 40
0.0
  9
$DIMTIX
 70
     0
  9
$DIMSOXD
 70
     0
  9
$DIMSAH
 70
     0
  9
$DIMBLK1
  1

  9
$DIMBLK2
  1

  9
$DIMSTYLE
  2
STANDARD
  9
$DIMCLRD
 70
     0
  9
$DIMCLRE
 70
     0
  9
$DIMCLRT
 70
     0
  9
$DIMTFAC
 40
1.0
  9
$DIMGAP
 40
0.09
  9
$LUNITS
 70
     2
  9
$LUPREC
 70
     4
  9
$SKETCHINC
 40
0.1
  9
$FILLETRAD
 40
0.0
  9
$AUNITS
 70
     0
  9
$AUPREC
 70
     0
  9
$MENU
  1
.
  9
$ELEVATION
 40
0.0
  9
$PELEVATION
 40
0.0
  9
$THICKNESS
 40
0.0
  9
$LIMCHECK
 70
     0
  9
$BLIPMODE
 70
     0
  9
$CHAMFERA
 40
0.0
  9
$CHAMFERB
 40
0.0
  9
$SKPOLY
 70
     0
  9
$TDCREATE
 40
2458060.468368056230247
  9
$TDUPDATE
 40
2460549.4405208327807486
  9
$TDINDWG
 40
0.9785255787
  9
$TDUSRTIMER
 40
0.9785255787
  9
$USRTIMER
 70
     1
  9
$ANGBASE
 50
0.0
  9
$ANGDIR
 70
     0
  9
$PDMODE
 70
     0
  9
$PDSIZE
 40
0.3125
  9
$PLINEWID
 40
0.0
  9
$COORDS
 70
     1
  9
$SPLFRAME
 70
     0
  9
$SPLINETYPE
 70
     6
  9
$SPLINESEGS
 70
     8
  9
$ATTDIA
 70
     1
  9
$ATTREQ
 70
     1
  9
$HANDLING
 70
     1
  9
$HANDSEED
  5
30478
  9
$SURFTAB1
 70
     6
  9
$SURFTAB2
 70
     6
  9
$SURFTYPE
 70
     6
  9
$SURFU
 70
     6
  9
$SURFV
 70
     6
  9
$UCSNAME
  2

  9
$UCSORG
 10
0.0
 20
0.0
 30
0.0
  9
$UCSXDIR
 10
1.0
 20
0.0
 30
0.0
  9
$UCSYDIR
 10
0.0
 20
1.0
 30
0.0
  9
$PUCSNAME
  2

  9
$PUCSORG
 10
0.0
 20
0.0
 30
0.0
  9
$PUCSXDIR
 10
1.0
 20
0.0
 30
0.0
  9
$PUCSYDIR
 10
0.0
 20
1.0
 30
0.0
  9
$USERI1
 70
     0
  9
$USERI2
 70
     0
  9
$USERI3
 70
     0
  9
$USERI4
 70
     0
  9
$USERI5
 70
     0
  9
$USERR1
 40
0.0
  9
$USERR2
 40
0.0
  9
$USERR3
 40
0.0
  9
$USERR4
 40
0.0
  9
$USERR5
 40
0.0
  9
$WORLDVIEW
 70
     1
  9
$SHADEDGE
 70
     3
  9
$SHADEDIF
 70
    70
  9
$TILEMODE
 70
     1
  9
$MAXACTVP
 70
    64
  9
$PLIMCHECK
 70
     0
  9
$PEXTMIN
 10
1.0000000000000000E+20
 20
1.0000000000000000E+20
 30
1.0000000000000000E+20
  9
$PEXTMAX
 10
-1.0000000000000000E+20
 20
-1.0000000000000000E+20
 30
-1.0000000000000000E+20
  9
$PLIMMIN
 10
0.0
 20
0.0
  9
$PLIMMAX
 10
12.0
 20
9.0
  9
$UNITMODE
 70
     0
  9
$VISRETAIN
 70
     1
  9
$PLINEGEN
 70
     0
  9
$PSLTSCALE
 70
     1
  0
ENDSEC
  0
SECTION
  2
TABLES
  0
TABLE
  2
VPORT
 70
     1
  0
VPORT
  2
*ACTIVE
 70
     0
 10
0.0
 20
0.0
 11
1.0
 21
1.0
 12
2814.1899823830422065
 22
41.8717801751809517
 13
0.0
 23
0.0
 14
1.0
 24
1.0
 15
0.0
 25
0.0
 16
0.0
 26
0.0
 36
60.4960186965801583
 17
3911.3653564453120453
 27
132.5796051025390057
 37
0.0
 40
8.6896000676614875
 41
2.1827586206896541
 42
50.0
 43
0.0
 44
0.0
 50
0.0
 51
0.0
 71
     0
 72
   100
 73
     1
 74
     1
 75
     0
 76
     0
 77
     0
 78
     0
  0
ENDTAB
  0
TABLE
  2
LTYPE
 70
     2
  0
LTYPE
  2
CONTINUOUS
 70
     0
  3
Solid line
 72
    65
 73
     0
 40
0.0
  0
LTYPE
  2
PHANTOM2
 70
     0
  3
___ _ _ ___ _ _ ___ _ _ ___ _ _
 72
    65
 73
     6
 40
1.25
 49
0.625
 49
-0.125
 49
0.125
 49
-0.125
 49
0.125
 49
-0.125
  0
ENDTAB
  0
TABLE
  2
LAYER
 70
     2
  0
LAYER
  2
0
 70
     0
 62
   255
  6
CONTINUOUS
  0
LAYER
  2
DEFPOINTS
 70
     0
 62
     7
  6
CONTINUOUS
  0
ENDTAB
  0
TABLE
  2
STYLE
 70
     1
  0
STYLE
  2
STANDARD
 70
     0
 40
0.0
 41
0.8
 50
0.0
 71
     0
 42
0.2
  3
txt
  4

  0
ENDTAB
  0
TABLE
  2
VIEW
 70
     0
  0
ENDTAB
  0
TABLE
  2
UCS
 70
     0
  0
ENDTAB
  0
TABLE
  2
APPID
 70
    11
  0
APPID
  2
ACAD
 70
     0
  0
APPID
  2
ACAD_MLEADERVER
 70
     0
  0
APPID
  2
ACAD_EXEMPT_FROM_CAD_STANDARDS
 70
     0
  0
APPID
  2
ACAD_NAV_VCDISPLAY
 70
     0
  0
APPID
  2
ACAECLAYERSTANDARD
 70
     0
  0
APPID
  2
ACCMTRANSPARENCY
 70
     0
  0
APPID
  2
ACAD_DSTYLE_DIMJAG
 70
     0
  0
APPID
  2
ACAD_DSTYLE_DIMTALN
 70
     0
  0
APPID
  2
ACDBATTR
 70
     0
  0
APPID
  2
ACADANNOTATIVE
 70
     0
  0
APPID
  2
DCO15
 70
     0
  0
ENDTAB
  0
TABLE
  2
DIMSTYLE
 70
     1
  0
DIMSTYLE
  2
STANDARD
 70
     0
  3

  4

  5

  6

  7

 40
1.0
 41
0.1875
 42
0.0625
 43
0.38
 44
0.125
 45
0.0
 46
0.0
 47
0.01
 48
0.01
140
0.15625
141
0.09
142
0.0
143
25.3999999999999986
144
1.0
145
0.0
146
1.0
147
0.09
 71
     1
 72
     0
 73
     1
 74
     1
 75
     0
 76
     0
 77
     0
 78
     4
170
     0
171
     2
172
     0
173
     0
174
     0
175
     0
176
     0
177
     0
178
     0
  0
ENDTAB
  0
ENDSEC
  0
SECTION
  2
BLOCKS
  0
BLOCK
  8
0
  2
$MODEL_SPACE
 70
     0
 10
0.0
 20
0.0
 30
0.0
  3
$MODEL_SPACE
  1

  0
ENDBLK
  5
21
  8
0
  0
BLOCK
 67
     1
  8
0
  2
$PAPER_SPACE
 70
     0
 10
0.0
 20
0.0
 30
0.0
  3
$PAPER_SPACE
  1

  0
ENDBLK
  5
1D
 67
     1
  8
0
  0
ENDSEC
  0
SECTION
  2
ENTITIES
  0
ATTDEF
  5
26A5B
  8
DEFPOINTS
 10
6725.5512602797471118
 20
177.4573824654231942
 30
0.0
 40
0.001
  1
K-EX36233T-9BLPT
  3

  2
MODELNUMBER
 70
     0
1001
ACDBATTR
1070
     0
1070
     1
  0
ATTDEF
  5
26A5C
  8
DEFPOINTS
 10
6725.5511344700908012
 20
177.4557156250440073
 30
0.0
 40
0.001
  1
ORIANA
  3

  2
TRADENAME
 70
     0
1001
ACDBATTR
1070
     0
1070
     1
  0
ATTDEF
  5
26A5D
  8
DEFPOINTS
 10
6725.5512602797471118
 20
177.454049132089807
 30
0.0
 40
0.001
  1
BATHROOM SINK FAUCET
  3

  2
PRODUCT
 70
     0
1001
ACDBATTR
1070
     0
1070
     1
  0
LINE
  5
3028D
  8
0
 10
6725.2012302589000683
 20
170.4901958644254876
 30
0.0
 11
6725.2012302589000683
 21
176.2048433292542882
 31
0.0
  0
LINE
  5
3028E
  8
0
 10
6725.9098916762986846
 20
170.4901958644254876
 30
0.0
 11
6725.9098916762986846
 21
176.1993268233132994
 31
0.0
  0
ARC
  5
3028F
  8
0
 10
6725.5555609675993765
 20
170.4906412041765122
 30
0.0
 40
0.3543309885620161
 50
180.0720120331610872
 51
359.9279879668388844
  0
ARC
  5
30290
  8
0
 10
6726.4241003786974034
 20
178.3269524474767991
 30
0.0
 40
0.1439728148851554
 50
346.2782516526687004
 51
103.1755139268762065
  0
ARC
  5
30291
  8
0
 10
6726.4241003786974034
 20
178.3269524474767991
 30
0.0
 40
0.1439728148851554
 50
104.150017913558699
 51
104.1799890825362951
  0
ARC
  5
30293
  8
0
 10
6725.7313857645567623
 20
175.524099519791605
 30
0.0
 40
3.2471245812996639
 50
93.1039610173886558
 51
94.7509137137244863
  0
ARC
  5
30294
  8
0
 10
6725.5901364675064542
 20
177.3007154274700952
 30
0.0
 40
1.464927861441518
 50
95.0005495880244837
 51
101.9612179228849982
  0
ARC
  5
30295
  8
0
 10
6725.5886286719387499
 20
177.3812656904088101
 30
0.0
 40
1.385897571624082
 50
102.5904123424875962
 51
111.5029944650055
  0
ARC
  5
30296
  8
0
 10
6725.5942388594448857
 20
177.4034282320349973
 30
0.0
 40
1.367399096911033
 50
112.0621083573687002
 51
122.7299335307873065
  0
ARC
  5
30297
  8
0
 10
6725.5980803313832439
 20
177.4167945541445022
 30
0.0
 40
1.3582722381574719
 50
123.1711052958533941
 51
132.3706800997208859
  0
ARC
  5
30298
  8
0
 10
6725.6661142175207715
 20
177.3599646830103893
 30
0.0
 40
1.446157353972932
 50
132.8447076973498895
 51
139.6358040867457078
  0
ARC
  5
30299
  8
0
 10
6725.575153927883548
 20
177.4539622133316072
 30
0.0
 40
1.3160352419319401
 50
140.1892028407177975
 51
154.3867844137793952
  0
ARC
  5
3029A
  8
0
 10
6725.5645024665145684
 20
177.45759345276781
 30
0.0
 40
1.3048613852811251
 50
154.3283781120042875
 51
167.8637866093125126
  0
ARC
  5
3029B
  8
0
 10
6725.1202169325870273
 20
177.4675178417101051
 30
0.0
 40
0.8724434189609034
 50
162.3583458283453922
 51
179.5434533998796098
  0
ARC
  5
3029C
  8
0
 10
6725.7424374979837012
 20
177.5308504719048983
 30
0.0
 40
1.495699312645554
 50
182.1602945493690129
 51
188.631661742694007
  0
ARC
  5
3029D
  8
0
 10
6729.1797826892179728
 20
178.302613023847897
 30
0.0
 40
5.016031117060006
 50
191.4557540537568912
 51
193.8049591151051914
  0
ARC
  5
3029E
  8
0
 10
6725.4851160002426695
 20
177.428149074728708
 30
0.0
 40
1.2198581003345901
 50
195.3273311514228112
 51
205.6614821779758131
  0
ARC
  5
3029F
  8
0
 10
6725.6244288146972394
 20
177.4950804948236112
 30
0.0
 40
1.3744151295087339
 50
205.6614821779758131
 51
218.3618103450997125
  0
ARC
  5
302A0
  8
0
 10
6725.5674269902838205
 20
177.460939042825089
 30
0.0
 40
1.3085588358000431
 50
218.7386395310161049
 51
243.3639953691597952
  0
ARC
  5
302A1
  8
0
 10
6725.5659543827059679
 20
177.4596470482750874
 30
0.0
 40
1.30674396461479
 50
243.3963377589963955
 51
250.1591408754258907
  0
ARC
  5
302A2
  8
0
 10
6725.5644267674588264
 20
177.4554134089991919
 30
0.0
 40
1.302243152480508
 50
250.1591408754258907
 51
258.6102587037103717
  0
ARC
  5
302A3
  8
0
 10
6725.5669759547972717
 20
177.4680676625592071
 30
0.0
 40
1.315151618277959
 50
258.6102587037103717
 51
264.9785491654694169
  0
ARC
  5
302A4
  8
0
 10
6725.5639196199690559
 20
177.4332835903599062
 30
0.0
 40
1.2802335303959
 50
264.9785491654694169
 51
268.4623830810655818
  0
ARC
  5
302A5
  8
0
 10
6725.4143932822262286
 20
165.9228165002525941
 30
0.0
 40
10.2313428124530699
 50
89.1546489566023155
 51
89.3550118380157841
  0
LINE
  5
302A6
  8
0
 10
6725.5579052629836951
 20
176.1726156364337044
 30
0.0
 11
6725.4722274314208335
 21
178.7401398283398066
 31
0.0
  0
LINE
  5
302A7
  8
0
 10
6725.4558463936182306
 20
178.7388289143790985
 30
0.0
 11
6725.5494225092852503
 21
176.1728789861249993
 31
0.0
  0
LINE
  5
302A8
  8
0
 10
6725.5344199736673545
 20
176.1727799789584026
 30
0.0
 11
6725.2716418186619194
 21
178.7109278975298992
 31
0.0
  0
LINE
  5
302A9
  8
0
 10
6725.255666455465871
 20
178.7059632722167066
 30
0.0
 11
6725.5257887974830737
 21
176.1735770469250895
 31
0.0
  0
LINE
  5
302AA
  8
0
 10
6725.5105227683279736
 20
176.1733901055189051
 30
0.0
 11
6725.0779355453842072
 21
178.6493803486251011
 31
0.0
  0
LINE
  5
302AB
  8
0
 10
6725.062758613384176
 20
178.6411069008250934
 30
0.0
 11
6725.5015867381844146
 21
176.1747414737251063
 31
0.0
  0
LINE
  5
302AC
  8
0
 10
6725.4858601196956442
 20
176.174490300274897
 30
0.0
 11
6724.8956634681926516
 21
178.55767046424981
 31
0.0
  0
LINE
  5
302AD
  8
0
 10
6724.8817029614601779
 20
178.5460993212664107
 30
0.0
 11
6725.4764468161838522
 21
176.1764324440250959
 31
0.0
  0
LINE
  5
302AE
  8
0
 10
6725.4600234020872449
 20
176.1761578367213872
 30
0.0
 11
6724.72925454988399
 21
178.4375093055251114
 31
0.0
  0
LINE
  5
302AF
  8
0
 10
6724.7169527227842991
 20
178.4226445558250873
 30
0.0
 11
6725.4499288179840732
 21
176.1787486789251034
 31
0.0
  0
LINE
  5
302B0
  8
0
 10
6725.4214860572838006
 20
176.1818422962251134
 30
0.0
 11
6725.4325091154842085
 21
176.1785166219250982
 31
0.0
  0
LINE
  5
302B1
  8
0
 10
6725.4325091154842085
 20
176.1785166219250982
 30
0.0
 11
6724.5829420910513363
 21
178.2910946118080062
 31
0.0
  0
LINE
  5
302B2
  8
0
 10
6724.5829420910513363
 20
178.2910946118080062
 30
0.0
 11
6724.5727824983860046
 21
178.272929755625114
 31
0.0
  0
LINE
  5
302B3
  8
0
 10
6724.5727824983860046
 20
178.272929755625114
 30
0.0
 11
6725.4214860572838006
 21
176.1818422962251134
 31
0.0
  0
LINE
  5
302B4
  8
0
 10
6725.3904013385017606
 20
176.1859483243682973
 30
0.0
 11
6725.4026722747839813
 21
176.1817597011250882
 31
0.0
  0
LINE
  5
302B5
  8
0
 10
6725.4026722747839813
 20
176.1817597011250882
 30
0.0
 11
6724.4607490719836278
 21
178.1210544676251004
 31
0.0
  0
LINE
  5
302B6
  8
0
 10
6724.4607490719836278
 20
178.1210544676251004
 30
0.0
 11
6724.4532803369593239
 21
178.0995577276503923
 31
0.0
  0
LINE
  5
302B7
  8
0
 10
6724.4532803369593239
 20
178.0995577276503923
 30
0.0
 11
6725.3904013385017606
 21
176.1859483243682973
 31
0.0
  0
LINE
  5
302B8
  8
0
 10
6724.3665106503949573
 20
177.9303464213471955
 30
0.0
 11
6725.3696265765220232
 21
176.1861904665626923
 31
0.0
  0
LINE
  5
302B9
  8
0
 10
6725.3696265765220232
 20
176.1861904665626923
 30
0.0
 11
6725.3556727174827756
 21
176.1914389241250944
 31
0.0
  0
LINE
  5
302BA
  8
0
 10
6725.3556727174827756
 20
176.1914389241250944
 30
0.0
 11
6724.3623893792837407
 21
177.9054352667251067
 31
0.0
  0
LINE
  5
302BB
  8
0
 10
6724.3623893792837407
 20
177.9054352667251067
 30
0.0
 11
6724.3665106503949573
 21
177.9303464213471955
 31
0.0
  0
LINE
  5
302BC
  8
0
 10
6724.2986153817264494
 20
177.6946162372240963
 30
0.0
 11
6724.3039861599017968
 21
177.7221117548365896
 31
0.0
  0
LINE
  5
302BD
  8
0
 10
6724.3039861599017968
 20
177.7221117548365896
 30
0.0
 11
6725.3320787849888802
 21
176.1923074970831919
 31
0.0
  0
LINE
  5
302BE
  8
0
 10
6725.3320787849888802
 20
176.1923074970831919
 30
0.0
 11
6725.3158083219841501
 21
176.1989308073250982
 31
0.0
  0
LINE
  5
302BF
  8
0
 10
6725.3158083219841501
 20
176.1989308073250982
 30
0.0
 11
6724.2986153817264494
 21
177.6946162372240963
 31
0.0
  0
LINE
  5
302C0
  8
0
 10
6724.2716467317140996
 20
177.4667461014830963
 30
0.0
 11
6724.2699449656502111
 21
177.5000335955633091
 31
0.0
  0
LINE
  5
302C1
  8
0
 10
6724.2699449656502111
 20
177.5000335955633091
 30
0.0
 11
6725.2879907026836008
 21
176.2009824097250998
 31
0.0
  0
LINE
  5
302C2
  8
0
 10
6725.2879907026836008
 20
176.2009824097250998
 30
0.0
 11
6725.2683961541843018
 21
176.2095270715250876
 31
0.0
  0
LINE
  5
302C3
  8
0
 10
6725.2683961541843018
 20
176.2095270715250876
 30
0.0
 11
6724.2716467317140996
 21
177.4667461014830963
 31
0.0
  0
LINE
  5
302C4
  8
0
 10
6724.3038181286829058
 20
177.2273664840251115
 30
0.0
 11
6724.2909369125800367
 21
177.2647780678694005
 31
0.0
  0
LINE
  5
302C5
  8
0
 10
6724.2909369125800367
 20
177.2647780678694005
 30
0.0
 11
6725.2337935659834329
 21
176.2139022240251052
 31
0.0
  0
LINE
  5
302C6
  8
0
 10
6725.2337935659834329
 20
176.2139022240251052
 30
0.0
 11
6725.2090496291839372
 21
176.22544296312509
 31
0.0
  0
LINE
  5
302C7
  8
0
 10
6725.2090496291839372
 20
176.22544296312509
 30
0.0
 11
6724.3038181286829058
 21
177.2273664840251115
 31
0.0
  0
LINE
  5
302C8
  8
0
 10
6724.3781157772837105
 20
176.9738310404250967
 30
0.0
 11
6724.3535663440134158
 21
177.0185022275246922
 31
0.0
  0
LINE
  5
302C9
  8
0
 10
6724.3535663440134158
 20
177.0185022275246922
 30
0.0
 11
6725.1621085402593962
 21
176.2349370721493926
 31
0.0
  0
LINE
  5
302CA
  8
0
 10
6725.1621085402593962
 20
176.2349370721493926
 30
0.0
 11
6725.1278960772551727
 21
176.2522170179165073
 31
0.0
  0
LINE
  5
302CB
  8
0
 10
6725.1278960772551727
 20
176.2522170179165073
 30
0.0
 11
6724.3781157772837105
 21
176.9738310404250967
 31
0.0
  0
LINE
  5
302CC
  8
0
 10
6724.5396139107160707
 20
176.68904641863449
 30
0.0
 11
6724.4864091603158158
 21
176.7526948704924052
 31
0.0
  0
LINE
  5
302CD
  8
0
 10
6724.4864091603158158
 20
176.7526948704924052
 30
0.0
 11
6725.0515944873841363
 21
176.2766903219250878
 31
0.0
  0
LINE
  5
302CE
  8
0
 10
6725.0515944873841363
 20
176.2766903219250878
 30
0.0
 11
6724.9915710463837968
 21
176.3111971939250964
 31
0.0
  0
LINE
  5
302CF
  8
0
 10
6724.9915710463837968
 20
176.3111971939250964
 30
0.0
 11
6724.5396139107160707
 21
176.68904641863449
 31
0.0
  0
ARC
  5
302D0
  8
0
 10
6725.5788600375335591
 20
177.3046671311089142
 30
0.0
 40
1.439427795056776
 50
90.5380608923704671
 51
102.3234817754660071
  0
LINE
  5
302D1
  8
0
 10
6725.2716418186619194
 20
178.7109278975298992
 30
0.0
 11
6725.255666455465871
 21
178.7059632722167066
 31
0.0
  0
LINE
  5
302D2
  8
0
 10
6725.0779355453842072
 20
178.6493803486251011
 30
0.0
 11
6725.062758613384176
 21
178.6411069008250934
 31
0.0
  0
LINE
  5
302D3
  8
0
 10
6724.8956634681926516
 20
178.55767046424981
 30
0.0
 11
6724.8817029614601779
 21
178.5460993212664107
 31
0.0
  0
LINE
  5
302D4
  8
0
 10
6724.72925454988399
 20
178.4375093055251114
 30
0.0
 11
6724.7169527227842991
 21
178.4226445558250873
 31
0.0
  0
LINE
  5
302D5
  8
0
 10
6725.4499288179840732
 20
176.1787486789251034
 30
0.0
 11
6725.4600234020872449
 21
176.1761578367213872
 31
0.0
  0
LINE
  5
302D6
  8
0
 10
6725.4764468161838522
 20
176.1764324440250959
 30
0.0
 11
6725.4858601196956442
 21
176.174490300274897
 31
0.0
  0
LINE
  5
302D7
  8
0
 10
6725.5015867381844146
 20
176.1747414737251063
 30
0.0
 11
6725.5105227683279736
 21
176.1733901055189051
 31
0.0
  0
LINE
  5
302D8
  8
0
 10
6725.5257887974830737
 20
176.1735770469250895
 30
0.0
 11
6725.5344199736673545
 21
176.1727799789584026
 31
0.0
  0
LINE
  5
302D9
  8
0
 10
6725.5494225092852503
 20
176.1728789861249993
 30
0.0
 11
6725.5579052629836951
 21
176.1726156364337044
 31
0.0
  0
ARC
  5
302DA
  8
0
 10
6725.6385767655719974
 20
177.1957912222248979
 30
0.0
 40
1.557960181186111
 50
104.2277388453436942
 51
111.091348863417295
  0
ARC
  5
302DB
  8
0
 10
6725.6719291453828191
 20
177.2121070941282142
 30
0.0
 40
1.5534249851845121
 50
113.0881414721704061
 51
119.980972215441497
  0
ARC
  5
302DC
  8
0
 10
6725.6991155510013414
 20
177.2372367636685908
 30
0.0
 40
1.5431411264765651
 50
121.9856571974641071
 51
128.9393891517636916
  0
ARC
  5
302DD
  8
0
 10
6725.7194552606288198
 20
177.267356211607904
 30
0.0
 40
1.529608608981093
 50
130.9498410047739014
 51
137.9883825198097895
  0
ARC
  5
302DE
  8
0
 10
6725.7307678211936945
 20
177.3014625653505902
 30
0.0
 40
1.511515302475636
 50
140.0057456269736065
 51
147.1642924509878014
  0
ARC
  5
302DF
  8
0
 10
6725.7345176083154001
 20
177.3357005031180904
 30
0.0
 40
1.491659078000344
 50
149.1971453170307882
 51
156.5063558595442998
  0
ARC
  5
302E0
  8
0
 10
6725.7330198080462651
 20
177.367814905693109
 30
0.0
 40
1.47229868737567
 50
158.5827470198229889
 51
166.0755672597115051
  0
ARC
  5
302E1
  8
0
 10
6722.6195124350870174
 20
177.8426170109447924
 30
0.0
 40
1.6856129254474439
 50
348.2735295980979231
 51
354.9628096372953792
  0
ARC
  5
302E2
  8
0
 10
6721.5075103077406311
 20
177.1008352735354947
 30
0.0
 40
2.7882505096089671
 50
3.370805793326519
 51
7.5408557015466959
  0
ARC
  5
302E3
  8
0
 10
6725.6521412287784187
 20
177.4381593088359068
 30
0.0
 40
1.364700991879559
 50
188.8855265277119884
 51
197.9091418582021902
  0
ARC
  5
302E4
  8
0
 10
6725.6010159990200918
 20
177.4356174181224048
 30
0.0
 40
1.307184612419682
 50
200.6873259515153052
 51
211.495911395134101
  0
ARC
  5
302E5
  8
0
 10
6725.4795285857862837
 20
177.3540828494070922
 30
0.0
 40
1.151396131081611
 50
215.2813078315174096
 51
244.9254965650773102
  0
ARC
  5
302E6
  8
0
 10
6725.3998596904366423
 20
177.23131218534499
 30
0.0
 40
1.016165121314716
 50
249.9570162645289031
 51
254.4762837812606051
  0
LINE
  5
302E7
  8
0
 10
6725.1621085402593962
 20
176.2349370721493926
 30
0.0
 11
6725.2090496291839372
 21
176.22544296312509
 31
0.0
  0
LINE
  5
302E8
  8
0
 10
6725.2337935659834329
 20
176.2139022240251052
 30
0.0
 11
6725.2683961541843018
 21
176.2095270715250876
 31
0.0
  0
LINE
  5
302E9
  8
0
 10
6725.2879907026836008
 20
176.2009824097250998
 30
0.0
 11
6725.3158083219841501
 21
176.1989308073250982
 31
0.0
  0
LINE
  5
302EA
  8
0
 10
6725.3320787849888802
 20
176.1923074970831919
 30
0.0
 11
6725.3556727174827756
 21
176.1914389241250944
 31
0.0
  0
LINE
  5
302EB
  8
0
 10
6725.3696265765220232
 20
176.1861904665626923
 30
0.0
 11
6725.3904013385017606
 21
176.1859483243682973
 31
0.0
  0
LINE
  5
302EC
  8
0
 10
6725.4026722747839813
 20
176.1817597011250882
 30
0.0
 11
6725.4214860572838006
 21
176.1818422962251134
 31
0.0
  0
LINE
  5
302ED
  8
0
 10
6725.4325091154842085
 20
176.1785166219250982
 30
0.0
 11
6725.4499288179840732
 21
176.1787486789251034
 31
0.0
  0
LINE
  5
302EE
  8
0
 10
6725.4600234020872449
 20
176.1761578367213872
 30
0.0
 11
6725.4764468161838522
 21
176.1764324440250959
 31
0.0
  0
LINE
  5
302EF
  8
0
 10
6725.4858601196956442
 20
176.174490300274897
 30
0.0
 11
6725.5015867381844146
 21
176.1747414737251063
 31
0.0
  0
LINE
  5
302F0
  8
0
 10
6725.5105227683279736
 20
176.1733901055189051
 30
0.0
 11
6725.5257887974830737
 21
176.1735770469250895
 31
0.0
  0
LINE
  5
302F1
  8
0
 10
6725.5344199736673545
 20
176.1727799789584026
 30
0.0
 11
6725.5494225092852503
 21
176.1728789861249993
 31
0.0
  0
ARC
  5
302F2
  8
0
 10
6725.5295253673530169
 20
178.7459949221494071
 30
0.0
 40
0.0575963157311148
 50
164.8983971269848894
 51
185.8346210405941861
  0
ARC
  5
302F3
  8
0
 10
6725.4032522670631806
 20
178.7367061596966096
 30
0.0
 40
0.0526369474366727
 50
2.3112638950777682
 51
25.0750983731962513
  0
ARC
  5
302F4
  8
0
 10
6725.3251823526343287
 20
178.7244474260405127
 30
0.0
 40
0.0552210687069063
 50
174.1271532617199114
 51
194.1715245061936059
  0
ARC
  5
302F5
  8
0
 10
6725.2026047872768686
 20
178.6948775899817008
 30
0.0
 40
0.0542073148338317
 50
11.8005402975759601
 51
33.2891501810543886
  0
ARC
  5
302F6
  8
0
 10
6725.1413201617278901
 20
178.6748396579343989
 30
0.0
 40
0.0683065591252612
 50
185.9641355153555082
 51
201.8835449210168917
  0
ARC
  5
302F7
  8
0
 10
6724.9988514280667005
 20
178.6150878081722908
 30
0.0
 40
0.0690008805565928
 50
22.1531437282737009
 51
39.3277608425409397
  0
ARC
  5
302F8
  8
0
 10
6724.9453574694789495
 20
178.5883204408100937
 30
0.0
 40
0.0583859129151343
 50
193.5085661848559084
 51
211.6652135169769053
  0
ARC
  5
302F9
  8
0
 10
6724.82737231115334
 20
178.5142806764052921
 30
0.0
 40
0.0629622563404567
 50
30.3552940055254297
 51
49.5299069232299587
  0
ARC
  5
302FA
  8
0
 10
6724.7714093791191772
 20
178.4741411865813916
 30
0.0
 40
0.0558473306211816
 50
202.3783800414965128
 51
220.9901256134743903
  0
ARC
  5
302FB
  8
0
 10
6724.6679116248624268
 20
178.3828505165664069
 30
0.0
 40
0.0631553231785535
 50
39.057349002784747
 51
58.424365312407069
  0
ARC
  5
302FC
  8
0
 10
6724.6208621685773323
 20
178.3360511348477075
 30
0.0
 40
0.0588134444104886
 50
212.2852578404418011
 51
229.8529268571749071
  0
ARC
  5
302FD
  8
0
 10
6724.5239233847969444
 20
178.2166081726130926
 30
0.0
 40
0.0745609394642356
 50
49.0582801755941915
 51
65.8611038213823861
  0
ARC
  5
302FE
  8
0
 10
6724.4933028395444126
 20
178.1750206387571041
 30
0.0
 40
0.0630245619499601
 50
223.034641170108614
 51
238.9005512614097881
  0
ARC
  5
302FF
  8
0
 10
6724.4059742565441411
 20
178.0211568183584063
 30
0.0
 40
0.0915672857631436
 50
58.8937697375268101
 51
72.5472794636267224
  0
ARC
  5
30300
  8
0
 10
6724.3930079226511225
 20
177.9959950497404861
 30
0.0
 40
0.0707944054772169
 50
234.1433351261528912
 51
248.0198819283320972
  0
ARC
  5
30301
  8
0
 10
6724.327568210703248
 20
177.8185947690236048
 30
0.0
 40
0.0935616685524209
 50
68.1502780939296571
 51
81.73587495229323
  0
ARC
  5
30302
  8
0
 10
6724.3214964460921692
 20
177.8004481416155045
 30
0.0
 40
0.0802695435147788
 50
245.2519533324210954
 51
257.3999796791417793
  0
ARC
  5
30303
  8
0
 10
6724.2831951216594462
 20
177.5967483706668872
 30
0.0
 40
0.099075242745138
 50
81.0459731536616772
 51
92.9244461486023852
  0
ARC
  5
30304
  8
0
 10
6724.2801820093663991
 20
177.5783551389899912
 30
0.0
 40
0.0789877283430552
 50
246.4482304971643032
 51
262.5533502619658748
  0
ARC
  5
30305
  8
0
 10
6724.2789109053455832
 20
177.3544119217989135
 30
0.0
 40
0.1125688062647967
 50
93.6999228433064673
 51
105.7844892148964959
  0
ARC
  5
30306
  8
0
 10
6724.2769710969023436
 20
177.3636849722009003
 30
0.0
 40
0.0998880359803304
 50
267.4218874437079876
 51
278.037123819369981
  0
ARC
  5
30307
  8
0
 10
6724.3259870663396214
 20
177.0894571994444959
 30
0.0
 40
0.1396797500364103
 50
99.1321793902123147
 51
108.546111671360606
  0
ARC
  5
30308
  8
0
 10
6724.2817869618284021
 20
177.2455743077202044
 30
0.0
 40
0.2381470329672084
 50
283.5748583203259159
 51
287.5421807326638941
  0
ARC
  5
30309
  8
0
 10
6724.4453462119763572
 20
176.8007460984896966
 30
0.0
 40
0.1856834092578836
 50
111.2273904831340019
 51
118.4151719394555045
  0
ARC
  5
3030A
  8
0
 10
6724.3507525716659075
 20
176.9697649081940938
 30
0.0
 40
0.2559728722179564
 50
298.4937038710854722
 51
302.0030703648956205
  0
ARC
  5
3030B
  8
0
 10
6724.7413351528293788
 20
176.4149929410118034
 30
0.0
 40
0.3402892418478986
 50
126.3554932562180966
 51
130.2185159465863933
  0
ARC
  5
3030C
  8
0
 10
6724.6291721587549546
 20
176.4894151884961957
 30
0.0
 40
0.4038497336178663
 50
330.596263540993391
 51
333.813285461925318
  0
ARC
  5
3030D
  8
0
 10
6725.2850892411715904
 20
176.1761612573151865
 30
0.0
 40
0.2542162325216668
 50
156.7061403364654097
 51
160.4960011883256925
  0
ARC
  5
3030E
  8
0
 10
6724.9793023283900766
 20
176.2995238447151962
 30
0.0
 40
0.1559424190646197
 50
334.1339597067970999
 51
342.3404233639747076
  0
ARC
  5
3030F
  8
0
 10
6725.3146990056820869
 20
176.1846394439430128
 30
0.0
 40
0.1606664294170029
 50
161.7564894441024137
 51
167.8898253396793052
  0
ARC
  5
30310
  8
0
 10
6725.0278684365694062
 20
176.2753273827798921
 30
0.0
 40
0.1879230690506521
 50
337.8995139764962232
 51
344.6062302167503049
  0
ARC
  5
30311
  8
0
 10
6725.3800981995427719
 20
176.1752486272038141
 30
0.0
 40
0.1513246389310368
 50
165.2006423610050092
 51
171.8267754284950968
  0
ARC
  5
30312
  8
0
 10
6725.1111971000946141
 20
176.2445621216558038
 30
0.0
 40
0.161055882675318
 50
339.7098898802861981
 51
347.4357951360544803
  0
ARC
  5
30313
  8
0
 10
6725.414851910915786
 20
176.1728749820912014
 30
0.0
 40
0.1299376529048233
 50
167.5073292495260944
 51
175.342026444995696
  0
ARC
  5
30314
  8
0
 10
6725.1727505146727708
 20
176.2251013566616962
 30
0.0
 40
0.1454318874433461
 50
341.1799290345924192
 51
349.633120020918625
  0
ARC
  5
30315
  8
0
 10
6725.4591937127634083
 20
176.1689224706803998
 30
0.0
 40
0.1292480728032458
 50
169.5759878541308012
 51
177.5573676380421091
  0
ARC
  5
30316
  8
0
 10
6725.2149894245776522
 20
176.2129792145977945
 30
0.0
 40
0.1423227775738929
 50
342.7546035751495879
 51
351.2949375333918169
  0
ARC
  5
30317
  8
0
 10
6725.4867272907849838
 20
176.1679843143554933
 30
0.0
 40
0.1185075578140072
 50
171.1627308039257116
 51
179.9819696652373864
  0
ARC
  5
30318
  8
0
 10
6725.2557139063228533
 20
176.2027657863503975
 30
0.0
 40
0.1357333098924855
 50
344.0205189586375241
 51
352.8827187665139036
  0
ARC
  5
30319
  8
0
 10
6725.4684473992174389
 20
176.1699566971990976
 30
0.0
 40
0.0668257277984626
 50
169.8268416601833906
 51
185.7078087763821941
  0
ARC
  5
3031A
  8
0
 10
6725.2858029701092164
 20
176.1957443994405992
 30
0.0
 40
0.1363934331976373
 50
345.4172643250449255
 51
354.1498831295701848
  0
ARC
  5
3031B
  8
0
 10
6725.557534580587344
 20
176.1654935016489958
 30
0.0
 40
0.1257019036678195
 50
174.0533027248455085
 51
182.5663546127302084
  0
ARC
  5
3031C
  8
0
 10
6725.3246981364864041
 20
176.1885872043775976
 30
0.0
 40
0.1256165600999634
 50
346.1104433624631156
 51
355.5078860097174811
  0
ARC
  5
3031D
  8
0
 10
6725.574042106673005
 20
176.166255297136388
 30
0.0
 40
0.1144479151664115
 50
175.0363092436946033
 51
184.4983658659064076
  0
ARC
  5
3031E
  8
0
 10
6725.3576999466122288
 20
176.1832662319461917
 30
0.0
 40
0.118943346558489
 50
346.8689300860169737
 51
356.7063063825671065
  0
ARC
  5
3031F
  8
0
 10
6725.5947612392210431
 20
176.1669776529425064
 30
0.0
 40
0.1091599455107268
 50
176.0536485272347136
 51
186.0828576810241941
  0
ARC
  5
30320
  8
0
 10
6725.3862760852880456
 20
176.1791154132451993
 30
0.0
 40
0.1153935787562068
 50
347.7819170448858017
 51
357.8277099447847149
  0
ARC
  5
30321
  8
0
 10
6725.6176967907786093
 20
176.1678718382422915
 30
0.0
 40
0.1073159930391872
 50
177.0525090044912133
 51
187.3551175368691872
  0
ARC
  5
30322
  8
0
 10
6725.4096350432464533
 20
176.1759984977848887
 30
0.0
 40
0.1161789914221304
 50
348.9261521063713758
 51
358.805731056244781
  0
ARC
  5
30323
  8
0
 10
6725.6409346807931797
 20
176.1691309899514124
 30
0.0
 40
0.1065771924698503
 50
178.0379241248814139
 51
188.4649793475716137
  0
ARC
  5
30324
  8
0
 10
6725.4280662333303553
 20
176.1737191571851895
 30
0.0
 40
0.1213591842451818
 50
350.3093352542787215
 51
359.603337475835076
  0
ARC
  5
30325
  8
0
 10
6725.6866430246263917
 20
176.1717044585334122
 30
0.0
 40
0.1287409861606341
 50
179.5944796952381921
 51
188.2937332209801866
  0
ARC
  5
30326
  8
0
 10
6725.3459453363293505
 20
174.075547875693502
 30
0.0
 40
4.6955935151015371
 50
86.0642591889981361
 51
87.4414132066784759
  0
ARC
  5
30327
  8
0
 10
6725.5405488616634102
 20
177.3007154274700952
 30
0.0
 40
1.464927861441518
 50
78.0387820771149734
 51
84.9994504119755447
  0
ARC
  5
30328
  8
0
 10
6725.5420566572292955
 20
177.3812656904088101
 30
0.0
 40
1.385897571624082
 50
68.4970055349944431
 51
77.4095876575123754
  0
ARC
  5
30329
  8
0
 10
6725.5739590962839429
 20
177.4848776724604136
 30
0.0
 40
1.277830250209224
 50
33.9448699169936035
 51
68.124980244197701
  0
ARC
  5
3032A
  8
0
 10
6725.5647309464611681
 20
177.4596470482750874
 30
0.0
 40
1.30674396461479
 50
289.8408591245740809
 51
296.6036622410035193
  0
ARC
  5
3032B
  8
0
 10
6725.5662585617101286
 20
177.4554134089991919
 30
0.0
 40
1.302243152480508
 50
281.3897412962896283
 51
289.8408591245740809
  0
ARC
  5
3032C
  8
0
 10
6725.5637093743725927
 20
177.4680676625592071
 30
0.0
 40
1.315151618277959
 50
275.0214508345305262
 51
281.3897412962896283
  0
ARC
  5
3032D
  8
0
 10
6725.5667657091989895
 20
177.4332835903599062
 30
0.0
 40
1.2802335303959
 50
271.5376169189344182
 51
275.0214508345305262
  0
ARC
  5
3032E
  8
0
 10
6725.7162920469427263
 20
165.9228165002525941
 30
0.0
 40
10.2313428124530699
 50
90.6449881619842301
 51
90.8453510433977129
  0
LINE
  5
3032F
  8
0
 10
6725.5727800661843503
 20
176.1726156364337044
 30
0.0
 11
6725.6584578977481215
 21
178.7401398283398066
 31
0.0
  0
LINE
  5
30330
  8
0
 10
6725.6748389355498148
 20
178.7388289143790985
 30
0.0
 11
6725.5812628198837047
 21
176.1728789861249993
 31
0.0
  0
LINE
  5
30331
  8
0
 10
6725.5962653554997814
 20
176.1727799789584026
 30
0.0
 11
6725.8590435105070355
 21
178.7109278975298992
 31
0.0
  0
LINE
  5
30332
  8
0
 10
6725.8750188737021745
 20
178.7059632722167066
 30
0.0
 11
6725.6048965316840622
 21
176.1735770469250895
 31
0.0
  0
LINE
  5
30333
  8
0
 10
6725.6201625608400718
 20
176.1733901055189051
 30
0.0
 11
6726.0527497837838382
 21
178.6493803486251011
 31
0.0
  0
LINE
  5
30334
  8
0
 10
6726.0679267157838694
 20
178.6411069008250934
 30
0.0
 11
6725.6290985909836309
 21
176.1747414737251063
 31
0.0
  0
LINE
  5
30335
  8
0
 10
6725.6448252094733107
 20
176.174490300274897
 30
0.0
 11
6726.2350218609735748
 21
178.55767046424981
 31
0.0
  0
LINE
  5
30336
  8
0
 10
6726.2489823677078675
 20
178.5460993212664107
 30
0.0
 11
6725.6542385129841932
 21
176.1764324440250959
 31
0.0
  0
LINE
  5
30337
  8
0
 10
6725.67066192708171
 20
176.1761578367213872
 30
0.0
 11
6726.401430779284965
 21
178.4375093055251114
 31
0.0
  0
LINE
  5
30338
  8
0
 10
6726.4137326063828368
 20
178.4226445558250873
 30
0.0
 11
6725.6807565111839722
 21
176.1787486789251034
 31
0.0
  0
LINE
  5
30339
  8
0
 10
6725.7091992718842448
 20
176.1818422962251134
 30
0.0
 11
6725.698176213683837
 21
176.1785166219250982
 31
0.0
  0
LINE
  5
3033A
  8
0
 10
6725.698176213683837
 20
176.1785166219250982
 30
0.0
 11
6726.5477432381176186
 21
178.2910946118080062
 31
0.0
  0
LINE
  5
3033B
  8
0
 10
6726.5477432381176186
 20
178.2910946118080062
 30
0.0
 11
6726.5579028307829503
 21
178.272929755625114
 31
0.0
  0
LINE
  5
3033C
  8
0
 10
6726.5579028307829503
 20
178.272929755625114
 30
0.0
 11
6725.7091992718842448
 21
176.1818422962251134
 31
0.0
  0
LINE
  5
3033D
  8
0
 10
6725.7402839906662848
 20
176.1859483243682973
 30
0.0
 11
6725.7280130543849737
 21
176.1817597011250882
 31
0.0
  0
LINE
  5
3033E
  8
0
 10
6725.7280130543849737
 20
176.1817597011250882
 30
0.0
 11
6726.6699362571844176
 21
178.1210544676251004
 31
0.0
  0
LINE
  5
3033F
  8
0
 10
6726.6699362571844176
 20
178.1210544676251004
 30
0.0
 11
6726.6774049922087215
 21
178.0995577276503923
 31
0.0
  0
LINE
  5
30340
  8
0
 10
6726.6774049922087215
 20
178.0995577276503923
 30
0.0
 11
6725.7402839906662848
 21
176.1859483243682973
 31
0.0
  0
LINE
  5
30341
  8
0
 10
6726.7641746787721786
 20
177.9303464213471955
 30
0.0
 11
6725.7610587526451127
 21
176.1861904665626923
 31
0.0
  0
LINE
  5
30342
  8
0
 10
6725.7610587526451127
 20
176.1861904665626923
 30
0.0
 11
6725.7750126116843603
 21
176.1914389241250944
 31
0.0
  0
LINE
  5
30343
  8
0
 10
6725.7750126116843603
 20
176.1914389241250944
 30
0.0
 11
6726.7682959498843047
 21
177.9054352667251067
 31
0.0
  0
LINE
  5
30344
  8
0
 10
6726.7682959498843047
 20
177.9054352667251067
 30
0.0
 11
6726.7641746787721786
 21
177.9303464213471955
 31
0.0
  0
LINE
  5
30345
  8
0
 10
6726.826627545185147
 20
177.6936021421250871
 30
0.0
 11
6726.8266991692671581
 21
177.7221117548365896
 31
0.0
  0
LINE
  5
30346
  8
0
 10
6726.8266991692671581
 20
177.7221117548365896
 30
0.0
 11
6725.7986065441800747
 21
176.1923074970831919
 31
0.0
  0
LINE
  5
30347
  8
0
 10
6725.7986065441800747
 20
176.1923074970831919
 30
0.0
 11
6725.8148770071838953
 21
176.1989308073250982
 31
0.0
  0
LINE
  5
30348
  8
0
 10
6725.8148770071838953
 20
176.1989308073250982
 30
0.0
 11
6726.826627545185147
 21
177.6936021421250871
 31
0.0
  0
LINE
  5
30349
  8
0
 10
6726.8480643133843841
 20
177.4669195714251089
 30
0.0
 11
6726.8535359650868486
 21
177.4994256496252945
 31
0.0
  0
LINE
  5
3034A
  8
0
 10
6726.8535359650868486
 20
177.4994256496252945
 30
0.0
 11
6725.8426946264853541
 21
176.2009824097250998
 31
0.0
  0
LINE
  5
3034B
  8
0
 10
6725.8426946264853541
 20
176.2009824097250998
 30
0.0
 11
6725.8622891749828341
 21
176.2095270715250876
 31
0.0
  0
LINE
  5
3034C
  8
0
 10
6725.8622891749828341
 20
176.2095270715250876
 30
0.0
 11
6726.8480643133843841
 21
177.4669195714251089
 31
0.0
  0
LINE
  5
3034D
  8
0
 10
6726.8268672004833206
 20
177.2273664840251115
 30
0.0
 11
6726.8397484165889182
 21
177.2647780678694005
 31
0.0
  0
LINE
  5
3034E
  8
0
 10
6726.8397484165889182
 20
177.2647780678694005
 30
0.0
 11
6725.8968917631827935
 21
176.2139022240251052
 31
0.0
  0
LINE
  5
3034F
  8
0
 10
6725.8968917631827935
 20
176.2139022240251052
 30
0.0
 11
6725.9216356999841082
 21
176.22544296312509
 31
0.0
  0
LINE
  5
30350
  8
0
 10
6725.9216356999841082
 20
176.22544296312509
 30
0.0
 11
6726.8268672004833206
 21
177.2273664840251115
 31
0.0
  0
LINE
  5
30351
  8
0
 10
6726.7525695518843349
 20
176.9738310404250967
 30
0.0
 11
6726.7771189851564486
 21
177.0185022275246922
 31
0.0
  0
LINE
  5
30352
  8
0
 10
6726.7771189851564486
 20
177.0185022275246922
 30
0.0
 11
6725.9685767889113777
 21
176.2349370721493926
 31
0.0
  0
LINE
  5
30353
  8
0
 10
6725.9685767889113777
 20
176.2349370721493926
 30
0.0
 11
6726.0027892519128727
 21
176.2522170179165073
 31
0.0
  0
LINE
  5
30354
  8
0
 10
6726.0027892519128727
 20
176.2522170179165073
 30
0.0
 11
6726.7525695518843349
 21
176.9738310404250967
 31
0.0
  0
LINE
  5
30355
  8
0
 10
6726.5910714184528842
 20
176.68904641863449
 30
0.0
 11
6726.6442761688522296
 21
176.7526948704924052
 31
0.0
  0
LINE
  5
30356
  8
0
 10
6726.6442761688522296
 20
176.7526948704924052
 30
0.0
 11
6726.0790908417848186
 21
176.2766903219250878
 31
0.0
  0
LINE
  5
30357
  8
0
 10
6726.0790908417848186
 20
176.2766903219250878
 30
0.0
 11
6726.1391142827842486
 21
176.3111971939250964
 31
0.0
  0
LINE
  5
30358
  8
0
 10
6726.1391142827842486
 20
176.3111971939250964
 30
0.0
 11
6726.5910714184528842
 21
176.68904641863449
 31
0.0
  0
ARC
  5
30359
  8
0
 10
6725.5518252916353958
 20
177.3046671311089142
 30
0.0
 40
1.439427795056776
 50
77.6765182245339361
 51
89.4619391076295472
  0
LINE
  5
3035A
  8
0
 10
6725.8590435105070355
 20
178.7109278975298992
 30
0.0
 11
6725.8750188737021745
 21
178.7059632722167066
 31
0.0
  0
LINE
  5
3035B
  8
0
 10
6726.0527497837838382
 20
178.6493803486251011
 30
0.0
 11
6726.0679267157838694
 21
178.6411069008250934
 31
0.0
  0
LINE
  5
3035C
  8
0
 10
6726.2350218609735748
 20
178.55767046424981
 30
0.0
 11
6726.2489823677078675
 21
178.5460993212664107
 31
0.0
  0
LINE
  5
3035D
  8
0
 10
6726.401430779284965
 20
178.4375093055251114
 30
0.0
 11
6726.4137326063828368
 21
178.4226445558250873
 31
0.0
  0
LINE
  5
3035E
  8
0
 10
6725.6807565111839722
 20
176.1787486789251034
 30
0.0
 11
6725.67066192708171
 21
176.1761578367213872
 31
0.0
  0
LINE
  5
3035F
  8
0
 10
6725.6542385129841932
 20
176.1764324440250959
 30
0.0
 11
6725.6448252094733107
 21
176.174490300274897
 31
0.0
  0
LINE
  5
30360
  8
0
 10
6725.6290985909836309
 20
176.1747414737251063
 30
0.0
 11
6725.6201625608400718
 21
176.1733901055189051
 31
0.0
  0
LINE
  5
30361
  8
0
 10
6725.6048965316840622
 20
176.1735770469250895
 30
0.0
 11
6725.5962653554997814
 21
176.1727799789584026
 31
0.0
  0
LINE
  5
30362
  8
0
 10
6725.5812628198837047
 20
176.1728789861249993
 30
0.0
 11
6725.5727800661843503
 21
176.1726156364337044
 31
0.0
  0
ARC
  5
30363
  8
0
 10
6725.4921085635969575
 20
177.1957912222248979
 30
0.0
 40
1.557960181186111
 50
68.908651136582634
 51
75.7722611546563201
  0
ARC
  5
30364
  8
0
 10
6725.4587561837852263
 20
177.2121070941282142
 30
0.0
 40
1.5534249851845121
 50
60.0190277845584532
 51
66.9118585278296081
  0
ARC
  5
30365
  8
0
 10
6725.4315697781657946
 20
177.2372367636685908
 30
0.0
 40
1.5431411264765651
 50
51.0606108482362586
 51
58.0143428025359071
  0
ARC
  5
30366
  8
0
 10
6725.4112300685392256
 20
177.267356211607904
 30
0.0
 40
1.529608608981093
 50
42.0116174801901892
 51
49.0501589952260417
  0
ARC
  5
30367
  8
0
 10
6725.3999175079743509
 20
177.3014625653505902
 30
0.0
 40
1.511515302475636
 50
32.8357075490122128
 51
39.9942543730264219
  0
ARC
  5
30368
  8
0
 10
6725.3961677208535548
 20
177.3357005031180904
 30
0.0
 40
1.491659078000344
 50
23.4936441404557215
 51
30.8028546829692296
  0
ARC
  5
30369
  8
0
 10
6725.3976655211199613
 20
177.367814905693109
 30
0.0
 40
1.47229868737567
 50
13.92443274028847
 51
21.4172529801770217
  0
ARC
  5
3036A
  8
0
 10
6725.4820019336830228
 20
177.408315099891098
 30
0.0
 40
1.3745569219103619
 50
3.8005556568106171
 51
11.9787187596384594
  0
ARC
  5
3036B
  8
0
 10
6725.4384386854580953
 20
177.423668337001601
 30
0.0
 40
1.410289005908278
 50
353.5310335477955732
 51
1.7574424881847019
  0
ARC
  5
3036C
  8
0
 10
6725.4785441003896267
 20
177.4381593088359068
 30
0.0
 40
1.364700991879559
 50
342.0908581417978098
 51
351.1144734722880116
  0
ARC
  5
3036D
  8
0
 10
6725.5296693301488631
 20
177.4356174181224048
 30
0.0
 40
1.307184612419682
 50
328.5040886048644779
 51
339.3126740484847232
  0
ARC
  5
3036E
  8
0
 10
6725.6511567433808523
 20
177.3540828494070922
 30
0.0
 40
1.151396131081611
 50
295.0745034349226898
 51
324.7186921684825052
  0
ARC
  5
3036F
  8
0
 10
6725.7308256387323127
 20
177.23131218534499
 30
0.0
 40
1.016165121314716
 50
285.5237162187394233
 51
290.0429837354711253
  0
LINE
  5
30370
  8
0
 10
6725.9685767889113777
 20
176.2349370721493926
 30
0.0
 11
6725.9216356999841082
 21
176.22544296312509
 31
0.0
  0
LINE
  5
30371
  8
0
 10
6725.8968917631827935
 20
176.2139022240251052
 30
0.0
 11
6725.8622891749828341
 21
176.2095270715250876
 31
0.0
  0
LINE
  5
30372
  8
0
 10
6725.8426946264853541
 20
176.2009824097250998
 30
0.0
 11
6725.8148770071838953
 21
176.1989308073250982
 31
0.0
  0
LINE
  5
30373
  8
0
 10
6725.7986065441800747
 20
176.1923074970831919
 30
0.0
 11
6725.7750126116843603
 21
176.1914389241250944
 31
0.0
  0
LINE
  5
30374
  8
0
 10
6725.7610587526451127
 20
176.1861904665626923
 30
0.0
 11
6725.7402839906662848
 21
176.1859483243682973
 31
0.0
  0
LINE
  5
30375
  8
0
 10
6725.7280130543849737
 20
176.1817597011250882
 30
0.0
 11
6725.7091992718842448
 21
176.1818422962251134
 31
0.0
  0
LINE
  5
30376
  8
0
 10
6725.698176213683837
 20
176.1785166219250982
 30
0.0
 11
6725.6807565111839722
 21
176.1787486789251034
 31
0.0
  0
LINE
  5
30377
  8
0
 10
6725.67066192708171
 20
176.1761578367213872
 30
0.0
 11
6725.6542385129841932
 21
176.1764324440250959
 31
0.0
  0
LINE
  5
30378
  8
0
 10
6725.6448252094733107
 20
176.174490300274897
 30
0.0
 11
6725.6290985909836309
 21
176.1747414737251063
 31
0.0
  0
LINE
  5
30379
  8
0
 10
6725.6201625608400718
 20
176.1733901055189051
 30
0.0
 11
6725.6048965316840622
 21
176.1735770469250895
 31
0.0
  0
LINE
  5
3037A
  8
0
 10
6725.5962653554997814
 20
176.1727799789584026
 30
0.0
 11
6725.5812628198837047
 21
176.1728789861249993
 31
0.0
  0
ARC
  5
3037B
  8
0
 10
6725.6011599618150285
 20
178.7459949221494071
 30
0.0
 40
0.0575963157311148
 50
354.1653789594058139
 51
14.84815570091666
  0
ARC
  5
3037C
  8
0
 10
6725.7274330621039553
 20
178.7367061596966096
 30
0.0
 40
0.0526369474366727
 50
154.9249016268022956
 51
177.6887361049222136
  0
ARC
  5
3037D
  8
0
 10
6725.8055029765337167
 20
178.7244474260405127
 30
0.0
 40
0.0552210687069063
 50
345.8284754938063088
 51
5.8728467382784038
  0
ARC
  5
3037E
  8
0
 10
6725.9280805418911768
 20
178.6948775899817008
 30
0.0
 40
0.0542073148338317
 50
146.7108498189456043
 51
168.1994597024240079
  0
ARC
  5
3037F
  8
0
 10
6725.9893651674401553
 20
178.6748396579343989
 30
0.0
 40
0.0683065591252612
 50
338.1164550789831083
 51
354.0358644846429002
  0
ARC
  5
30380
  8
0
 10
6726.131833901101345
 20
178.6150878081722908
 30
0.0
 40
0.0690008805565928
 50
140.6722391574589892
 51
157.8468562717262955
  0
ARC
  5
30381
  8
0
 10
6726.1853278596881864
 20
178.5883204408100937
 30
0.0
 40
0.0583859129151343
 50
328.3347864830230947
 51
346.4914338151440916
  0
ARC
  5
30382
  8
0
 10
6726.303313018013796
 20
178.5142806764052921
 30
0.0
 40
0.0629622563404567
 50
130.4700930767689897
 51
149.6447059944746059
  0
ARC
  5
30383
  8
0
 10
6726.3592759500488683
 20
178.4741411865813916
 30
0.0
 40
0.0558473306211816
 50
319.009874386525496
 51
335.6549609744595273
  0
ARC
  5
30384
  8
0
 10
6726.4627737043037996
 20
178.3828505165664069
 30
0.0
 40
0.0631553231785535
 50
123.5378422778991023
 51
140.9426509972151962
  0
ARC
  5
30385
  8
0
 10
6726.5098231605916226
 20
178.3360511348477075
 30
0.0
 40
0.0588134444104886
 50
310.1470731428252066
 51
323.5458147911639912
  0
ARC
  5
30386
  8
0
 10
6726.606761944371101
 20
178.2166081726130926
 30
0.0
 40
0.0745609394642356
 50
117.6509970179808988
 51
130.941719824406789
  0
ARC
  5
30387
  8
0
 10
6726.6373824896254519
 20
178.1750206387571041
 30
0.0
 40
0.0630245619499601
 50
301.0994487385901266
 51
311.5282934858246904
  0
ARC
  5
30388
  8
0
 10
6726.7247110726239043
 20
178.0211568183584063
 30
0.0
 40
0.0915672857631436
 50
111.2055713310133029
 51
121.1062302624732041
  0
ARC
  5
30389
  8
0
 10
6726.7376774065169229
 20
177.9959950497404861
 30
0.0
 40
0.0707944054772169
 50
291.9801180716679028
 51
300.4184599583963973
  0
ARC
  5
3038A
  8
0
 10
6726.8031171184638879
 20
177.8185947690236048
 30
0.0
 40
0.0935616685524209
 50
102.4192246093542025
 51
111.8497219060703003
  0
ARC
  5
3038B
  8
0
 10
6726.8091888830749667
 20
177.8004481416155045
 30
0.0
 40
0.0802695435147788
 50
282.6000203208582207
 51
289.487846114693923
  0
ARC
  5
3038C
  8
0
 10
6726.8474902075104183
 20
177.5967483706668872
 30
0.0
 40
0.0990752427450489
 50
93.3645461692273244
 51
102.1559875850597052
  0
ARC
  5
3038D
  8
0
 10
6726.8505033198007368
 20
177.5783551389901049
 30
0.0
 40
0.0789877283431841
 50
272.2003480371525939
 51
278.8529195019311828
  0
ARC
  5
3038E
  8
0
 10
6726.8517744238215528
 20
177.3544119217991124
 30
0.0
 40
0.1125688062646051
 50
84.3400415480468268
 51
91.8887308210132829
  0
ARC
  5
3038F
  8
0
 10
6726.8537142322666114
 20
177.3636849722009003
 30
0.0
 40
0.0998880359803304
 50
261.962876180630019
 51
267.1426866032545036
  0
ARC
  5
30390
  8
0
 10
6726.8046982628293335
 20
177.0894571994444959
 30
0.0
 40
0.1396797500364103
 50
74.4704096966092948
 51
80.8678206097876853
  0
ARC
  5
30391
  8
0
 10
6726.8488983673396433
 20
177.2455743077202044
 30
0.0
 40
0.2381470329672084
 50
252.4578192673361059
 51
254.7013885391058068
  0
ARC
  5
30392
  8
0
 10
6726.6853391171916883
 20
176.8007460984896966
 30
0.0
 40
0.1856834092578836
 50
63.7460005196219086
 51
68.772609516865927
  0
ARC
  5
30393
  8
0
 10
6726.7799327575012285
 20
176.9697649081940938
 30
0.0
 40
0.2559728722179564
 50
237.9969296351044932
 51
240.3030935222512881
  0
ARC
  5
30394
  8
0
 10
6726.3893501763386666
 20
176.4149929410118034
 30
0.0
 40
0.3402892418478986
 50
50.6468091043177822
 51
53.6445067437819105
  0
ARC
  5
30395
  8
0
 10
6726.5015131704112719
 20
176.4894151884961957
 30
0.0
 40
0.4038497336178663
 50
206.1867145380745967
 51
209.4037364590053016
  0
ARC
  5
30396
  8
0
 10
6725.8455960879973645
 20
176.1761612573151865
 30
0.0
 40
0.2542162325216668
 50
19.5039988116742897
 51
23.2938596635346009
  0
ARC
  5
30397
  8
0
 10
6726.1513830007788783
 20
176.2995238447151962
 30
0.0
 40
0.1559424190646197
 50
197.6595766360252924
 51
205.8660402932029001
  0
ARC
  5
30398
  8
0
 10
6725.8159863234859586
 20
176.1846394439430128
 30
0.0
 40
0.1606664294170029
 50
12.1101746603206895
 51
18.2435105558976289
  0
ARC
  5
30399
  8
0
 10
6726.1028168925977297
 20
176.2753273827798921
 30
0.0
 40
0.1879230690506521
 50
195.3937697832496951
 51
202.1004860235038052
  0
ARC
  5
3039A
  8
0
 10
6725.750587129626183
 20
176.1752486272038141
 30
0.0
 40
0.1513246389310368
 50
8.1732245715048695
 51
14.7993576389950192
  0
ARC
  5
3039B
  8
0
 10
6726.0194882290743408
 20
176.2445621216558038
 30
0.0
 40
0.161055882675318
 50
192.5642048639454913
 51
200.2901101197138019
  0
ARC
  5
3039C
  8
0
 10
6725.7158334182522594
 20
176.1728749820912014
 30
0.0
 40
0.1299376529048233
 50
4.6579735550042862
 51
12.4926707504738808
  0
ARC
  5
3039D
  8
0
 10
6725.9579348144952746
 20
176.2251013566616962
 30
0.0
 40
0.1454318874433461
 50
190.3668799790796982
 51
198.8200709654074956
  0
ARC
  5
3039E
  8
0
 10
6725.6714916164037277
 20
176.1689224706803998
 30
0.0
 40
0.1292480728032458
 50
2.442632361957898
 51
10.4240121458691508
  0
ARC
  5
3039F
  8
0
 10
6725.9156959045885742
 20
176.2129792145977945
 30
0.0
 40
0.1423227775738929
 50
188.7050624666080978
 51
197.2453964248502984
  0
ARC
  5
303A0
  8
0
 10
6725.6439580383821522
 20
176.1679843143554933
 30
0.0
 40
0.1185075578140072
 50
0.0180303347625799
 51
8.837269196074315
  0
ARC
  5
303A1
  8
0
 10
6725.8749714228461016
 20
176.2027657863503975
 30
0.0
 40
0.1357333098924855
 50
187.1172812334860964
 51
195.9794810413609127
  0
ARC
  5
303A2
  8
0
 10
6725.6622379299506065
 20
176.1699566971990976
 30
0.0
 40
0.0668257277984626
 50
354.2921912236178059
 51
10.1731583398166094
  0
ARC
  5
303A3
  8
0
 10
6725.844882359058829
 20
176.1957443994405992
 30
0.0
 40
0.1363934331976373
 50
185.8501168704297015
 51
194.5827356749551029
  0
ARC
  5
303A4
  8
0
 10
6725.573150748581611
 20
176.1654935016489958
 30
0.0
 40
0.1257019036678195
 50
357.4336453872696779
 51
5.9466972751544889
  0
ARC
  5
303A5
  8
0
 10
6725.8059871926816413
 20
176.1885872043775976
 30
0.0
 40
0.1256165600999634
 50
184.4921139902824905
 51
193.8895566375369128
  0
ARC
  5
303A6
  8
0
 10
6725.5566432224950404
 20
176.166255297136388
 30
0.0
 40
0.1144479151664115
 50
355.5016341340935924
 51
4.9636907563054429
  0
ARC
  5
303A7
  8
0
 10
6725.7729853825558166
 20
176.1832662319461917
 30
0.0
 40
0.118943346558489
 50
183.2936936174328082
 51
193.1310699139829978
  0
ARC
  5
303A8
  8
0
 10
6725.5359240899460929
 20
176.1669776529425064
 30
0.0
 40
0.1091599455107268
 50
353.9171423189757775
 51
3.9463514727652651
  0
ARC
  5
303A9
  8
0
 10
6725.7444092438799998
 20
176.1791154132451993
 30
0.0
 40
0.1153935787562068
 50
182.1722900552153135
 51
192.2180829551141983
  0
ARC
  5
303AA
  8
0
 10
6725.5129885383876172
 20
176.1678718382422915
 30
0.0
 40
0.1073159930391872
 50
352.6448824631307843
 51
2.9474909955087529
  0
ARC
  5
303AB
  8
0
 10
6725.7210502859234111
 20
176.1759984977848887
 30
0.0
 40
0.1161789914221304
 50
181.1942689437551905
 51
191.0738478936270042
  0
ARC
  5
303AC
  8
0
 10
6725.4897506483748657
 20
176.1691309899514124
 30
0.0
 40
0.1065771924698503
 50
351.5350206524282726
 51
1.9620758751169041
  0
ARC
  5
303AD
  8
0
 10
6725.7026190958376901
 20
176.1737191571851895
 30
0.0
 40
0.1213591842451818
 50
180.3966625241648956
 51
189.6906647457211932
  0
ARC
  5
303AE
  8
0
 10
6725.4440423045416537
 20
176.1717044585334122
 30
0.0
 40
0.1287409861606341
 50
351.7062667790196997
 51
0.4055203047618193
  0
LINE
  5
303AF
  8
0
 10
6725.5579052629836951
 20
176.1726156364337044
 30
0.0
 11
6725.5727800661843503
 21
176.1726156364337044
 31
0.0
  0
ARC
  5
303B0
  8
0
 10
6725.5599141582351876
 20
177.4608153711201055
 30
0.0
 40
1.302974210094519
 50
0.2451014411033363
 51
34.4777814249168628
  0
ARC
  5
303B1
  8
0
 10
6725.2084066652432739
 20
177.5297512030232951
 30
0.0
 40
1.6556826365784041
 50
338.7338618305549858
 51
357.8067903909005167
  0
ARC
  5
303B2
  8
0
 10
6725.5462400812220949
 20
177.462826868569806
 30
0.0
 40
1.3179542426825579
 50
297.2605221255840888
 51
336.1173750366643844
  0
ENDSEC
  0
EOF
