  0
SECTION
  2
HEADER
  9
$ACADVER
  1
AC1009
  9
$INSBASE
 10
6803.9455512895028733
 20
168.7611180563941957
 30
0.0
  9
$EXTMIN
 10
6790.538465821347927
 20
160.8123571697508964
 30
-0.0015258207003583
  9
$EXTMAX
 10
6811.8456132685059856
 20
170.3387241980130113
 30
0.0000000349246037
  9
$LIMMIN
 10
0.0
 20
0.0
  9
$LIMMAX
 10
11.6929133858000007
 20
8.2677165353999982
  9
$ORTHOMODE
 70
     0
  9
$REGENMODE
 70
     1
  9
$FILLMODE
 70
     1
  9
$QTEXTMODE
 70
     0
  9
$MIRRTEXT
 70
     0
  9
$DRAGMODE
 70
     2
  9
$LTSCALE
 40
0.6431102362
  9
$OSMODE
 70
  4095
  9
$ATTMODE
 70
     1
  9
$TEXTSIZE
 40
0.2
  9
$TRACEWID
 40
0.05
  9
$TEXTSTYLE
  7
STANDARD
  9
$CLAYER
  8
0
  9
$CELTYPE
  6
BYLAYER
  9
$CECOLOR
 62
   256
  9
$DIMSCALE
 40
1.0
  9
$DIMASZ
 40
0.1875
  9
$DIMEXO
 40
0.0625
  9
$DIMDLI
 40
0.4443307087
  9
$DIMRND
 40
0.0
  9
$DIMDLE
 40
0.0
  9
$DIMEXE
 40
0.125
  9
$DIMTP
 40
0.01
  9
$DIMTM
 40
0.01
  9
$DIMTXT
 40
2.0
  9
$DIMCEN
 40
0.1052362205
  9
$DIMTSZ
 40
0.0
  9
$DIMTOL
 70
     1
  9
$DIMLIM
 70
     0
  9
$DIMTIH
 70
     1
  9
$DIMTOH
 70
     1
  9
$DIMSE1
 70
     0
  9
$DIMSE2
 70
     0
  9
$DIMTAD
 70
     0
  9
$DIMZIN
 70
     0
  9
$DIMBLK
  1

  9
$DIMASO
 70
     1
  9
$DIMSHO
 70
     1
  9
$DIMPOST
  1
\X
  9
$DIMAPOST
  1

  9
$DIMALT
 70
     1
  9
$DIMALTD
 70
     2
  9
$DIMALTF
 40
25.3999999999999986
  9
$DIMLFAC
 40
1.0
  9
$DIMTOFL
 70
     0
  9
$DIMTVP
 40
0.0
  9
$DIMTIX
 70
     0
  9
$DIMSOXD
 70
     0
  9
$DIMSAH
 70
     0
  9
$DIMBLK1
  1

  9
$DIMBLK2
  1

  9
$DIMSTYLE
  2
STANDARD
  9
$DIMCLRD
 70
     0
  9
$DIMCLRE
 70
     0
  9
$DIMCLRT
 70
     0
  9
$DIMTFAC
 40
1.0
  9
$DIMGAP
 40
0.09
  9
$LUNITS
 70
     2
  9
$LUPREC
 70
     4
  9
$SKETCHINC
 40
0.1
  9
$FILLETRAD
 40
0.0
  9
$AUNITS
 70
     0
  9
$AUPREC
 70
     0
  9
$MENU
  1
.
  9
$ELEVATION
 40
0.0
  9
$PELEVATION
 40
0.0
  9
$THICKNESS
 40
0.0
  9
$LIMCHECK
 70
     0
  9
$BLIPMODE
 70
     0
  9
$CHAMFERA
 40
0.0
  9
$CHAMFERB
 40
0.0
  9
$SKPOLY
 70
     0
  9
$TDCREATE
 40
2458060.468368056230247
  9
$TDUPDATE
 40
2460567.5444212961010635
  9
$TDINDWG
 40
0.9940116898
  9
$TDUSRTIMER
 40
0.9940116898
  9
$USRTIMER
 70
     1
  9
$ANGBASE
 50
0.0
  9
$ANGDIR
 70
     0
  9
$PDMODE
 70
     0
  9
$PDSIZE
 40
0.3125
  9
$PLINEWID
 40
0.0
  9
$COORDS
 70
     1
  9
$SPLFRAME
 70
     0
  9
$SPLINETYPE
 70
     6
  9
$SPLINESEGS
 70
     8
  9
$ATTDIA
 70
     1
  9
$ATTREQ
 70
     1
  9
$HANDLING
 70
     1
  9
$HANDSEED
  5
31C96
  9
$SURFTAB1
 70
     6
  9
$SURFTAB2
 70
     6
  9
$SURFTYPE
 70
     6
  9
$SURFU
 70
     6
  9
$SURFV
 70
     6
  9
$UCSNAME
  2

  9
$UCSORG
 10
0.0
 20
0.0
 30
0.0
  9
$UCSXDIR
 10
1.0
 20
0.0
 30
0.0
  9
$UCSYDIR
 10
0.0
 20
1.0
 30
0.0
  9
$PUCSNAME
  2

  9
$PUCSORG
 10
0.0
 20
0.0
 30
0.0
  9
$PUCSXDIR
 10
1.0
 20
0.0
 30
0.0
  9
$PUCSYDIR
 10
0.0
 20
1.0
 30
0.0
  9
$USERI1
 70
     0
  9
$USERI2
 70
     0
  9
$USERI3
 70
     0
  9
$USERI4
 70
     0
  9
$USERI5
 70
     0
  9
$USERR1
 40
0.0
  9
$USERR2
 40
0.0
  9
$USERR3
 40
0.0
  9
$USERR4
 40
0.0
  9
$USERR5
 40
0.0
  9
$WORLDVIEW
 70
     1
  9
$SHADEDGE
 70
     3
  9
$SHADEDIF
 70
    70
  9
$TILEMODE
 70
     1
  9
$MAXACTVP
 70
    64
  9
$PLIMCHECK
 70
     0
  9
$PEXTMIN
 10
1.0000000000000000E+20
 20
1.0000000000000000E+20
 30
1.0000000000000000E+20
  9
$PEXTMAX
 10
-1.0000000000000000E+20
 20
-1.0000000000000000E+20
 30
-1.0000000000000000E+20
  9
$PLIMMIN
 10
0.0
 20
0.0
  9
$PLIMMAX
 10
12.0
 20
9.0
  9
$UNITMODE
 70
     0
  9
$VISRETAIN
 70
     1
  9
$PLINEGEN
 70
     0
  9
$PSLTSCALE
 70
     1
  0
ENDSEC
  0
SECTION
  2
TABLES
  0
TABLE
  2
VPORT
 70
     1
  0
VPORT
  2
*ACTIVE
 70
     0
 10
0.0
 20
0.0
 11
1.0
 21
1.0
 12
2889.826683099614911
 22
32.9959355813428772
 13
0.0
 23
0.0
 14
1.0
 24
1.0
 15
0.0
 25
0.0
 16
0.0
 26
0.0
 36
60.4960186965801583
 17
3911.3653564453120453
 27
132.5796051025390057
 37
0.0
 40
9.6005021802329971
 41
2.4792207792207792
 42
50.0
 43
0.0
 44
0.0
 50
0.0
 51
0.0
 71
     0
 72
   100
 73
     1
 74
     1
 75
     0
 76
     0
 77
     0
 78
     0
  0
ENDTAB
  0
TABLE
  2
LTYPE
 70
     2
  0
LTYPE
  2
CONTINUOUS
 70
     0
  3
Solid line
 72
    65
 73
     0
 40
0.0
  0
LTYPE
  2
PHANTOM2
 70
     0
  3
___ _ _ ___ _ _ ___ _ _ ___ _ _
 72
    65
 73
     6
 40
1.25
 49
0.625
 49
-0.125
 49
0.125
 49
-0.125
 49
0.125
 49
-0.125
  0
ENDTAB
  0
TABLE
  2
LAYER
 70
     2
  0
LAYER
  2
0
 70
     0
 62
   255
  6
CONTINUOUS
  0
LAYER
  2
DEFPOINTS
 70
     0
 62
     7
  6
CONTINUOUS
  0
ENDTAB
  0
TABLE
  2
STYLE
 70
     1
  0
STYLE
  2
STANDARD
 70
     0
 40
0.0
 41
0.8
 50
0.0
 71
     0
 42
0.2
  3
txt
  4

  0
ENDTAB
  0
TABLE
  2
VIEW
 70
     2
  0
ENDTAB
  0
TABLE
  2
UCS
 70
     0
  0
ENDTAB
  0
TABLE
  2
APPID
 70
    11
  0
APPID
  2
ACAD
 70
     0
  0
APPID
  2
ACAD_MLEADERVER
 70
     0
  0
APPID
  2
ACAD_EXEMPT_FROM_CAD_STANDARDS
 70
     0
  0
APPID
  2
ACAD_NAV_VCDISPLAY
 70
     0
  0
APPID
  2
ACAECLAYERSTANDARD
 70
     0
  0
APPID
  2
ACCMTRANSPARENCY
 70
     0
  0
APPID
  2
ACAD_DSTYLE_DIMJAG
 70
     0
  0
APPID
  2
ACAD_DSTYLE_DIMTALN
 70
     0
  0
APPID
  2
ACDBATTR
 70
     0
  0
APPID
  2
ACADANNOTATIVE
 70
     0
  0
APPID
  2
DCO15
 70
     0
  0
ENDTAB
  0
TABLE
  2
DIMSTYLE
 70
     1
  0
DIMSTYLE
  2
STANDARD
 70
     0
  3

  4

  5

  6

  7

 40
1.0
 41
0.1875
 42
0.0625
 43
0.38
 44
0.125
 45
0.0
 46
0.0
 47
0.01
 48
0.01
140
0.15625
141
0.09
142
0.0
143
25.3999999999999986
144
1.0
145
0.0
146
1.0
147
0.09
 71
     1
 72
     0
 73
     1
 74
     1
 75
     0
 76
     0
 77
     0
 78
     4
170
     0
171
     2
172
     0
173
     0
174
     0
175
     0
176
     0
177
     0
178
     0
  0
ENDTAB
  0
ENDSEC
  0
SECTION
  2
BLOCKS
  0
BLOCK
  8
0
  2
$MODEL_SPACE
 70
     0
 10
0.0
 20
0.0
 30
0.0
  3
$MODEL_SPACE
  1

  0
ENDBLK
  5
21
  8
0
  0
BLOCK
 67
     1
  8
0
  2
$PAPER_SPACE
 70
     0
 10
0.0
 20
0.0
 30
0.0
  3
$PAPER_SPACE
  1

  0
ENDBLK
  5
1D
 67
     1
  8
0
  0
BLOCK
  8
0
  2
_FILLED
 70
     0
 10
0.0
 20
0.0
 30
0.0
  3
_FILLED
  1

  0
SOLID
  5
2FD5F
  8
0
  6
BYBLOCK
 62
     0
 10
0.0
 20
0.0
 30
0.0
 11
-1.0
 21
0.1666666667
 31
0.0
 12
-1.0
 22
-0.1666666667
 32
0.0
 13
-1.0
 23
-0.1666666667
 33
0.0
  0
ENDBLK
  5
2FD60
  8
0
  6
BYBLOCK
 62
     0
  0
ENDSEC
  0
SECTION
  2
ENTITIES
  0
ATTDEF
  5
26A5B
  8
DEFPOINTS
 10
6803.9394569007836253
 20
168.7598136464536083
 30
0.0
 40
0.001
  1
EX36240T-9
  3

  2
MODELNUMBER
 70
     0
1001
ACDBATTR
1070
     0
1070
     1
  0
ATTDEF
  5
26A5C
  8
DEFPOINTS
 10
6803.9393310911282242
 20
168.7581468060745067
 30
0.0
 40
0.001
  1
ORIANA
  3

  2
TRADENAME
 70
     0
1001
ACDBATTR
1070
     0
1070
     1
  0
ATTDEF
  5
26A5D
  8
DEFPOINTS
 10
6803.9394569007836253
 20
168.7564803131201927
 30
0.0
 40
0.001
  1
BATH FAUCET
  3

  2
PRODUCT
 70
     0
1001
ACDBATTR
1070
     0
1070
     1
  0
LINE
  5
31BCA
  8
0
 10
6791.6345276674528577
 20
168.3908224423682896
 30
0.0
 11
6791.6345276674528577
 21
168.716706583691689
 31
0.0
  0
LINE
  5
31BCB
  8
0
 10
6791.5833467264528736
 20
161.2036396595185863
 30
0.0
 11
6791.5833467264528736
 21
167.8854814998753966
 31
0.0
  0
ARC
  5
31BCC
  8
0
 10
6792.1335230065924407
 20
167.5323008091575048
 30
0.0
 40
0.7429194658458274
 50
89.9225180517643849
 51
95.2410681268784174
  0
ARC
  5
31BCD
  8
0
 10
6792.1335230065924407
 20
167.5323008091575048
 30
0.0
 40
0.7429194658458274
 50
95.3958619969754125
 51
113.875071026230998
  0
ARC
  5
31BCE
  8
0
 10
6792.0326686434491421
 20
167.7601592175319922
 30
0.0
 40
0.4937386944531556
 50
113.875071026230998
 51
136.7444290956784982
  0
ARC
  5
31BCF
  8
0
 10
6791.9144047247391427
 20
167.8714327605318033
 30
0.0
 40
0.3313559495558294
 50
136.7444644376955978
 51
177.5700607702686113
  0
ARC
  5
31BD0
  8
0
 10
6792.1345062440741458
 20
167.4421470526083908
 30
0.0
 40
0.7773935091808671
 50
89.9984210416280632
 51
95.2286812348182963
  0
LINE
  5
31BD1
  8
0
 10
6792.0636615257517406
 20
168.2163057533942094
 30
0.0
 11
6792.0636615257517406
 21
168.2719282195660924
 31
0.0
  0
LINE
  5
31BD2
  8
0
 10
6792.0656600020629412
 20
168.2164860372122916
 30
0.0
 11
6792.0656600020629412
 21
168.2721142622314119
 31
0.0
  0
ARC
  5
31BD3
  8
0
 10
6792.1338270653759537
 20
167.6185615414769075
 30
0.0
 40
0.6548988248185498
 50
95.9746208845662352
 51
96.1504469785779321
  0
ARC
  5
31BD4
  8
0
 10
6792.1337071892212407
 20
167.5326616061890093
 30
0.0
 40
0.7174699995939803
 50
95.4422980126216487
 51
95.6030801173731675
  0
ARC
  5
31BD5
  8
0
 10
6792.1332188409942319
 20
168.0486927739590897
 30
0.0
 40
0.6650896981880369
 50
89.8872478649768141
 51
111.8388644090769048
  0
ARC
  5
31BD6
  8
0
 10
6792.0654304838508324
 20
168.2178429141557103
 30
0.0
 40
0.4828617330103552
 50
111.8388644090769048
 51
132.6313629321969074
  0
ARC
  5
31BD7
  8
0
 10
6791.9724883725475593
 20
168.31880572465451
 30
0.0
 40
0.3456330000233092
 50
132.6313629321969074
 51
147.9522630563851919
  0
LINE
  5
31BD8
  8
0
 10
6791.6795276674529305
 20
168.5022074584942118
 30
0.0
 11
6791.6795276674529305
 21
168.2256240078941971
 31
0.0
  0
ARC
  5
31BD9
  8
0
 10
6792.1016236148861935
 20
168.0240640863682984
 30
0.0
 40
0.4677514198859614
 50
154.4745180255808918
 51
176.9664020381304965
  0
ARC
  5
31BDA
  8
0
 10
6792.1301025519969699
 20
168.1048950635671133
 30
0.0
 40
0.6481976925903732
 50
89.6088501784312967
 51
119.440237413954307
  0
ARC
  5
31BDB
  8
0
 10
6792.0003101278998656
 20
168.3348617418234028
 30
0.0
 40
0.3841318930994422
 50
119.440237413954307
 51
145.9498797588593959
  0
ARC
  5
31BDC
  8
0
 10
6791.9165250916375953
 20
168.3932780854948987
 30
0.0
 40
0.2820075302161846
 50
146.2522014961278956
 51
166.8907104166626141
  0
ARC
  5
31BDD
  8
0
 10
6791.8960800500690311
 20
168.3955348049254042
 30
0.0
 40
0.2615948302477497
 50
166.356453570475793
 51
214.0548458713766138
  0
ARC
  5
31BDE
  8
0
 10
6791.9032175338988964
 20
168.3783121475755138
 30
0.0
 40
0.2386892766230439
 50
159.6851833777220975
 51
200.2847397282392023
  0
ARC
  5
31BDF
  8
0
 10
6792.1345276674528577
 20
168.7611180563943094
 30
0.0
 40
0.5019685038999167
 50
89.9999999942678954
 51
122.9143865939342959
  0
ARC
  5
31BE0
  8
0
 10
6792.1345276674528577
 20
168.7611180563941957
 30
0.0
 40
0.5019685039000725
 50
122.9143865939342959
 51
158.6640938204010922
  0
ARC
  5
31BE1
  8
0
 10
6792.1345276674528577
 20
168.7611180563941957
 30
0.0
 40
0.5019685038998986
 50
158.6640938204010922
 51
185.07585917398319
  0
ARC
  5
31BE2
  8
0
 10
6792.1345276675028799
 20
168.7611180563941957
 30
0.0
 40
1.279527559049999
 50
295.5163793622490971
 51
244.4836206377509029
  0
ARC
  5
31BE3
  8
0
 10
6792.1297580565988028
 20
160.8816088027697049
 30
0.0
 40
0.7125014687693489
 50
89.6165144481550584
 51
120.494294394900507
  0
ARC
  5
31BE4
  8
0
 10
6791.9731414765319641
 20
161.1488582629243069
 30
0.0
 40
0.4027430964355688
 50
120.5886288545687961
 51
153.025337094609398
  0
ARC
  5
31BE5
  8
0
 10
6791.8637667210614381
 20
161.2036396595185863
 30
0.0
 40
0.2804199946073145
 50
152.8638363119547989
 51
212.7872742961581025
  0
ARC
  5
31BE6
  8
0
 10
6792.0064435262856932
 20
161.2940256544320903
 30
0.0
 40
0.4493142878568916
 50
212.6245306541761977
 51
239.5057368085116138
  0
ARC
  5
31BE7
  8
0
 10
6792.1187325360879186
 20
161.4869981822201908
 30
0.0
 40
0.6725771558077004
 50
239.6051620638606892
 51
271.345685869598924
  0
ARC
  5
31BE8
  8
0
 10
6792.1290366747898588
 20
160.9070050521874862
 30
0.0
 40
0.6648408563321294
 50
89.5267827041524384
 51
122.0716023361837017
  0
ARC
  5
31BE9
  8
0
 10
6791.9694692895127446
 20
161.163021090118491
 30
0.0
 40
0.3631705022951479
 50
122.1858263640258997
 51
153.0226082375365024
  0
ARC
  5
31BEA
  8
0
 10
6791.8863821795021067
 20
161.2043214116596914
 30
0.0
 40
0.2703904843157944
 50
152.8350143567753037
 51
202.6282043748205979
  0
ARC
  5
31BEB
  8
0
 10
6791.9500703145449734
 20
161.2296831953262881
 30
0.0
 40
0.338935672957436
 50
202.4431769509805008
 51
237.6252843189438977
  0
ARC
  5
31BEC
  8
0
 10
6792.1649637231748784
 20
161.5712938428877976
 30
0.0
 40
0.7425147655564353
 50
237.735285154594493
 51
252.5755136546922017
  0
ARC
  5
31BED
  8
0
 10
6792.1333014698002444
 20
161.5497733942173113
 30
0.0
 40
0.7128968467669184
 50
254.4858759095492928
 51
270.0985500049941948
  0
ARC
  5
31BEE
  8
0
 10
6791.9158442733150878
 20
161.2095078024127872
 30
0.0
 40
0.2961071352061379
 50
160.7739827255221883
 51
183.0826676877522061
  0
ARC
  5
31BEF
  8
0
 10
6791.8495333519022097
 20
161.2059366492345021
 30
0.0
 40
0.2297001217679569
 50
183.0826676877522061
 51
197.8253918611189022
  0
ARC
  5
31BF0
  8
0
 10
6791.9498286628950154
 20
161.2381869876072074
 30
0.0
 40
0.3350530226889665
 50
197.8253918611189022
 51
219.6738175264509039
  0
ARC
  5
31BF1
  8
0
 10
6792.0044113304511484
 20
161.2815401507862987
 30
0.0
 40
0.4047448891221157
 50
219.4646050223643954
 51
240.4630188499417045
  0
ARC
  5
31BF2
  8
0
 10
6792.1297908725246089
 20
161.5059671326229136
 30
0.0
 40
0.6618169069903935
 50
240.5975765708313929
 51
255.9377505981452998
  0
ARC
  5
31BF3
  8
0
 10
6792.1268834764932762
 20
161.4943599416426139
 30
0.0
 40
0.6498511293664957
 50
255.9377505981452998
 51
270.673985103764096
  0
LINE
  5
31BF4
  8
0
 10
6791.6172199454686051
 20
161.2300644841160988
 30
0.0
 11
6791.6197498296405684
 21
161.2122493249711965
 31
0.0
  0
ARC
  5
31BF5
  8
0
 10
6791.9289971119160327
 20
161.2420392859692981
 30
0.0
 40
0.3143609040967025
 50
185.5216732617977016
 51
192.4462450079543885
  0
LINE
  5
31BF6
  8
0
 10
6792.6345276675529021
 20
168.3908224423682896
 30
0.0
 11
6792.6345276675529021
 21
168.716706583691689
 31
0.0
  0
LINE
  5
31BF7
  8
0
 10
6792.6857086085528863
 20
161.2036396595185863
 30
0.0
 11
6792.6857086085528863
 21
167.8854814998753966
 31
0.0
  0
ARC
  5
31BF8
  8
0
 10
6792.1355323284151382
 20
167.5323008091575048
 30
0.0
 40
0.7429194658458274
 50
84.7589318731215684
 51
90.0774819482356151
  0
ARC
  5
31BF9
  8
0
 10
6792.1355323284151382
 20
167.5323008091575048
 30
0.0
 40
0.7429194658458274
 50
66.124928973768931
 51
84.604138003024616
  0
ARC
  5
31BFA
  8
0
 10
6792.2363866915557082
 20
167.7601592175319922
 30
0.0
 40
0.4937386944531556
 50
43.2555709043214733
 51
66.124928973768931
  0
ARC
  5
31BFB
  8
0
 10
6792.3546506102684361
 20
167.8714327605318033
 30
0.0
 40
0.3313559495558294
 50
2.4299392297314322
 51
43.2555355623044022
  0
ARC
  5
31BFC
  8
0
 10
6792.1345490909297951
 20
167.4421470526083908
 30
0.0
 40
0.7773935091808671
 50
84.7713187651817321
 51
90.0015789583719652
  0
LINE
  5
31BFD
  8
0
 10
6792.2053938092531098
 20
168.2163057533942094
 30
0.0
 11
6792.2053938092531098
 21
168.2719282195660924
 31
0.0
  0
LINE
  5
31BFE
  8
0
 10
6792.2033953329419091
 20
168.2164860372122916
 30
0.0
 11
6792.2033953329419091
 21
168.2721142622314119
 31
0.0
  0
ARC
  5
31BFF
  8
0
 10
6792.1352282696298062
 20
167.6185615414769075
 30
0.0
 40
0.6548988248185498
 50
83.8495530214222526
 51
84.0253791154337932
  0
ARC
  5
31C00
  8
0
 10
6792.1353481457863381
 20
167.5326616061890093
 30
0.0
 40
0.7174699995939803
 50
84.3969198826268325
 51
84.5577019873783655
  0
ARC
  5
31C01
  8
0
 10
6792.1358364940106185
 20
168.0486927739590897
 30
0.0
 40
0.6650896981880369
 50
68.1611355909230525
 51
90.1127521350231859
  0
ARC
  5
31C02
  8
0
 10
6792.203624851154018
 20
168.2178429141557103
 30
0.0
 40
0.4828617330103552
 50
47.3686370678030713
 51
68.1611355909230525
  0
ARC
  5
31C03
  8
0
 10
6792.2965669624591101
 20
168.31880572465451
 30
0.0
 40
0.3456330000233092
 50
32.0477369436148365
 51
47.3686370678030713
  0
LINE
  5
31C04
  8
0
 10
6792.5895276675528294
 20
168.5022074584942118
 30
0.0
 11
6792.5895276675528294
 21
168.2256240078941971
 31
0.0
  0
ARC
  5
31C05
  8
0
 10
6792.1674317201195663
 20
168.0240640863682984
 30
0.0
 40
0.4677514198859614
 50
3.0335979618694671
 51
25.5254819744190691
  0
ARC
  5
31C06
  8
0
 10
6792.1389527830096995
 20
168.1048950635671133
 30
0.0
 40
0.6481976925903732
 50
60.5597625860457001
 51
90.3911498215687175
  0
ARC
  5
31C07
  8
0
 10
6792.2687452071040752
 20
168.3348617418234028
 30
0.0
 40
0.3841318930994422
 50
34.0501202411406112
 51
60.5597625860457001
  0
ARC
  5
31C08
  8
0
 10
6792.352530243369074
 20
168.3932780854948987
 30
0.0
 40
0.2820075302161846
 50
13.1092895833373806
 51
33.7477985038720618
  0
ARC
  5
31C09
  8
0
 10
6792.3729752849376382
 20
168.3955348049254042
 30
0.0
 40
0.2615948302477497
 50
325.9451541286234146
 51
13.6435464295241999
  0
ARC
  5
31C0A
  8
0
 10
6792.365837801105954
 20
168.3783121475755138
 30
0.0
 40
0.2386892766230439
 50
339.7152602717607124
 51
20.3148166222778812
  0
ARC
  5
31C0B
  8
0
 10
6792.1345276675529021
 20
168.7611180563943094
 30
0.0
 40
0.5019685038999167
 50
57.0856134060656402
 51
90.0000000057321046
  0
ARC
  5
31C0C
  8
0
 10
6792.1345276675529021
 20
168.7611180563941957
 30
0.0
 40
0.5019685039000725
 50
21.3359061795989184
 51
57.0856134060656402
  0
ARC
  5
31C0D
  8
0
 10
6792.1345276675529021
 20
168.7611180563941957
 30
0.0
 40
0.5019685038998986
 50
354.92414082601681
 51
21.3359061795989184
  0
ARC
  5
31C0E
  8
0
 10
6792.139297278406957
 20
160.8816088027697049
 30
0.0
 40
0.7125014687693489
 50
59.5057056051003173
 51
90.3834855518449416
  0
ARC
  5
31C0F
  8
0
 10
6792.2959138584737957
 20
161.1488582629243069
 30
0.0
 40
0.4027430964355688
 50
26.9746629053905806
 51
59.4113711454311897
  0
ARC
  5
31C10
  8
0
 10
6792.4052886139452312
 20
161.2036396595185863
 30
0.0
 40
0.2804199946073145
 50
327.2127257038420112
 51
27.1361636880452011
  0
ARC
  5
31C11
  8
0
 10
6792.2626118087209761
 20
161.2940256544320903
 30
0.0
 40
0.4493142878568916
 50
300.4942631914884146
 51
327.3754693458237739
  0
ARC
  5
31C12
  8
0
 10
6792.1503227989169318
 20
161.4869981822201908
 30
0.0
 40
0.6725771558077004
 50
268.654314130401076
 51
300.3948379361393108
  0
ARC
  5
31C13
  8
0
 10
6792.1400186602168105
 20
160.9070050521874862
 30
0.0
 40
0.6648408563321294
 50
57.9283976638163267
 51
90.4732172958475758
  0
ARC
  5
31C14
  8
0
 10
6792.2995860454911963
 20
161.163021090118491
 30
0.0
 40
0.3631705022951479
 50
26.9773917624635402
 51
57.8141736359741287
  0
ARC
  5
31C15
  8
0
 10
6792.3826731555045626
 20
161.2043214116596914
 30
0.0
 40
0.2703904843157944
 50
337.3717956251794021
 51
27.1649856432246608
  0
ARC
  5
31C16
  8
0
 10
6792.318985020461696
 20
161.2296831953262881
 30
0.0
 40
0.338935672957436
 50
302.3747156810561023
 51
337.5568230490194992
  0
ARC
  5
31C17
  8
0
 10
6792.1040916118317909
 20
161.5712938428877976
 30
0.0
 40
0.7425147655564353
 50
287.4244863453077983
 51
302.2647148454055923
  0
ARC
  5
31C18
  8
0
 10
6792.1357538652036965
 20
161.5497733942173113
 30
0.0
 40
0.7128968467669184
 50
269.9014499950059189
 51
285.5141240904507072
  0
ARC
  5
31C19
  8
0
 10
6792.3532110616906721
 20
161.2095078024127872
 30
0.0
 40
0.2961071352061379
 50
356.9173323122477086
 51
19.2260172744778401
  0
ARC
  5
31C1A
  8
0
 10
6792.4195219831053691
 20
161.2059366492345021
 30
0.0
 40
0.2297001217679569
 50
342.1746081388794778
 51
356.9173323122477086
  0
ARC
  5
31C1B
  8
0
 10
6792.3192266721098349
 20
161.2381869876072074
 30
0.0
 40
0.3350530226889665
 50
320.3261824735491246
 51
342.1746081388811263
  0
ARC
  5
31C1C
  8
0
 10
6792.2646440045546115
 20
161.2815401507862987
 30
0.0
 40
0.4047448891221157
 50
299.5369811500582955
 51
320.5353949776355762
  0
ARC
  5
31C1D
  8
0
 10
6792.139264462481151
 20
161.5059671326229136
 30
0.0
 40
0.6618169069903935
 50
284.0622494018546718
 51
299.4024234291686071
  0
ARC
  5
31C1E
  8
0
 10
6792.1421718585143026
 20
161.4943599416426139
 30
0.0
 40
0.6498511293664957
 50
269.326014896235904
 51
284.0622494018546718
  0
LINE
  5
31C1F
  8
0
 10
6792.6518353895362452
 20
161.2300644841160988
 30
0.0
 11
6792.649305505364282
 21
161.2122493249711965
 31
0.0
  0
ARC
  5
31C20
  8
0
 10
6792.3400582230888176
 20
161.2420392859692981
 30
0.0
 40
0.3143609040967025
 50
347.5537549920455831
 51
354.4783267382023269
  0
ARC
  5
31C21
  8
0
 10
6798.0400394784519449
 20
168.7611180563941957
 30
0.0
 40
1.279527559099999
 50
274.4073782510187129
 51
265.5926217489812871
  0
ARC
  5
31C22
  8
0
 10
6798.0400394785037861
 20
168.7611180563941957
 30
0.0
 40
0.9445425037862893
 50
279.0245145589149729
 51
260.975485435439623
  0
CIRCLE
  5
31C23
  8
0
 10
6798.0400394784519449
 20
168.7611180563941957
 30
0.0
 40
0.9078180568000004
  0
LINE
  5
31C24
  8
0
 10
6797.9417110832200706
 20
167.0878897098941991
 30
0.0
 11
6797.9417110832200706
 21
167.7698993238406047
 31
0.0
  0
ARC
  5
31C25
  8
0
 10
6798.0400394784519449
 20
167.0878897098941991
 30
0.0
 40
0.0983283952324237
 50
180.0
 51
270.0000000291295805
  0
ARC
  5
31C26
  8
0
 10
6797.8826110832196719
 20
167.7698993238406047
 30
0.0
 40
0.0591
 50
359.9999999999789111
 51
80.9754854354923026
  0
LINE
  5
31C27
  8
0
 10
6798.1383678736856382
 20
167.0878897098941991
 30
0.0
 11
6798.1383678736856382
 21
167.7698993238406047
 31
0.0
  0
ARC
  5
31C28
  8
0
 10
6798.0400394784519449
 20
167.0878897098941991
 30
0.0
 40
0.0983283952324237
 50
269.9999999708704195
 51
0.0
  0
ARC
  5
31C29
  8
0
 10
6798.1974678736842179
 20
167.7698993238406047
 30
0.0
 40
0.0591
 50
99.0245145645076832
 51
180.0000000000212026
  0
LINE
  5
31C2A
  8
0
 10
6803.5124804233528266
 20
169.1154487646942073
 30
0.0
 11
6803.5124804233528266
 21
161.3201731744941867
 31
0.0
  0
ARC
  5
31C2B
  8
0
 10
6803.9455512895028733
 20
168.7611180563941957
 30
0.0
 40
1.279527559049999
 50
289.7831703731367838
 51
250.2168296268631877
  0
ARC
  5
31C2C
  8
0
 10
6803.9455512895528955
 20
169.1154487646942073
 30
0.0
 40
0.4330708662000001
 50
0.0
 51
180.0
  0
ARC
  5
31C2D
  8
0
 10
6803.9455512895528955
 20
161.3201731744941867
 30
0.0
 40
0.4330708661999998
 50
180.0
 51
0.0
  0
LINE
  5
31C2E
  8
0
 10
6804.3786221556529199
 20
169.1154487646942073
 30
0.0
 11
6804.3786221556529199
 21
161.3201731744941867
 31
0.0
  0
CIRCLE
  5
31C2F
  8
0
 10
6809.8510631005019604
 20
168.7611180563941957
 30
0.0
 40
1.574803149549999
  0
CIRCLE
  5
31C30
  8
0
 10
6809.8510631005019604
 20
168.7611180563941957
 30
0.0
 40
1.541203067155293
  0
ENDSEC
  0
EOF
