  0
SECTION
  2
HEADER
  9
$ACADVER
  1
AC1009
  9
$INSBASE
 10
8903.2776476144244953
 20
2536.0615810651920583
 30
0.0
  9
$EXTMIN
 10
8897.06691992735432
 20
2509.9157857918057744
 30
-0.0000000349181948
  9
$EXTMAX
 10
8909.9822917261717521
 20
2546.6360220477290568
 30
0.0000000814935746
  9
$LIMMIN
 10
0.0
 20
0.0
  9
$LIMMAX
 10
11.6929133858000007
 20
8.2677165353999982
  9
$ORTHOMODE
 70
     0
  9
$REGENMODE
 70
     1
  9
$FILLMODE
 70
     1
  9
$QTEXTMODE
 70
     0
  9
$MIRRTEXT
 70
     0
  9
$DRAGMODE
 70
     2
  9
$LTSCALE
 40
0.6431102362
  9
$OSMODE
 70
  4095
  9
$ATTMODE
 70
     1
  9
$TEXTSIZE
 40
0.2
  9
$TRACEWID
 40
0.05
  9
$TEXTSTYLE
  7
STANDARD
  9
$CLAYER
  8
0
  9
$CELTYPE
  6
BYLAYER
  9
$CECOLOR
 62
   256
  9
$DIMSCALE
 40
1.0
  9
$DIMASZ
 40
0.1875
  9
$DIMEXO
 40
0.0625
  9
$DIMDLI
 40
0.4443307087
  9
$DIMRND
 40
0.0
  9
$DIMDLE
 40
0.0
  9
$DIMEXE
 40
0.125
  9
$DIMTP
 40
0.01
  9
$DIMTM
 40
0.01
  9
$DIMTXT
 40
2.0
  9
$DIMCEN
 40
0.1052362205
  9
$DIMTSZ
 40
0.0
  9
$DIMTOL
 70
     1
  9
$DIMLIM
 70
     0
  9
$DIMTIH
 70
     1
  9
$DIMTOH
 70
     1
  9
$DIMSE1
 70
     0
  9
$DIMSE2
 70
     0
  9
$DIMTAD
 70
     0
  9
$DIMZIN
 70
     0
  9
$DIMBLK
  1

  9
$DIMASO
 70
     1
  9
$DIMSHO
 70
     1
  9
$DIMPOST
  1
\X
  9
$DIMAPOST
  1

  9
$DIMALT
 70
     1
  9
$DIMALTD
 70
     2
  9
$DIMALTF
 40
25.3999999999999986
  9
$DIMLFAC
 40
1.0
  9
$DIMTOFL
 70
     0
  9
$DIMTVP
 40
0.0
  9
$DIMTIX
 70
     0
  9
$DIMSOXD
 70
     0
  9
$DIMSAH
 70
     0
  9
$DIMBLK1
  1

  9
$DIMBLK2
  1

  9
$DIMSTYLE
  2
STANDARD
  9
$DIMCLRD
 70
     0
  9
$DIMCLRE
 70
     0
  9
$DIMCLRT
 70
     0
  9
$DIMTFAC
 40
1.0
  9
$DIMGAP
 40
0.09
  9
$LUNITS
 70
     2
  9
$LUPREC
 70
     4
  9
$SKETCHINC
 40
0.1
  9
$FILLETRAD
 40
0.0
  9
$AUNITS
 70
     0
  9
$AUPREC
 70
     0
  9
$MENU
  1
.
  9
$ELEVATION
 40
0.0
  9
$PELEVATION
 40
0.0
  9
$THICKNESS
 40
0.0
  9
$LIMCHECK
 70
     0
  9
$BLIPMODE
 70
     0
  9
$CHAMFERA
 40
0.0
  9
$CHAMFERB
 40
0.0
  9
$SKPOLY
 70
     0
  9
$TDCREATE
 40
2458060.468368056230247
  9
$TDUPDATE
 40
2460584.343888889066875
  9
$TDINDWG
 40
0.4904584491
  9
$TDUSRTIMER
 40
0.4904584491
  9
$USRTIMER
 70
     1
  9
$ANGBASE
 50
0.0
  9
$ANGDIR
 70
     0
  9
$PDMODE
 70
     0
  9
$PDSIZE
 40
0.3125
  9
$PLINEWID
 40
0.0
  9
$COORDS
 70
     2
  9
$SPLFRAME
 70
     0
  9
$SPLINETYPE
 70
     6
  9
$SPLINESEGS
 70
     8
  9
$ATTDIA
 70
     1
  9
$ATTREQ
 70
     1
  9
$HANDLING
 70
     1
  9
$HANDSEED
  5
18BD8
  9
$SURFTAB1
 70
     6
  9
$SURFTAB2
 70
     6
  9
$SURFTYPE
 70
     6
  9
$SURFU
 70
     6
  9
$SURFV
 70
     6
  9
$UCSNAME
  2

  9
$UCSORG
 10
0.0
 20
0.0
 30
0.0
  9
$UCSXDIR
 10
1.0
 20
0.0
 30
0.0
  9
$UCSYDIR
 10
0.0
 20
1.0
 30
0.0
  9
$PUCSNAME
  2

  9
$PUCSORG
 10
0.0
 20
0.0
 30
0.0
  9
$PUCSXDIR
 10
1.0
 20
0.0
 30
0.0
  9
$PUCSYDIR
 10
0.0
 20
1.0
 30
0.0
  9
$USERI1
 70
     0
  9
$USERI2
 70
     0
  9
$USERI3
 70
     0
  9
$USERI4
 70
     0
  9
$USERI5
 70
     0
  9
$USERR1
 40
0.0
  9
$USERR2
 40
0.0
  9
$USERR3
 40
0.0
  9
$USERR4
 40
0.0
  9
$USERR5
 40
0.0
  9
$WORLDVIEW
 70
     1
  9
$SHADEDGE
 70
     3
  9
$SHADEDIF
 70
    70
  9
$TILEMODE
 70
     1
  9
$MAXACTVP
 70
    64
  9
$PLIMCHECK
 70
     0
  9
$PEXTMIN
 10
1.0000000000000000E+20
 20
1.0000000000000000E+20
 30
1.0000000000000000E+20
  9
$PEXTMAX
 10
-1.0000000000000000E+20
 20
-1.0000000000000000E+20
 30
-1.0000000000000000E+20
  9
$PLIMMIN
 10
0.0
 20
0.0
  9
$PLIMMAX
 10
12.0
 20
9.0
  9
$UNITMODE
 70
     0
  9
$VISRETAIN
 70
     1
  9
$PLINEGEN
 70
     0
  9
$PSLTSCALE
 70
     1
  0
ENDSEC
  0
SECTION
  2
TABLES
  0
TABLE
  2
VPORT
 70
     1
  0
VPORT
  2
*ACTIVE
 70
     0
 10
0.0
 20
0.0
 11
1.0
 21
1.0
 12
4088.2262659830121265
 22
2280.4672796521899727
 13
0.0
 23
0.0
 14
1.0
 24
1.0
 15
0.0
 25
0.0
 16
0.0
 26
0.0
 36
9.5192988075487186
 17
4815.2983398437490905
 27
247.8086242675780966
 37
0.0
 40
36.9806634634114815
 41
2.244970414201183
 42
50.0
 43
0.0
 44
0.0
 50
0.0
 51
0.0
 71
     0
 72
   100
 73
     1
 74
     1
 75
     0
 76
     0
 77
     0
 78
     0
  0
ENDTAB
  0
TABLE
  2
LTYPE
 70
     2
  0
LTYPE
  2
CONTINUOUS
 70
     0
  3
Solid line
 72
    65
 73
     0
 40
0.0
  0
LTYPE
  2
PHANTOM2
 70
     0
  3
___ _ _ ___ _ _ ___ _ _ ___ _ _
 72
    65
 73
     6
 40
1.25
 49
0.625
 49
-0.125
 49
0.125
 49
-0.125
 49
0.125
 49
-0.125
  0
ENDTAB
  0
TABLE
  2
LAYER
 70
     2
  0
LAYER
  2
0
 70
     0
 62
   255
  6
CONTINUOUS
  0
LAYER
  2
DEFPOINTS
 70
     0
 62
     7
  6
CONTINUOUS
  0
ENDTAB
  0
TABLE
  2
STYLE
 70
     1
  0
STYLE
  2
STANDARD
 70
     0
 40
0.0
 41
0.8
 50
0.0
 71
     0
 42
0.2
  3
txt
  4

  0
ENDTAB
  0
TABLE
  2
VIEW
 70
     0
  0
ENDTAB
  0
TABLE
  2
UCS
 70
     0
  0
ENDTAB
  0
TABLE
  2
APPID
 70
    10
  0
APPID
  2
ACAD
 70
     0
  0
APPID
  2
ACAD_MLEADERVER
 70
     0
  0
APPID
  2
ACAD_EXEMPT_FROM_CAD_STANDARDS
 70
     0
  0
APPID
  2
ACAD_NAV_VCDISPLAY
 70
     0
  0
APPID
  2
ACAECLAYERSTANDARD
 70
     0
  0
APPID
  2
ACCMTRANSPARENCY
 70
     0
  0
APPID
  2
ACAD_DSTYLE_DIMJAG
 70
     0
  0
APPID
  2
ACAD_DSTYLE_DIMTALN
 70
     0
  0
APPID
  2
ACDBATTR
 70
     0
  0
APPID
  2
ACADANNOTATIVE
 70
     0
  0
ENDTAB
  0
TABLE
  2
DIMSTYLE
 70
     2
  0
DIMSTYLE
  2
STANDARD
 70
     0
  3

  4

  5

  6

  7

 40
1.0
 41
0.1875
 42
0.0625
 43
0.38
 44
0.125
 45
0.0
 46
0.0
 47
0.01
 48
0.01
140
0.15625
141
0.09
142
0.0
143
25.3999999999999986
144
1.0
145
0.0
146
1.0
147
0.09
 71
     1
 72
     0
 73
     1
 74
     1
 75
     0
 76
     0
 77
     0
 78
     4
170
     0
171
     2
172
     0
173
     0
174
     0
175
     0
176
     0
177
     0
178
     0
  0
DIMSTYLE
  2
ANNOTATIVE
 70
     0
  3

  4

  5

  6

  7

 40
0.0
 41
0.18
 42
0.0625
 43
0.38
 44
0.18
 45
0.0
 46
0.0
 47
0.0
 48
0.0
140
0.18
141
0.09
142
0.0
143
25.3999999999999986
144
1.0
145
0.0
146
1.0
147
0.09
 71
     0
 72
     0
 73
     1
 74
     1
 75
     0
 76
     0
 77
     0
 78
     0
170
     0
171
     2
172
     0
173
     0
174
     0
175
     0
176
     0
177
     0
178
     0
  0
ENDTAB
  0
ENDSEC
  0
SECTION
  2
BLOCKS
  0
BLOCK
  8
0
  2
$MODEL_SPACE
 70
     0
 10
0.0
 20
0.0
 30
0.0
  3
$MODEL_SPACE
  1

  0
ENDBLK
  5
21
  8
0
  0
BLOCK
 67
     1
  8
0
  2
$PAPER_SPACE
 70
     0
 10
0.0
 20
0.0
 30
0.0
  3
$PAPER_SPACE
  1

  0
ENDBLK
  5
1D
 67
     1
  8
0
  0
BLOCK
  8
0
  2
_FILLED
 70
     0
 10
0.0
 20
0.0
 30
0.0
  3
_FILLED
  1

  0
SOLID
  5
D8EA
  8
0
  6
BYBLOCK
 62
     0
 10
0.0
 20
0.0
 30
0.0
 11
-1.0
 21
0.1666666667
 31
0.0
 12
-1.0
 22
-0.1666666667
 32
0.0
 13
-1.0
 23
-0.1666666667
 33
0.0
  0
ENDBLK
  5
D8EB
  8
0
  6
BYBLOCK
 62
     0
  0
ENDSEC
  0
SECTION
  2
ENTITIES
  0
ATTDEF
  5
3930
  8
DEFPOINTS
 10
8903.2782654619022651
 20
2536.0597591448818093
 30
0.0
 40
0.001
  1
K-EX36241T-4BLPT
  3

  2
MODELNUMBER
 70
     0
1001
ACDBATTR
1070
     0
1070
     1
  0
ATTDEF
  5
3931
  8
DEFPOINTS
 10
8903.2782654619022651
 20
2536.0580924782161674
 30
0.0
 40
0.001
  1
ORIANA
  3

  2
TRADENAME
 70
     0
1001
ACDBATTR
1070
     0
1070
     1
  0
ATTDEF
  5
3932
  8
DEFPOINTS
 10
8903.2782654619022651
 20
2536.0564258115491612
 30
0.0
 40
0.001
  1
BATH FAUCET
  3

  2
PRODUCT
 70
     0
1001
ACDBATTR
1070
     0
1070
     1
  0
LINE
  5
185ED
  8
0
 10
8903.6910184805747122
 20
2536.6226046871929611
 30
0.0
 11
8902.8642767482742784
 21
2536.6226046871929611
 31
0.0
  0
LINE
  5
185EE
  8
0
 10
8903.6910184805747122
 20
2535.5005574431929745
 30
0.0
 11
8902.8642767482742784
 21
2535.5005574431929745
 31
0.0
  0
LINE
  5
185EF
  8
0
 10
8902.8445767482753581
 20
2536.6029046871931314
 30
0.0
 11
8902.8445767482753581
 21
2535.5202574431928042
 31
0.0
  0
LINE
  5
185F0
  8
0
 10
8903.7107184805754514
 20
2536.6029046871931314
 30
0.0
 11
8903.7107184805754514
 21
2535.5202574431928042
 31
0.0
  0
ARC
  5
185F1
  8
0
 10
8902.8642767482742784
 20
2536.6029046871931314
 30
0.0
 40
0.0197
 50
90.0
 51
180.0
  0
ARC
  5
185F2
  8
0
 10
8903.6910184805747122
 20
2536.6029046871931314
 30
0.0
 40
0.0197
 50
0.0
 51
90.0
  0
ARC
  5
185F3
  8
0
 10
8903.6910184805747122
 20
2535.5202574431928042
 30
0.0
 40
0.0197
 50
270.0
 51
0.0
  0
ARC
  5
185F4
  8
0
 10
8902.8642767482742784
 20
2535.5202574431928042
 30
0.0
 40
0.0197
 50
180.0
 51
270.0
  0
LINE
  5
185F5
  8
0
 10
8907.8995116213754955
 20
2533.4703946971831101
 30
0.0
 11
8907.8995116213754955
 21
2534.7573832355510604
 31
0.0
  0
ARC
  5
185F6
  8
0
 10
8908.0020570632768795
 20
2533.4703946971831101
 30
0.0
 40
0.1025454419000003
 50
180.0
 51
0.0
  0
LINE
  5
185F7
  8
0
 10
8908.1046025051746255
 20
2533.4703946971831101
 30
0.0
 11
8908.1046025051746255
 21
2534.7573832355510604
 31
0.0
  0
CIRCLE
  5
185F8
  8
0
 10
8903.2776476144244953
 20
2536.0615810651920583
 30
0.0
 40
1.2795275589999979
  0
LINE
  5
185F9
  8
0
 10
8899.0158365907755069
 20
2535.0182739785927879
 30
0.0
 11
8898.8386712364754203
 21
2535.0182739785927879
 31
0.0
  0
LINE
  5
185FA
  8
0
 10
8898.2678050947724842
 20
2535.0182739785927879
 30
0.0
 11
8898.0906397404723975
 21
2535.0182739785927879
 31
0.0
  0
LINE
  5
185FB
  8
0
 10
8899.0059940710743831
 20
2534.9592188604929106
 30
0.0
 11
8898.8386712364754203
 21
2534.9592188604929106
 31
0.0
  0
LINE
  5
185FC
  8
0
 10
8898.2678050947724842
 20
2534.9592188604929106
 30
0.0
 11
8898.1004822601753403
 21
2534.9592188604929106
 31
0.0
  0
LINE
  5
185FD
  8
0
 10
8898.9469389529731416
 20
2533.5418960257929939
 30
0.0
 11
8898.8386712364754203
 21
2533.5418960257929939
 31
0.0
  0
LINE
  5
185FE
  8
0
 10
8898.2678050947724842
 20
2533.5418960257929939
 30
0.0
 11
8898.1595373782747629
 21
2533.5418960257929939
 31
0.0
  0
LINE
  5
185FF
  8
0
 10
8899.0059940710743831
 20
2536.9670928761929645
 30
0.0
 11
8898.1004822601753403
 21
2536.9670928761929645
 31
0.0
  0
LINE
  5
18600
  8
0
 10
8899.1044192679764819
 20
2537.0064629548928679
 30
0.0
 11
8898.0020570632732415
 21
2537.0064629548928679
 31
0.0
  0
LINE
  5
18601
  8
0
 10
8899.1044192679764819
 20
2546.4552818525930888
 30
0.0
 11
8898.0020570632732415
 21
2546.4552818525930888
 31
0.0
  0
LINE
  5
18602
  8
0
 10
8898.0020570632732415
 20
2546.4552818525930888
 30
0.0
 11
8898.0020570632732415
 21
2537.0064629548928679
 31
0.0
  0
LINE
  5
18603
  8
0
 10
8899.1044192679764819
 20
2546.4552818525930888
 30
0.0
 11
8899.1044192679764819
 21
2537.0064629548928679
 31
0.0
  0
LINE
  5
18604
  8
0
 10
8898.1004822601753403
 20
2536.9670928761929645
 30
0.0
 11
8898.1065071237535449
 21
2536.8265127258491702
 31
0.0
  0
LINE
  5
18605
  8
0
 10
8898.1910334412750672
 20
2537.0064629548928679
 30
0.0
 11
8898.1910334412750672
 21
2536.9670928761929645
 31
0.0
  0
ARC
  5
18606
  8
0
 10
8898.5532381656248617
 20
2536.0615810651920583
 30
0.0
 40
0.8976377952499991
 50
119.8882519990713007
 51
238.4097924420842105
  0
ARC
  5
18607
  8
0
 10
8898.5532381656248617
 20
2536.0615810651920583
 30
0.0
 40
0.8858267715789772
 50
114.8648375676929021
 51
251.2026311750977925
  0
LINE
  5
18608
  8
0
 10
8897.943001945173819
 20
2536.6951760121278312
 30
0.0
 11
8897.943001945173819
 21
2535.4592338210932212
 31
0.0
  0
ARC
  5
18609
  8
0
 10
8897.9627019451727392
 20
2535.4592338210932212
 30
0.0
 40
0.0197
 50
180.0
 51
270.0
  0
LINE
  5
1860A
  8
0
 10
8898.2087499766748806
 20
2536.8474198193121083
 30
0.0
 11
8898.2087499766748806
 21
2535.4592338210932212
 31
0.0
  0
ARC
  5
1860B
  8
0
 10
8898.1890499766741414
 20
2536.8474198193121083
 30
0.0
 40
0.0197
 50
0.0
 51
114.8648375677874043
  0
ARC
  5
1860C
  8
0
 10
8897.9627019451727392
 20
2536.6951760121278312
 30
0.0
 40
0.0197
 50
132.9854556178420069
 51
180.0
  0
ARC
  5
1860D
  8
0
 10
8897.9233019451748987
 20
2536.6560185662060576
 30
0.0
 40
0.0197
 50
0.0
 51
136.6607324518195128
  0
LINE
  5
1860E
  8
0
 10
8897.9369712968637032
 20
2536.6702044332719197
 30
0.0
 11
8897.943001945173819
 21
2536.6762634663878089
 31
0.0
  0
ARC
  5
1860F
  8
0
 10
8897.9233019451748987
 20
2535.467143564179878
 30
0.0
 40
0.0197
 50
223.3392675481804019
 51
0.0
  0
LINE
  5
18610
  8
0
 10
8897.9627019451727392
 20
2535.4395338210920272
 30
0.0
 11
8898.2678050947724842
 21
2535.4395338210920272
 31
0.0
  0
ARC
  5
18611
  8
0
 10
8898.1890499766741414
 20
2535.4592338210932212
 30
0.0
 40
0.0197
 50
270.0
 51
0.0
  0
LINE
  5
18612
  8
0
 10
8898.2678050947724842
 20
2535.5891401202929956
 30
0.0
 11
8898.2678050947724842
 21
2510.2938645297431322
 31
0.0
  0
LINE
  5
18613
  8
0
 10
8898.2087499766748806
 20
2535.5891401202929956
 30
0.0
 11
8898.8977263545748428
 21
2535.5891401202929956
 31
0.0
  0
LINE
  5
18614
  8
0
 10
8898.0906397404723975
 20
2535.2631063661378903
 30
0.0
 11
8898.0906397404723975
 21
2535.0182739785927879
 31
0.0
  0
ARC
  5
18615
  8
0
 10
8898.011639740474493
 20
2535.2631063661378903
 30
0.0
 40
0.079
 50
0.0
 51
55.8512975160975671
  0
LINE
  5
18616
  8
0
 10
8898.1004822601753403
 20
2534.9592188604929106
 30
0.0
 11
8898.1595373782747629
 21
2533.5418960257929939
 31
0.0
  0
LINE
  5
18617
  8
0
 10
8898.1890649372744519
 20
2535.0182739785927879
 30
0.0
 11
8898.1890649372744519
 21
2534.9592188604929106
 31
0.0
  0
LINE
  5
18618
  8
0
 10
8899.0059940710743831
 20
2536.9670928761929645
 30
0.0
 11
8898.9999692074998165
 21
2536.8265127258491702
 31
0.0
  0
LINE
  5
18619
  8
0
 10
8898.9154428899746563
 20
2537.0064629548928679
 30
0.0
 11
8898.9154428899746563
 21
2536.9670928761929645
 31
0.0
  0
ARC
  5
1861A
  8
0
 10
8898.5532381656248617
 20
2536.0615810651920583
 30
0.0
 40
0.8976377952499991
 50
301.5902075579157895
 51
60.1117480009287277
  0
ARC
  5
1861B
  8
0
 10
8898.5532381656248617
 20
2536.0615810651920583
 30
0.0
 40
0.8858267715789772
 50
288.7973688249023212
 51
65.1351624323071121
  0
LINE
  5
1861C
  8
0
 10
8899.1634743860759045
 20
2536.6951760121278312
 30
0.0
 11
8899.1634743860759045
 21
2535.4592338210932212
 31
0.0
  0
ARC
  5
1861D
  8
0
 10
8899.1437743860751652
 20
2535.4592338210932212
 30
0.0
 40
0.0197
 50
270.0
 51
0.0
  0
LINE
  5
1861E
  8
0
 10
8898.8977263545748428
 20
2536.8474198193121083
 30
0.0
 11
8898.8977263545748428
 21
2535.4592338210932212
 31
0.0
  0
ARC
  5
1861F
  8
0
 10
8898.9174263545774011
 20
2536.8474198193121083
 30
0.0
 40
0.0197
 50
65.1351624322125531
 51
180.0
  0
ARC
  5
18620
  8
0
 10
8899.1437743860751652
 20
2536.6951760121278312
 30
0.0
 40
0.0197
 50
0.0
 51
47.0145443821579434
  0
ARC
  5
18621
  8
0
 10
8899.1831743860748247
 20
2536.6560185662060576
 30
0.0
 40
0.0197
 50
43.339267548180473
 51
180.0
  0
LINE
  5
18622
  8
0
 10
8899.1695050343860203
 20
2536.6702044332719197
 30
0.0
 11
8899.1634743860759045
 21
2536.6762634663878089
 31
0.0
  0
ARC
  5
18623
  8
0
 10
8899.1831743860748247
 20
2535.467143564179878
 30
0.0
 40
0.0197
 50
180.0
 51
316.6607324518195128
  0
LINE
  5
18624
  8
0
 10
8899.1437743860751652
 20
2535.4395338210920272
 30
0.0
 11
8898.8386712364754203
 21
2535.4395338210920272
 31
0.0
  0
ARC
  5
18625
  8
0
 10
8898.9174263545774011
 20
2535.4592338210932212
 30
0.0
 40
0.0197
 50
180.0
 51
270.0
  0
LINE
  5
18626
  8
0
 10
8899.0158365907755069
 20
2535.2631063661378903
 30
0.0
 11
8899.0158365907755069
 21
2535.0182739785927879
 31
0.0
  0
ARC
  5
18627
  8
0
 10
8899.0948365907752304
 20
2535.2631063661378903
 30
0.0
 40
0.079
 50
124.1487024839023974
 51
180.0
  0
LINE
  5
18628
  8
0
 10
8899.0059940710743831
 20
2534.9592188604929106
 30
0.0
 11
8898.9469389529731416
 21
2533.5418960257929939
 31
0.0
  0
LINE
  5
18629
  8
0
 10
8898.9174113939752715
 20
2535.0182739785927879
 30
0.0
 11
8898.9174113939752715
 21
2534.9592188604929106
 31
0.0
  0
LINE
  5
1862A
  8
0
 10
8898.8386712364754203
 20
2535.5891401202929956
 30
0.0
 11
8898.8386712364754203
 21
2510.2938645297431322
 31
0.0
  0
ARC
  5
1862B
  8
0
 10
8898.5532381656248617
 20
2510.2938645297431322
 30
0.0
 40
0.2854330708500043
 50
180.0
 51
0.0
  0
ARC
  5
1862C
  8
0
 10
8898.5532381656248617
 20
2536.0615810651920583
 30
0.0
 40
1.279527559049999
 50
115.5163873657333937
 51
249.4684180012561967
  0
ARC
  5
1862D
  8
0
 10
8898.5532381656248617
 20
2536.0615810651920583
 30
0.0
 40
1.279527559049999
 50
290.531581998743718
 51
64.4836126342665779
  0
CIRCLE
  5
1862E
  8
0
 10
8898.3288283497749944
 20
2546.1344158584929573
 30
0.0
 40
0.0393689839999993
  0
ARC
  5
1862F
  8
0
 10
8898.3288283497749944
 20
2546.1344158584929573
 30
0.0
 40
0.0787400099008511
 50
0.0
 51
270.0
  0
LINE
  5
18630
  8
0
 10
8898.3288283497749944
 20
2546.0556758485918181
 30
0.0
 11
8898.383568359673518
 21
2546.0556758485918181
 31
0.0
  0
ARC
  5
18631
  8
0
 10
8898.383568359673518
 20
2546.07967584859216
 30
0.0
 40
0.024
 50
270.0
 51
0.0
  0
LINE
  5
18632
  8
0
 10
8898.4075683596747695
 20
2546.1344158584929573
 30
0.0
 11
8898.4075683596747695
 21
2546.07967584859216
 31
0.0
  0
CIRCLE
  5
18633
  8
0
 10
8898.3288283497749944
 20
2545.6855968771928929
 30
0.0
 40
0.0393689839999993
  0
ARC
  5
18634
  8
0
 10
8898.3288283497749944
 20
2545.6855968771928929
 30
0.0
 40
0.0787400099008511
 50
90.0
 51
0.0
  0
LINE
  5
18635
  8
0
 10
8898.3288283497749944
 20
2545.7643368870940321
 30
0.0
 11
8898.383568359673518
 21
2545.7643368870940321
 31
0.0
  0
ARC
  5
18636
  8
0
 10
8898.383568359673518
 20
2545.7403368870941449
 30
0.0
 40
0.024
 50
0.0
 51
90.0
  0
LINE
  5
18637
  8
0
 10
8898.4075683596747695
 20
2545.6855968771928929
 30
0.0
 11
8898.4075683596747695
 21
2545.7403368870941449
 31
0.0
  0
CIRCLE
  5
18638
  8
0
 10
8898.4231992792356323
 20
2545.4282743120361374
 30
0.0
 40
0.0210314967061509
  0
CIRCLE
  5
18639
  8
0
 10
8898.4231992792356323
 20
2545.4282743120361374
 30
0.0
 40
0.0406031598599277
  0
CIRCLE
  5
1863A
  8
0
 10
8898.4280469887235085
 20
2545.4206231583998488
 30
0.0
 40
0.0553527108374539
  0
CIRCLE
  5
1863B
  8
0
 10
8898.4280469887235085
 20
2545.4206231583998488
 30
0.0
 40
0.0641862490288077
  0
CIRCLE
  5
1863C
  8
0
 10
8898.295425723763401
 20
2545.3013976060310597
 30
0.0
 40
0.0219145891738826
  0
CIRCLE
  5
1863D
  8
0
 10
8898.295425723763401
 20
2545.3013976060310597
 30
0.0
 40
0.0414944488494512
  0
CIRCLE
  5
1863E
  8
0
 10
8898.3012696616751782
 20
2545.2958330336928157
 30
0.0
 40
0.0629921260000011
  0
ARC
  5
1863F
  8
0
 10
8898.3068039433183003
 20
2545.2999499637808185
 30
0.0
 40
0.050648153078046
 50
90.3991989013307915
 51
139.8023224210417084
  0
ARC
  5
18640
  8
0
 10
8898.306424408161547
 20
2545.3009590953702173
 30
0.0
 40
0.0496377993252191
 50
52.1878104211458478
 51
89.9692323317856619
  0
ARC
  5
18641
  8
0
 10
8898.3024368151145609
 20
2545.2963103981569475
 30
0.0
 40
0.0557558873487792
 50
4.1927411460565311
 51
51.8792193311250216
  0
ARC
  5
18642
  8
0
 10
8898.2984924507618416
 20
2545.2958943936891956
 30
0.0
 40
0.0597202444449841
 50
307.6358712952483074
 51
4.3141166256830568
  0
ARC
  5
18643
  8
0
 10
8898.3036252658348531
 20
2545.2892379225049808
 30
0.0
 40
0.0513146273217282
 50
242.196341961206798
 51
307.6358712952483074
  0
ARC
  5
18644
  8
0
 10
8898.3052401829663722
 20
2545.2890039550411529
 30
0.0
 40
0.0518837271514924
 50
198.1046178726365099
 51
240.4980940796112918
  0
ARC
  5
18645
  8
0
 10
8898.313450707377342
 20
2545.2921487712328599
 30
0.0
 40
0.0606665941341913
 50
168.3058635101644995
 51
198.5179761623138859
  0
CIRCLE
  5
18646
  8
0
 10
8898.4234262897498411
 20
2545.1751427136600796
 30
0.0
 40
0.0210314967061509
  0
CIRCLE
  5
18647
  8
0
 10
8898.4234262897498411
 20
2545.1751427136600796
 30
0.0
 40
0.0406031598599277
  0
CIRCLE
  5
18648
  8
0
 10
8898.4282739992340794
 20
2545.1674915600228815
 30
0.0
 40
0.0553527108374539
  0
CIRCLE
  5
18649
  8
0
 10
8898.4282739992340794
 20
2545.1674915600228815
 30
0.0
 40
0.0641862490288077
  0
CIRCLE
  5
1864A
  8
0
 10
8898.2956527342776099
 20
2545.0482660076540924
 30
0.0
 40
0.0219145891738826
  0
CIRCLE
  5
1864B
  8
0
 10
8898.2956527342776099
 20
2545.0482660076540924
 30
0.0
 40
0.0414944488494512
  0
CIRCLE
  5
1864C
  8
0
 10
8898.301496672187568
 20
2545.0427014353158484
 30
0.0
 40
0.0629921260000011
  0
ARC
  5
1864D
  8
0
 10
8898.3070309538306901
 20
2545.0468183654052154
 30
0.0
 40
0.050648153078046
 50
90.3991989013307915
 51
139.8023224210417084
  0
ARC
  5
1864E
  8
0
 10
8898.3066514186757558
 20
2545.0478274969941594
 30
0.0
 40
0.0496377993252191
 50
52.1878104211458478
 51
89.9692323317856619
  0
ARC
  5
1864F
  8
0
 10
8898.3026638256287697
 20
2545.0431787997799802
 30
0.0
 40
0.0557558873487792
 50
4.1927411460565311
 51
51.8792193311250216
  0
ARC
  5
18650
  8
0
 10
8898.2987194612724124
 20
2545.0427627953140473
 30
0.0
 40
0.0597202444449841
 50
307.6358712952483074
 51
4.3141166256830568
  0
ARC
  5
18651
  8
0
 10
8898.3038522763472429
 20
2545.036106324128923
 30
0.0
 40
0.0513146273217282
 50
242.196341961206798
 51
307.6358712952483074
  0
ARC
  5
18652
  8
0
 10
8898.3054671934787621
 20
2545.0358723566641856
 30
0.0
 40
0.0518837271514924
 50
198.1046178726365099
 51
240.4980940796112918
  0
ARC
  5
18653
  8
0
 10
8898.3136777178897319
 20
2545.0390171728568021
 30
0.0
 40
0.0606665941341913
 50
168.3058635101644995
 51
198.5179761623138859
  0
CIRCLE
  5
18654
  8
0
 10
8898.4234082066941482
 20
2544.9220157388431289
 30
0.0
 40
0.0210314967061509
  0
CIRCLE
  5
18655
  8
0
 10
8898.4234082066941482
 20
2544.9220157388431289
 30
0.0
 40
0.0406031598599277
  0
CIRCLE
  5
18656
  8
0
 10
8898.4282559161783865
 20
2544.9143645852068403
 30
0.0
 40
0.0553527108374539
  0
CIRCLE
  5
18657
  8
0
 10
8898.4282559161783865
 20
2544.9143645852068403
 30
0.0
 40
0.0641862490288077
  0
CIRCLE
  5
18658
  8
0
 10
8898.295634651223736
 20
2544.7951390328380512
 30
0.0
 40
0.0219145891738826
  0
CIRCLE
  5
18659
  8
0
 10
8898.295634651223736
 20
2544.7951390328380512
 30
0.0
 40
0.0414944488494512
  0
CIRCLE
  5
1865A
  8
0
 10
8898.3014785891336942
 20
2544.7895744604998072
 30
0.0
 40
0.0629921260000011
  0
ARC
  5
1865B
  8
0
 10
8898.3070128707768163
 20
2544.7936913905891743
 30
0.0
 40
0.050648153078046
 50
90.3991989013307915
 51
139.8023224210417084
  0
ARC
  5
1865C
  8
0
 10
8898.306633335618244
 20
2544.7947005221781183
 30
0.0
 40
0.0496377993252191
 50
52.1878104211458478
 51
89.9692323317856619
  0
ARC
  5
1865D
  8
0
 10
8898.3026457425730769
 20
2544.790051824963939
 30
0.0
 40
0.0557558873487792
 50
4.1927411460565311
 51
51.8792193311250216
  0
ARC
  5
1865E
  8
0
 10
8898.2987013782185386
 20
2544.7896358204961871
 30
0.0
 40
0.0597202444449841
 50
307.6358712952483074
 51
4.3141166256830568
  0
ARC
  5
1865F
  8
0
 10
8898.303834193293369
 20
2544.7829793493119723
 30
0.0
 40
0.0513146273217282
 50
242.196341961206798
 51
307.6358712952483074
  0
ARC
  5
18660
  8
0
 10
8898.3054491104248882
 20
2544.7827453818467802
 30
0.0
 40
0.0518837271514924
 50
198.1046178726365099
 51
240.4980940796112918
  0
ARC
  5
18661
  8
0
 10
8898.313659634835858
 20
2544.7858901980412156
 30
0.0
 40
0.0606665941341913
 50
168.3058635101644995
 51
198.5179761623138859
  0
CIRCLE
  5
18662
  8
0
 10
8898.4233749263821664
 20
2544.6688826690538008
 30
0.0
 40
0.0210314967061509
  0
CIRCLE
  5
18663
  8
0
 10
8898.4233749263821664
 20
2544.6688826690538008
 30
0.0
 40
0.0406031598599277
  0
CIRCLE
  5
18664
  8
0
 10
8898.4282226358682237
 20
2544.6612315154179669
 30
0.0
 40
0.0553527108374539
  0
CIRCLE
  5
18665
  8
0
 10
8898.4282226358682237
 20
2544.6612315154179669
 30
0.0
 40
0.0641862490288077
  0
CIRCLE
  5
18666
  8
0
 10
8898.2956013709081162
 20
2544.5420059630491778
 30
0.0
 40
0.0219145891738826
  0
CIRCLE
  5
18667
  8
0
 10
8898.2956013709081162
 20
2544.5420059630491778
 30
0.0
 40
0.0414944488494512
  0
CIRCLE
  5
18668
  8
0
 10
8898.3014453088198934
 20
2544.5364413907109338
 30
0.0
 40
0.0629921260000011
  0
ARC
  5
18669
  8
0
 10
8898.3069795904648345
 20
2544.5405583207989366
 30
0.0
 40
0.050648153078046
 50
90.3991989013307915
 51
139.8023224210417084
  0
ARC
  5
1866A
  8
0
 10
8898.3066000553062622
 20
2544.5415674523878806
 30
0.0
 40
0.0496377993252191
 50
52.1878104211458478
 51
89.9692323317856619
  0
ARC
  5
1866B
  8
0
 10
8898.3026124622610951
 20
2544.5369187551750656
 30
0.0
 40
0.0557558873487792
 50
4.1927411460565311
 51
51.8792193311250216
  0
ARC
  5
1866C
  8
0
 10
8898.2986680979065568
 20
2544.5365027507082232
 30
0.0
 40
0.0597202444449841
 50
307.6358712952483074
 51
4.3141166256830568
  0
ARC
  5
1866D
  8
0
 10
8898.3038009129813872
 20
2544.5298462795230989
 30
0.0
 40
0.0513146273217282
 50
242.196341961206798
 51
307.6358712952483074
  0
ARC
  5
1866E
  8
0
 10
8898.3054158301147254
 20
2544.5296123120579068
 30
0.0
 40
0.0518837271514924
 50
198.1046178726365099
 51
240.4980940796112918
  0
ARC
  5
1866F
  8
0
 10
8898.3136263545202382
 20
2544.5327571282518875
 30
0.0
 40
0.0606665941341913
 50
168.3058635101644995
 51
198.5179761623138859
  0
CIRCLE
  5
18670
  8
0
 10
8898.423346555660828
 20
2544.4157427984800961
 30
0.0
 40
0.0210314967061509
  0
CIRCLE
  5
18671
  8
0
 10
8898.423346555660828
 20
2544.4157427984800961
 30
0.0
 40
0.0406031598599277
  0
CIRCLE
  5
18672
  8
0
 10
8898.4281942651468853
 20
2544.4080916448438074
 30
0.0
 40
0.0553527108374539
  0
CIRCLE
  5
18673
  8
0
 10
8898.4281942651468853
 20
2544.4080916448438074
 30
0.0
 40
0.0641862490288077
  0
CIRCLE
  5
18674
  8
0
 10
8898.2955730001885968
 20
2544.2888660924750184
 30
0.0
 40
0.0219145891738826
  0
CIRCLE
  5
18675
  8
0
 10
8898.2955730001885968
 20
2544.2888660924750184
 30
0.0
 40
0.0414944488494512
  0
CIRCLE
  5
18676
  8
0
 10
8898.301416938100374
 20
2544.2833015201367743
 30
0.0
 40
0.0629921260000011
  0
ARC
  5
18677
  8
0
 10
8898.3069512197416771
 20
2544.2874184502261414
 30
0.0
 40
0.050648153078046
 50
90.3991989013307915
 51
139.8023224210417084
  0
ARC
  5
18678
  8
0
 10
8898.3065716845849238
 20
2544.2884275818150854
 30
0.0
 40
0.0496377993252191
 50
52.1878104211458478
 51
89.9692323317856619
  0
ARC
  5
18679
  8
0
 10
8898.3025840915397566
 20
2544.2837788846009062
 30
0.0
 40
0.0557558873487792
 50
4.1927411460565311
 51
51.8792193311250216
  0
ARC
  5
1867A
  8
0
 10
8898.2986397271852184
 20
2544.2833628801340637
 30
0.0
 40
0.0597202444449841
 50
307.6358712952483074
 51
4.3141166256830568
  0
ARC
  5
1867B
  8
0
 10
8898.3037725422618678
 20
2544.2767064089489395
 30
0.0
 40
0.0513146273217282
 50
242.196341961206798
 51
307.6358712952483074
  0
ARC
  5
1867C
  8
0
 10
8898.305387459393387
 20
2544.2764724414851116
 30
0.0
 40
0.0518837271514924
 50
198.1046178726365099
 51
240.4980940796112918
  0
ARC
  5
1867D
  8
0
 10
8898.3135979838025378
 20
2544.2796172576781828
 30
0.0
 40
0.0606665941341913
 50
168.3058635101644995
 51
198.5179761623138859
  0
CIRCLE
  5
1867E
  8
0
 10
8898.4233169207254832
 20
2544.162596278500132
 30
0.0
 40
0.0210314967061509
  0
CIRCLE
  5
1867F
  8
0
 10
8898.4233169207254832
 20
2544.162596278500132
 30
0.0
 40
0.0406031598599277
  0
CIRCLE
  5
18680
  8
0
 10
8898.4281646302097215
 20
2544.1549451248629339
 30
0.0
 40
0.0553527108374539
  0
CIRCLE
  5
18681
  8
0
 10
8898.4281646302097215
 20
2544.1549451248629339
 30
0.0
 40
0.0641862490288077
  0
CIRCLE
  5
18682
  8
0
 10
8898.295543365251433
 20
2544.0357195724941448
 30
0.0
 40
0.0219145891738826
  0
CIRCLE
  5
18683
  8
0
 10
8898.295543365251433
 20
2544.0357195724941448
 30
0.0
 40
0.0414944488494512
  0
CIRCLE
  5
18684
  8
0
 10
8898.3013873031613912
 20
2544.0301550001568103
 30
0.0
 40
0.0629921260000011
  0
ARC
  5
18685
  8
0
 10
8898.3069215848063322
 20
2544.0342719302448131
 30
0.0
 40
0.050648153078046
 50
90.3991989013307915
 51
139.8023224210417084
  0
ARC
  5
18686
  8
0
 10
8898.30654204964776
 20
2544.0352810618342119
 30
0.0
 40
0.0496377993252191
 50
52.1878104211458478
 51
89.9692323317856619
  0
ARC
  5
18687
  8
0
 10
8898.3025544566044118
 20
2544.0306323646200326
 30
0.0
 40
0.0557558873487792
 50
4.1927411460565311
 51
51.8792193311250216
  0
ARC
  5
18688
  8
0
 10
8898.2986100922498736
 20
2544.0302163601540997
 30
0.0
 40
0.0597202444449841
 50
307.6358712952483074
 51
4.3141166256830568
  0
ARC
  5
18689
  8
0
 10
8898.303742907322885
 20
2544.0235598889689754
 30
0.0
 40
0.0513146273217282
 50
242.196341961206798
 51
307.6358712952483074
  0
ARC
  5
1868A
  8
0
 10
8898.3053578244544042
 20
2544.0233259215037833
 30
0.0
 40
0.0518837271514924
 50
198.1046178726365099
 51
240.4980940796112918
  0
ARC
  5
1868B
  8
0
 10
8898.313568348863555
 20
2544.0264707376968545
 30
0.0
 40
0.0606665941341913
 50
168.3058635101644995
 51
198.5179761623138859
  0
CIRCLE
  5
1868C
  8
0
 10
8898.4233154892044695
 20
2543.9106277744381259
 30
0.0
 40
0.0210314967061509
  0
CIRCLE
  5
1868D
  8
0
 10
8898.4233154892044695
 20
2543.9106277744381259
 30
0.0
 40
0.0406031598599277
  0
CIRCLE
  5
1868E
  8
0
 10
8898.4281631986905268
 20
2543.9029766208018373
 30
0.0
 40
0.0553527108374539
  0
CIRCLE
  5
1868F
  8
0
 10
8898.4281631986905268
 20
2543.9029766208018373
 30
0.0
 40
0.0641862490288077
  0
CIRCLE
  5
18690
  8
0
 10
8898.2955419337322382
 20
2543.7837510684330482
 30
0.0
 40
0.0219145891738826
  0
CIRCLE
  5
18691
  8
0
 10
8898.2955419337322382
 20
2543.7837510684330482
 30
0.0
 40
0.0414944488494512
  0
CIRCLE
  5
18692
  8
0
 10
8898.3013858716421964
 20
2543.7781864960948042
 30
0.0
 40
0.0629921260000011
  0
ARC
  5
18693
  8
0
 10
8898.3069201532853185
 20
2543.7823034261841713
 30
0.0
 40
0.050648153078046
 50
90.3991989013307915
 51
139.8023224210417084
  0
ARC
  5
18694
  8
0
 10
8898.3065406181267463
 20
2543.7833125577722058
 30
0.0
 40
0.0496377993252191
 50
52.1878104211458478
 51
89.9692323317856619
  0
ARC
  5
18695
  8
0
 10
8898.3025530250797601
 20
2543.778663860558936
 30
0.0
 40
0.0557558873487792
 50
4.1927411460565311
 51
51.8792193311250216
  0
ARC
  5
18696
  8
0
 10
8898.2986086607288598
 20
2543.7782478560911841
 30
0.0
 40
0.0597202444449841
 50
307.6358712952483074
 51
4.3141166256830568
  0
ARC
  5
18697
  8
0
 10
8898.3037414758018713
 20
2543.7715913849069693
 30
0.0
 40
0.0513146273217282
 50
242.196341961206798
 51
307.6358712952483074
  0
ARC
  5
18698
  8
0
 10
8898.3053563929333905
 20
2543.7713574174431415
 30
0.0
 40
0.0518837271514924
 50
198.1046178726365099
 51
240.4980940796112918
  0
ARC
  5
18699
  8
0
 10
8898.3135669173443603
 20
2543.7745022336348484
 30
0.0
 40
0.0606665941341913
 50
168.3058635101644995
 51
198.5179761623138859
  0
CIRCLE
  5
1869A
  8
0
 10
8898.423282844329151
 20
2543.6574751231842129
 30
0.0
 40
0.0210314967061509
  0
CIRCLE
  5
1869B
  8
0
 10
8898.423282844329151
 20
2543.6574751231842129
 30
0.0
 40
0.0406031598599277
  0
CIRCLE
  5
1869C
  8
0
 10
8898.4281305538152083
 20
2543.6498239695470147
 30
0.0
 40
0.0553527108374539
  0
CIRCLE
  5
1869D
  8
0
 10
8898.4281305538152083
 20
2543.6498239695470147
 30
0.0
 40
0.0641862490288077
  0
CIRCLE
  5
1869E
  8
0
 10
8898.2955092888587387
 20
2543.5305984171791351
 30
0.0
 40
0.0219145891738826
  0
CIRCLE
  5
1869F
  8
0
 10
8898.2955092888587387
 20
2543.5305984171791351
 30
0.0
 40
0.0414944488494512
  0
CIRCLE
  5
186A0
  8
0
 10
8898.3013532267686969
 20
2543.5250338448408911
 30
0.0
 40
0.0629921260000011
  0
ARC
  5
186A1
  8
0
 10
8898.306887508411819
 20
2543.5291507749298034
 30
0.0
 40
0.050648153078046
 50
90.3991989013307915
 51
139.8023224210417084
  0
ARC
  5
186A2
  8
0
 10
8898.3065079732568847
 20
2543.5301599065192022
 30
0.0
 40
0.0496377993252191
 50
52.1878104211458478
 51
89.9692323317856619
  0
ARC
  5
186A3
  8
0
 10
8898.3025203802098986
 20
2543.5255112093050229
 30
0.0
 40
0.0557558873487792
 50
4.1927411460565311
 51
51.8792193311250216
  0
ARC
  5
186A4
  8
0
 10
8898.2985760158535413
 20
2543.5250952048381805
 30
0.0
 40
0.0597202444449841
 50
307.6358712952483074
 51
4.3141166256830568
  0
ARC
  5
186A5
  8
0
 10
8898.3037088309283718
 20
2543.5184387336530563
 30
0.0
 40
0.0513146273217282
 50
242.196341961206798
 51
307.6358712952483074
  0
ARC
  5
186A6
  8
0
 10
8898.3053237480598909
 20
2543.5182047661887736
 30
0.0
 40
0.0518837271514924
 50
198.1046178726365099
 51
240.4980940796112918
  0
ARC
  5
186A7
  8
0
 10
8898.3135342724708607
 20
2543.5213495823809353
 30
0.0
 40
0.0606665941341913
 50
168.3058635101644995
 51
198.5179761623138859
  0
CIRCLE
  5
186A8
  8
0
 10
8898.4232536611471005
 20
2543.4043157189998965
 30
0.0
 40
0.0210314967061509
  0
CIRCLE
  5
186A9
  8
0
 10
8898.4232536611471005
 20
2543.4043157189998965
 30
0.0
 40
0.0406031598599277
  0
CIRCLE
  5
186AA
  8
0
 10
8898.4281013706331578
 20
2543.3966645653631531
 30
0.0
 40
0.0553527108374539
  0
CIRCLE
  5
186AB
  8
0
 10
8898.4281013706331578
 20
2543.3966645653631531
 30
0.0
 40
0.0641862490288077
  0
CIRCLE
  5
186AC
  8
0
 10
8898.2954801056748693
 20
2543.2774390129939093
 30
0.0
 40
0.0219145891738826
  0
CIRCLE
  5
186AD
  8
0
 10
8898.2954801056748693
 20
2543.2774390129939093
 30
0.0
 40
0.0414944488494512
  0
CIRCLE
  5
186AE
  8
0
 10
8898.3013240435866464
 20
2543.27187444065612
 30
0.0
 40
0.0629921260000011
  0
ARC
  5
186AF
  8
0
 10
8898.3068583252315875
 20
2543.2759913707450323
 30
0.0
 40
0.050648153078046
 50
90.3991989013307915
 51
139.8023224210417084
  0
ARC
  5
186B0
  8
0
 10
8898.3064787900711963
 20
2543.2770005023339763
 30
0.0
 40
0.0496377993252191
 50
52.1878104211458478
 51
89.9692323317856619
  0
ARC
  5
186B1
  8
0
 10
8898.3024911970278481
 20
2543.2723518051211613
 30
0.0
 40
0.0557558873487792
 50
4.1927411460565311
 51
51.8792193311250216
  0
ARC
  5
186B2
  8
0
 10
8898.2985468326714908
 20
2543.2719358006529546
 30
0.0
 40
0.0597202444449841
 50
307.6358712952483074
 51
4.3141166256830568
  0
ARC
  5
186B3
  8
0
 10
8898.3036796477463213
 20
2543.2652793294678304
 30
0.0
 40
0.0513146273217282
 50
242.196341961206798
 51
307.6358712952483074
  0
ARC
  5
186B4
  8
0
 10
8898.3052945648778405
 20
2543.2650453620040025
 30
0.0
 40
0.0518837271514924
 50
198.1046178726365099
 51
240.4980940796112918
  0
ARC
  5
186B5
  8
0
 10
8898.3135050892888103
 20
2543.2681901781970737
 30
0.0
 40
0.0606665941341913
 50
168.3058635101644995
 51
198.5179761623138859
  0
CIRCLE
  5
186B6
  8
0
 10
8898.423216081384453
 20
2543.1511496482671646
 30
0.0
 40
0.0210314967061509
  0
CIRCLE
  5
186B7
  8
0
 10
8898.423216081384453
 20
2543.1511496482671646
 30
0.0
 40
0.0406031598599277
  0
CIRCLE
  5
186B8
  8
0
 10
8898.4280637908723293
 20
2543.1434984946308759
 30
0.0
 40
0.0553527108374539
  0
CIRCLE
  5
186B9
  8
0
 10
8898.4280637908723293
 20
2543.1434984946308759
 30
0.0
 40
0.0641862490288077
  0
CIRCLE
  5
186BA
  8
0
 10
8898.2954425259104028
 20
2543.0242729422620869
 30
0.0
 40
0.0219145891738826
  0
CIRCLE
  5
186BB
  8
0
 10
8898.2954425259104028
 20
2543.0242729422620869
 30
0.0
 40
0.0414944488494512
  0
CIRCLE
  5
186BC
  8
0
 10
8898.3012864638258179
 20
2543.0187083699238428
 30
0.0
 40
0.0629921260000011
  0
ARC
  5
186BD
  8
0
 10
8898.306820745467121
 20
2543.0228253000132099
 30
0.0
 40
0.050648153078046
 50
90.3991989013307915
 51
139.8023224210417084
  0
ARC
  5
186BE
  8
0
 10
8898.3064412103085488
 20
2543.0238344316021539
 30
0.0
 40
0.0496377993252191
 50
52.1878104211458478
 51
89.9692323317856619
  0
ARC
  5
186BF
  8
0
 10
8898.3024536172633816
 20
2543.0191857343879747
 30
0.0
 40
0.0557558873487792
 50
4.1927411460565311
 51
51.8792193311250216
  0
ARC
  5
186C0
  8
0
 10
8898.2985092529088433
 20
2543.0187697299211322
 30
0.0
 40
0.0597202444449841
 50
307.6358712952483074
 51
4.3141166256830568
  0
ARC
  5
186C1
  8
0
 10
8898.3036420679836738
 20
2543.012113258736008
 30
0.0
 40
0.0513146273217282
 50
242.196341961206798
 51
307.6358712952483074
  0
ARC
  5
186C2
  8
0
 10
8898.3052569851151929
 20
2543.0118792912708159
 30
0.0
 40
0.0518837271514924
 50
198.1046178726365099
 51
240.4980940796112918
  0
ARC
  5
186C3
  8
0
 10
8898.3134675095261628
 20
2543.0150241074647965
 30
0.0
 40
0.0606665941341913
 50
168.3058635101644995
 51
198.5179761623138859
  0
CIRCLE
  5
186C4
  8
0
 10
8898.4231885899644112
 20
2542.8979773735359231
 30
0.0
 40
0.0210314967061509
  0
CIRCLE
  5
186C5
  8
0
 10
8898.4231885899644112
 20
2542.8979773735359231
 30
0.0
 40
0.0406031598599277
  0
CIRCLE
  5
186C6
  8
0
 10
8898.4280362994468305
 20
2542.8903262198991797
 30
0.0
 40
0.0553527108374539
  0
CIRCLE
  5
186C7
  8
0
 10
8898.4280362994468305
 20
2542.8903262198991797
 30
0.0
 40
0.0641862490288077
  0
CIRCLE
  5
186C8
  8
0
 10
8898.295415034490361
 20
2542.7711006675308454
 30
0.0
 40
0.0219145891738826
  0
CIRCLE
  5
186C9
  8
0
 10
8898.295415034490361
 20
2542.7711006675308454
 30
0.0
 40
0.0414944488494512
  0
CIRCLE
  5
186CA
  8
0
 10
8898.3012589724003192
 20
2542.7655360951930561
 30
0.0
 40
0.0629921260000011
  0
ARC
  5
186CB
  8
0
 10
8898.3067932540452603
 20
2542.7696530252819684
 30
0.0
 40
0.050648153078046
 50
90.3991989013307915
 51
139.8023224210417084
  0
ARC
  5
186CC
  8
0
 10
8898.306413718886688
 20
2542.7706621568700029
 30
0.0
 40
0.0496377993252191
 50
52.1878104211458478
 51
89.9692323317856619
  0
ARC
  5
186CD
  8
0
 10
8898.3024261258433398
 20
2542.7660134596571879
 30
0.0
 40
0.0557558873487792
 50
4.1927411460565311
 51
51.8792193311250216
  0
ARC
  5
186CE
  8
0
 10
8898.2984817614888016
 20
2542.7655974551889813
 30
0.0
 40
0.0597202444449841
 50
307.6358712952483074
 51
4.3141166256830568
  0
ARC
  5
186CF
  8
0
 10
8898.303614576561813
 20
2542.7589409840052213
 30
0.0
 40
0.0513146273217282
 50
242.196341961206798
 51
307.6358712952483074
  0
ARC
  5
186D0
  8
0
 10
8898.3052294936933322
 20
2542.7587070165400291
 30
0.0
 40
0.0518837271514924
 50
198.1046178726365099
 51
240.4980940796112918
  0
ARC
  5
186D1
  8
0
 10
8898.313440018102483
 20
2542.7618518327331003
 30
0.0
 40
0.0606665941341913
 50
168.3058635101644995
 51
198.5179761623138859
  0
LINE
  5
186D2
  8
0
 10
8898.4311909215757623
 20
2545.4477282963689504
 30
0.0
 11
8898.4311909215757623
 21
2545.4088203277028697
 31
0.0
  0
LINE
  5
186D3
  8
0
 10
8898.4363861674937652
 20
2545.4446581403981327
 30
0.0
 11
8898.4378151626169711
 21
2545.4131514880032228
 31
0.0
  0
LINE
  5
186D4
  8
0
 10
8898.4311909215757623
 20
2545.1946884125809447
 30
0.0
 11
8898.4311909215757623
 21
2545.1555970147392145
 31
0.0
  0
LINE
  5
186D5
  8
0
 10
8898.4378339319773659
 20
2545.1904640614848176
 30
0.0
 11
8898.4378339319773659
 21
2545.1598213658339773
 31
0.0
  0
LINE
  5
186D6
  8
0
 10
8898.4311909215757623
 20
2544.9415542444871789
 30
0.0
 11
8898.4311909215757623
 21
2544.9060692541929711
 31
0.0
  0
LINE
  5
186D7
  8
0
 10
8898.4371207367676107
 20
2544.9060692541929711
 30
0.0
 11
8898.4096956766225048
 21
2544.9060692541929711
 31
0.0
  0
LINE
  5
186D8
  8
0
 10
8898.4311909215757623
 20
2544.9060692541929711
 30
0.0
 11
8898.4336266764421453
 21
2544.903633499325224
 31
0.0
  0
LINE
  5
186D9
  8
0
 10
8898.4378339319773659
 20
2544.9067114157978722
 30
0.0
 11
8898.4378339319773659
 21
2544.9373200618879309
 31
0.0
  0
ARC
  5
186DA
  8
0
 10
8898.3130806853732793
 20
2544.7308724037930006
 30
0.0
 40
0.0658783965999752
 50
86.1532575968740559
 51
124.2221283247524042
  0
LINE
  5
186DB
  8
0
 10
8898.4355208770739409
 20
2544.6860524021758465
 30
0.0
 11
8898.4355208770739409
 21
2544.6517129359322098
 31
0.0
  0
LINE
  5
186DC
  8
0
 10
8898.4378339319773659
 20
2544.6841555538821922
 30
0.0
 11
8898.4378339319773659
 21
2544.6536097842258641
 31
0.0
  0
ARC
  5
186DD
  8
0
 10
8898.3130806853732793
 20
2544.6009511438928712
 30
0.0
 40
0.0658783966000065
 50
234.0620643781369097
 51
272.9040592501631863
  0
LINE
  5
186DE
  8
0
 10
8898.4058126384243224
 20
2544.427356824483013
 30
0.0
 11
8898.4378339319773659
 21
2544.4269852987931699
 31
0.0
  0
LINE
  5
186DF
  8
0
 10
8898.4378339319773659
 20
2544.4269852987931699
 30
0.0
 11
8898.4378339319773659
 21
2544.4309887743838772
 31
0.0
  0
LINE
  5
186E0
  8
0
 10
8898.4378339320373925
 20
2544.4269852988359162
 30
0.0
 11
8898.4311909215757623
 21
2544.4336283092929989
 31
0.0
  0
LINE
  5
186E1
  8
0
 10
8898.4311909215757623
 20
2544.4336283092929989
 30
0.0
 11
8898.4122816400868032
 21
2544.4336283092929989
 31
0.0
  0
LINE
  5
186E2
  8
0
 10
8898.4311909215757623
 20
2544.4336283092929989
 30
0.0
 11
8898.4311909215757623
 21
2544.4352566340107842
 31
0.0
  0
LINE
  5
186E3
  8
0
 10
8898.4142983965084568
 20
2544.3967571547032094
 30
0.0
 11
8898.4323947148150182
 21
2544.3967571547032094
 31
0.0
  0
ARC
  5
186E4
  8
0
 10
8898.3130806853732793
 20
2544.2229983879929023
 30
0.0
 40
0.0658783966000058
 50
86.1647342208477625
 51
123.6054409981818054
  0
LINE
  5
186E5
  8
0
 10
8898.4355208770739409
 20
2544.1797248307761947
 30
0.0
 11
8898.4355208770739409
 21
2544.1454677262240693
 31
0.0
  0
LINE
  5
186E6
  8
0
 10
8898.4378339319773659
 20
2544.177814039112036
 30
0.0
 11
8898.4378339319773659
 21
2544.1473785178877733
 31
0.0
  0
ARC
  5
186E7
  8
0
 10
8898.3130806853732793
 20
2544.0930771281928173
 30
0.0
 40
0.065878396599976
 50
233.6697343135463996
 51
272.3277890529021761
  0
LINE
  5
186E8
  8
0
 10
8898.4072228383593028
 20
2543.924168470227869
 30
0.0
 11
8898.4378339319773659
 21
2543.924523288193086
 31
0.0
  0
LINE
  5
186E9
  8
0
 10
8898.4378339319773659
 20
2543.924523288193086
 30
0.0
 11
8898.4311909215757623
 21
2543.9178802777928468
 31
0.0
  0
LINE
  5
186EA
  8
0
 10
8898.4311909215757623
 20
2543.9178802777928468
 30
0.0
 11
8898.4311909215757623
 21
2543.8911264560551899
 31
0.0
  0
LINE
  5
186EB
  8
0
 10
8898.4311909215757623
 20
2543.9178802777928468
 30
0.0
 11
8898.4035740341205383
 21
2543.9178802777928468
 31
0.0
  0
LINE
  5
186EC
  8
0
 10
8898.4378339319773659
 20
2543.924523288193086
 30
0.0
 11
8898.4378339319773659
 21
2543.895411379556208
 31
0.0
  0
LINE
  5
186ED
  8
0
 10
8898.4117564538046281
 20
2543.6398834724609515
 30
0.0
 11
8898.43439039837358
 21
2543.639616061146171
 31
0.0
  0
LINE
  5
186EE
  8
0
 10
8898.405512149196511
 20
2543.6462267344932116
 30
0.0
 11
8898.4311909215757623
 21
2543.6462267344932116
 31
0.0
  0
LINE
  5
186EF
  8
0
 10
8898.4311909215757623
 20
2543.6462267344932116
 30
0.0
 11
8898.4311909215757623
 21
2543.6769632264267784
 31
0.0
  0
LINE
  5
186F0
  8
0
 10
8898.4378339319773659
 20
2543.6726603035272092
 30
0.0
 11
8898.4378339319773659
 21
2543.6422899428412165
 31
0.0
  0
LINE
  5
186F1
  8
0
 10
8898.4311909215757623
 20
2543.6462267344932116
 30
0.0
 11
8898.4363901209508185
 21
2543.6410275351158816
 31
0.0
  0
ARC
  5
186F2
  8
0
 10
8898.3130806853732793
 20
2543.4710298840927862
 30
0.0
 40
0.0658783965999775
 50
87.0050709573880852
 51
125.8647101766236034
  0
LINE
  5
186F3
  8
0
 10
8898.4355208770739409
 20
2543.4213990227522117
 30
0.0
 11
8898.4355208770739409
 21
2543.3872324152471265
 31
0.0
  0
LINE
  5
186F4
  8
0
 10
8898.4378339319773659
 20
2543.4194728808811305
 30
0.0
 11
8898.4378339319773659
 21
2543.3891585571182077
 31
0.0
  0
ARC
  5
186F5
  8
0
 10
8898.3130806853732793
 20
2543.3411086241931116
 30
0.0
 40
0.0658783965999817
 50
235.4255976371738086
 51
273.668960241020784
  0
LINE
  5
186F6
  8
0
 10
8898.4082359777912643
 20
2543.165911773793141
 30
0.0
 11
8898.4378339319773659
 21
2543.165911773793141
 31
0.0
  0
LINE
  5
186F7
  8
0
 10
8898.4311909215757623
 20
2543.165911773793141
 30
0.0
 11
8898.4311909215757623
 21
2543.1316887701359519
 31
0.0
  0
LINE
  5
186F8
  8
0
 10
8898.4311909215757623
 20
2543.165911773793141
 30
0.0
 11
8898.4343015655740601
 21
2543.169022417890119
 31
0.0
  0
LINE
  5
186F9
  8
0
 10
8898.4378339319773659
 20
2543.165911773793141
 30
0.0
 11
8898.4378339319773659
 21
2543.1360287257480195
 31
0.0
  0
LINE
  5
186FA
  8
0
 10
8898.4311909215757623
 20
2542.9174269633122094
 30
0.0
 11
8898.4311909215757623
 21
2542.8785277837591821
 31
0.0
  0
LINE
  5
186FB
  8
0
 10
8898.4378339319773659
 20
2542.9130716708377804
 30
0.0
 11
8898.4378339319773659
 21
2542.8828830762331563
 31
0.0
  0
LINE
  5
186FC
  8
0
 10
8898.2735285909548111
 20
2542.77221098639302
 30
0.0
 11
8898.3173014780277299
 21
2542.77221098639302
 31
0.0
  0
LINE
  5
186FD
  8
0
 10
8898.2736373190109589
 20
2542.7686551967822197
 30
0.0
 11
8898.3171212587967602
 21
2542.7680858632252239
 31
0.0
  0
LINE
  5
186FE
  8
0
 10
8898.3012696616751782
 20
2542.7682934075778576
 30
0.0
 11
8898.3012696616751782
 21
2542.7499826051380296
 31
0.0
  0
LINE
  5
186FF
  8
0
 10
8898.4311909215757623
 20
2542.663931627679176
 30
0.0
 11
8898.4311909215757623
 21
2542.6244963078302135
 31
0.0
  0
LINE
  5
18700
  8
0
 10
8898.4378405387014936
 20
2542.6593890348258356
 30
0.0
 11
8898.4364042393426644
 21
2542.6277213371690777
 31
0.0
  0
CIRCLE
  5
18701
  8
0
 10
8898.4225974911387311
 20
2542.6442139677537853
 30
0.0
 40
0.0215089088415539
  0
CIRCLE
  5
18702
  8
0
 10
8898.4225974911387311
 20
2542.6442139677537853
 30
0.0
 40
0.0412275532861836
  0
CIRCLE
  5
18703
  8
0
 10
8898.4280016725952009
 20
2542.6513515168639969
 30
0.0
 40
0.0553428916806134
  0
CIRCLE
  5
18704
  8
0
 10
8898.5532381656212237
 20
2545.301616195763927
 30
0.0
 40
0.0216934947291918
  0
CIRCLE
  5
18705
  8
0
 10
8898.5532381656212237
 20
2545.301616195763927
 30
0.0
 40
0.0413033687885199
  0
CIRCLE
  5
18706
  8
0
 10
8898.5532381656248617
 20
2545.2945965452431665
 30
0.0
 40
0.0553929292499973
  0
CIRCLE
  5
18707
  8
0
 10
8898.5532381656248617
 20
2545.2945965452431665
 30
0.0
 40
0.0642286144499985
  0
CIRCLE
  5
18708
  8
0
 10
8898.777647981474729
 20
2546.1344158584929573
 30
0.0
 40
0.0393689839999993
  0
ARC
  5
18709
  8
0
 10
8898.777647981474729
 20
2546.1344158584929573
 30
0.0
 40
0.0787400099008511
 50
270.0
 51
180.0
  0
LINE
  5
1870A
  8
0
 10
8898.777647981474729
 20
2546.0556758485918181
 30
0.0
 11
8898.7229079715743865
 21
2546.0556758485918181
 31
0.0
  0
ARC
  5
1870B
  8
0
 10
8898.7229079715743865
 20
2546.07967584859216
 30
0.0
 40
0.024
 50
180.0
 51
270.0
  0
LINE
  5
1870C
  8
0
 10
8898.698907971573135
 20
2546.1344158584929573
 30
0.0
 11
8898.698907971573135
 21
2546.07967584859216
 31
0.0
  0
CIRCLE
  5
1870D
  8
0
 10
8898.777647981474729
 20
2545.6855968771928929
 30
0.0
 40
0.0393689839999993
  0
ARC
  5
1870E
  8
0
 10
8898.777647981474729
 20
2545.6855968771928929
 30
0.0
 40
0.0787400099008511
 50
180.0
 51
90.0
  0
LINE
  5
1870F
  8
0
 10
8898.777647981474729
 20
2545.7643368870940321
 30
0.0
 11
8898.7229079715743865
 21
2545.7643368870940321
 31
0.0
  0
ARC
  5
18710
  8
0
 10
8898.7229079715743865
 20
2545.7403368870941449
 30
0.0
 40
0.024
 50
90.0
 51
180.0
  0
LINE
  5
18711
  8
0
 10
8898.698907971573135
 20
2545.6855968771928929
 30
0.0
 11
8898.698907971573135
 21
2545.7403368870941449
 31
0.0
  0
CIRCLE
  5
18712
  8
0
 10
8898.6832770520122722
 20
2545.4282743120361374
 30
0.0
 40
0.0210314967061509
  0
CIRCLE
  5
18713
  8
0
 10
8898.6832770520122722
 20
2545.4282743120361374
 30
0.0
 40
0.0406031598599277
  0
CIRCLE
  5
18714
  8
0
 10
8898.6784293425262149
 20
2545.4206231583998488
 30
0.0
 40
0.0553527108374539
  0
CIRCLE
  5
18715
  8
0
 10
8898.6784293425262149
 20
2545.4206231583998488
 30
0.0
 40
0.0641862490288077
  0
CIRCLE
  5
18716
  8
0
 10
8898.8110506074845034
 20
2545.3013976060310597
 30
0.0
 40
0.0219145891738826
  0
CIRCLE
  5
18717
  8
0
 10
8898.8110506074845034
 20
2545.3013976060310597
 30
0.0
 40
0.0414944488494512
  0
CIRCLE
  5
18718
  8
0
 10
8898.8052066695745452
 20
2545.2958330336928157
 30
0.0
 40
0.0629921260000011
  0
ARC
  5
18719
  8
0
 10
8898.7996723879277852
 20
2545.2999499637808185
 30
0.0
 40
0.050648153078046
 50
40.1976775789583201
 51
89.6008010986691943
  0
ARC
  5
1871A
  8
0
 10
8898.8000519230863574
 20
2545.3009590953702173
 30
0.0
 40
0.0496377993252191
 50
90.0307676682143381
 51
127.8121895788541025
  0
ARC
  5
1871B
  8
0
 10
8898.8040395161333436
 20
2545.2963103981569475
 30
0.0
 40
0.0557558873487792
 50
128.1207806688749997
 51
175.8072588539434093
  0
ARC
  5
1871C
  8
0
 10
8898.8079838804897008
 20
2545.2958943936891956
 30
0.0
 40
0.0597202444449841
 50
175.6858833743168873
 51
232.3641287047516926
  0
ARC
  5
1871D
  8
0
 10
8898.8028510654148704
 20
2545.2892379225049808
 30
0.0
 40
0.0513146273217282
 50
232.3641287047516926
 51
297.8036580387931735
  0
ARC
  5
1871E
  8
0
 10
8898.8012361482833512
 20
2545.2890039550411529
 30
0.0
 40
0.0518837271514924
 50
299.5019059203887082
 51
341.8953821273635185
  0
ARC
  5
1871F
  8
0
 10
8898.7930256238723814
 20
2545.2921487712328599
 30
0.0
 40
0.0606665941341913
 50
341.4820238376860857
 51
11.6941364898355005
  0
CIRCLE
  5
18720
  8
0
 10
8898.6830500414998824
 20
2545.1751427136600796
 30
0.0
 40
0.0210314967061509
  0
CIRCLE
  5
18721
  8
0
 10
8898.6830500414998824
 20
2545.1751427136600796
 30
0.0
 40
0.0406031598599277
  0
CIRCLE
  5
18722
  8
0
 10
8898.6782023320138251
 20
2545.1674915600228815
 30
0.0
 40
0.0553527108374539
  0
CIRCLE
  5
18723
  8
0
 10
8898.6782023320138251
 20
2545.1674915600228815
 30
0.0
 40
0.0641862490288077
  0
CIRCLE
  5
18724
  8
0
 10
8898.8108235969721136
 20
2545.0482660076540924
 30
0.0
 40
0.0219145891738826
  0
CIRCLE
  5
18725
  8
0
 10
8898.8108235969721136
 20
2545.0482660076540924
 30
0.0
 40
0.0414944488494512
  0
CIRCLE
  5
18726
  8
0
 10
8898.8049796590621554
 20
2545.0427014353158484
 30
0.0
 40
0.0629921260000011
  0
ARC
  5
18727
  8
0
 10
8898.7994453774172143
 20
2545.0468183654052154
 30
0.0
 40
0.050648153078046
 50
40.1976775789583201
 51
89.6008010986691943
  0
ARC
  5
18728
  8
0
 10
8898.7998249125776056
 20
2545.0478274969941594
 30
0.0
 40
0.0496377993252191
 50
90.0307676682143381
 51
127.8121895788541025
  0
ARC
  5
18729
  8
0
 10
8898.8038125056245917
 20
2545.0431787997799802
 30
0.0
 40
0.0557558873487792
 50
128.1207806688749997
 51
175.8072588539434093
  0
ARC
  5
1872A
  8
0
 10
8898.807756869977311
 20
2545.0427627953140473
 30
0.0
 40
0.0597202444449841
 50
175.6858833743168873
 51
232.3641287047516926
  0
ARC
  5
1872B
  8
0
 10
8898.8026240549024806
 20
2545.036106324128923
 30
0.0
 40
0.0513146273217282
 50
232.3641287047516926
 51
297.8036580387931735
  0
ARC
  5
1872C
  8
0
 10
8898.8010091377727804
 20
2545.0358723566641856
 30
0.0
 40
0.0518837271514924
 50
299.5019059203887082
 51
341.8953821273635185
  0
ARC
  5
1872D
  8
0
 10
8898.7927986133599916
 20
2545.0390171728568021
 30
0.0
 40
0.0606665941341913
 50
341.4820238376860857
 51
11.6941364898355005
  0
CIRCLE
  5
1872E
  8
0
 10
8898.6830681245537562
 20
2544.9220157388431289
 30
0.0
 40
0.0210314967061509
  0
CIRCLE
  5
1872F
  8
0
 10
8898.6830681245537562
 20
2544.9220157388431289
 30
0.0
 40
0.0406031598599277
  0
CIRCLE
  5
18730
  8
0
 10
8898.6782204150695179
 20
2544.9143645852068403
 30
0.0
 40
0.0553527108374539
  0
CIRCLE
  5
18731
  8
0
 10
8898.6782204150695179
 20
2544.9143645852068403
 30
0.0
 40
0.0641862490288077
  0
CIRCLE
  5
18732
  8
0
 10
8898.8108416800259874
 20
2544.7951390328380512
 30
0.0
 40
0.0219145891738826
  0
CIRCLE
  5
18733
  8
0
 10
8898.8108416800259874
 20
2544.7951390328380512
 30
0.0
 40
0.0414944488494512
  0
CIRCLE
  5
18734
  8
0
 10
8898.8049977421160293
 20
2544.7895744604998072
 30
0.0
 40
0.0629921260000011
  0
ARC
  5
18735
  8
0
 10
8898.7994634604729072
 20
2544.7936913905891743
 30
0.0
 40
0.050648153078046
 50
40.1976775789583201
 51
89.6008010986691943
  0
ARC
  5
18736
  8
0
 10
8898.7998429956296604
 20
2544.7947005221781183
 30
0.0
 40
0.0496377993252191
 50
90.0307676682143381
 51
127.8121895788541025
  0
ARC
  5
18737
  8
0
 10
8898.8038305886766466
 20
2544.790051824963939
 30
0.0
 40
0.0557558873487792
 50
128.1207806688749997
 51
175.8072588539434093
  0
ARC
  5
18738
  8
0
 10
8898.8077749530311849
 20
2544.7896358204961871
 30
0.0
 40
0.0597202444449841
 50
175.6858833743168873
 51
232.3641287047516926
  0
ARC
  5
18739
  8
0
 10
8898.8026421379563544
 20
2544.7829793493119723
 30
0.0
 40
0.0513146273217282
 50
232.3641287047516926
 51
297.8036580387931735
  0
ARC
  5
1873A
  8
0
 10
8898.8010272208248352
 20
2544.7827453818467802
 30
0.0
 40
0.0518837271514924
 50
299.5019059203887082
 51
341.8953821273635185
  0
ARC
  5
1873B
  8
0
 10
8898.7928166964138654
 20
2544.7858901980412156
 30
0.0
 40
0.0606665941341913
 50
341.4820238376860857
 51
11.6941364898355005
  0
CIRCLE
  5
1873C
  8
0
 10
8898.683101404867557
 20
2544.6688826690538008
 30
0.0
 40
0.0210314967061509
  0
CIRCLE
  5
1873D
  8
0
 10
8898.683101404867557
 20
2544.6688826690538008
 30
0.0
 40
0.0406031598599277
  0
CIRCLE
  5
1873E
  8
0
 10
8898.6782536953814997
 20
2544.6612315154179669
 30
0.0
 40
0.0553527108374539
  0
CIRCLE
  5
1873F
  8
0
 10
8898.6782536953814997
 20
2544.6612315154179669
 30
0.0
 40
0.0641862490288077
  0
CIRCLE
  5
18740
  8
0
 10
8898.8108749603397882
 20
2544.5420059630491778
 30
0.0
 40
0.0219145891738826
  0
CIRCLE
  5
18741
  8
0
 10
8898.8108749603397882
 20
2544.5420059630491778
 30
0.0
 40
0.0414944488494512
  0
CIRCLE
  5
18742
  8
0
 10
8898.80503102242983
 20
2544.5364413907109338
 30
0.0
 40
0.0629921260000011
  0
ARC
  5
18743
  8
0
 10
8898.799496740784889
 20
2544.5405583207989366
 30
0.0
 40
0.050648153078046
 50
40.1976775789583201
 51
89.6008010986691943
  0
ARC
  5
18744
  8
0
 10
8898.7998762759416422
 20
2544.5415674523878806
 30
0.0
 40
0.0496377993252191
 50
90.0307676682143381
 51
127.8121895788541025
  0
ARC
  5
18745
  8
0
 10
8898.8038638689886284
 20
2544.5369187551750656
 30
0.0
 40
0.0557558873487792
 50
128.1207806688749997
 51
175.8072588539434093
  0
ARC
  5
18746
  8
0
 10
8898.8078082333431666
 20
2544.5365027507082232
 30
0.0
 40
0.0597202444449841
 50
175.6858833743168873
 51
232.3641287047516926
  0
ARC
  5
18747
  8
0
 10
8898.8026754182683362
 20
2544.5298462795230989
 30
0.0
 40
0.0513146273217282
 50
232.3641287047516926
 51
297.8036580387931735
  0
ARC
  5
18748
  8
0
 10
8898.801060501136817
 20
2544.5296123120579068
 30
0.0
 40
0.0518837271514924
 50
299.5019059203887082
 51
341.8953821273635185
  0
ARC
  5
18749
  8
0
 10
8898.7928499767276662
 20
2544.5327571282518875
 30
0.0
 40
0.0606665941341913
 50
341.4820238376860857
 51
11.6941364898355005
  0
CIRCLE
  5
1874A
  8
0
 10
8898.6831297755888954
 20
2544.4157427984800961
 30
0.0
 40
0.0210314967061509
  0
CIRCLE
  5
1874B
  8
0
 10
8898.6831297755888954
 20
2544.4157427984800961
 30
0.0
 40
0.0406031598599277
  0
CIRCLE
  5
1874C
  8
0
 10
8898.6782820661046571
 20
2544.4080916448438074
 30
0.0
 40
0.0553527108374539
  0
CIRCLE
  5
1874D
  8
0
 10
8898.6782820661046571
 20
2544.4080916448438074
 30
0.0
 40
0.0641862490288077
  0
CIRCLE
  5
1874E
  8
0
 10
8898.8109033310574887
 20
2544.2888660924750184
 30
0.0
 40
0.0219145891738826
  0
CIRCLE
  5
1874F
  8
0
 10
8898.8109033310574887
 20
2544.2888660924750184
 30
0.0
 40
0.0414944488494512
  0
CIRCLE
  5
18750
  8
0
 10
8898.8050593931493495
 20
2544.2833015201367743
 30
0.0
 40
0.0629921260000011
  0
ARC
  5
18751
  8
0
 10
8898.7995251115062274
 20
2544.2874184502261414
 30
0.0
 40
0.050648153078046
 50
40.1976775789583201
 51
89.6008010986691943
  0
ARC
  5
18752
  8
0
 10
8898.7999046466629807
 20
2544.2884275818150854
 30
0.0
 40
0.0496377993252191
 50
90.0307676682143381
 51
127.8121895788541025
  0
ARC
  5
18753
  8
0
 10
8898.8038922397099668
 20
2544.2837788846009062
 30
0.0
 40
0.0557558873487792
 50
128.1207806688749997
 51
175.8072588539434093
  0
ARC
  5
18754
  8
0
 10
8898.8078366040645051
 20
2544.2833628801340637
 30
0.0
 40
0.0597202444449841
 50
175.6858833743168873
 51
232.3641287047516926
  0
ARC
  5
18755
  8
0
 10
8898.8027037889896746
 20
2544.2767064089489395
 30
0.0
 40
0.0513146273217282
 50
232.3641287047516926
 51
297.8036580387931735
  0
ARC
  5
18756
  8
0
 10
8898.8010888718581555
 20
2544.2764724414851116
 30
0.0
 40
0.0518837271514924
 50
299.5019059203887082
 51
341.8953821273635185
  0
ARC
  5
18757
  8
0
 10
8898.7928783474471857
 20
2544.2796172576781828
 30
0.0
 40
0.0606665941341913
 50
341.4820238376860857
 51
11.6941364898355005
  0
CIRCLE
  5
18758
  8
0
 10
8898.6831594105278782
 20
2544.162596278500132
 30
0.0
 40
0.0210314967061509
  0
CIRCLE
  5
18759
  8
0
 10
8898.6831594105278782
 20
2544.162596278500132
 30
0.0
 40
0.0406031598599277
  0
CIRCLE
  5
1875A
  8
0
 10
8898.6783117010400019
 20
2544.1549451248629339
 30
0.0
 40
0.0553527108374539
  0
CIRCLE
  5
1875B
  8
0
 10
8898.6783117010400019
 20
2544.1549451248629339
 30
0.0
 40
0.0641862490288077
  0
CIRCLE
  5
1875C
  8
0
 10
8898.8109329659982905
 20
2544.0357195724941448
 30
0.0
 40
0.0219145891738826
  0
CIRCLE
  5
1875D
  8
0
 10
8898.8109329659982905
 20
2544.0357195724941448
 30
0.0
 40
0.0414944488494512
  0
CIRCLE
  5
1875E
  8
0
 10
8898.8050890280883323
 20
2544.0301550001568103
 30
0.0
 40
0.0629921260000011
  0
ARC
  5
1875F
  8
0
 10
8898.7995547464433912
 20
2544.0342719302448131
 30
0.0
 40
0.050648153078046
 50
40.1976775789583201
 51
89.6008010986691943
  0
ARC
  5
18760
  8
0
 10
8898.7999342816037824
 20
2544.0352810618342119
 30
0.0
 40
0.0496377993252191
 50
90.0307676682143381
 51
127.8121895788541025
  0
ARC
  5
18761
  8
0
 10
8898.8039218746471306
 20
2544.0306323646200326
 30
0.0
 40
0.0557558873487792
 50
128.1207806688749997
 51
175.8072588539434093
  0
ARC
  5
18762
  8
0
 10
8898.8078662390016689
 20
2544.0302163601540997
 30
0.0
 40
0.0597202444449841
 50
175.6858833743168873
 51
232.3641287047516926
  0
ARC
  5
18763
  8
0
 10
8898.8027334239268384
 20
2544.0235598889689754
 30
0.0
 40
0.0513146273217282
 50
232.3641287047516926
 51
297.8036580387931735
  0
ARC
  5
18764
  8
0
 10
8898.8011185067953193
 20
2544.0233259215037833
 30
0.0
 40
0.0518837271514924
 50
299.5019059203887082
 51
341.8953821273635185
  0
ARC
  5
18765
  8
0
 10
8898.7929079823843495
 20
2544.0264707376968545
 30
0.0
 40
0.0606665941341913
 50
341.4820238376860857
 51
11.6941364898355005
  0
CIRCLE
  5
18766
  8
0
 10
8898.683160842045254
 20
2543.9106277744381259
 30
0.0
 40
0.0210314967061509
  0
CIRCLE
  5
18767
  8
0
 10
8898.683160842045254
 20
2543.9106277744381259
 30
0.0
 40
0.0406031598599277
  0
CIRCLE
  5
18768
  8
0
 10
8898.6783131325591967
 20
2543.9029766208018373
 30
0.0
 40
0.0553527108374539
  0
CIRCLE
  5
18769
  8
0
 10
8898.6783131325591967
 20
2543.9029766208018373
 30
0.0
 40
0.0641862490288077
  0
CIRCLE
  5
1876A
  8
0
 10
8898.8109343975174852
 20
2543.7837510684330482
 30
0.0
 40
0.0219145891738826
  0
CIRCLE
  5
1876B
  8
0
 10
8898.8109343975174852
 20
2543.7837510684330482
 30
0.0
 40
0.0414944488494512
  0
CIRCLE
  5
1876C
  8
0
 10
8898.805090459607527
 20
2543.7781864960948042
 30
0.0
 40
0.0629921260000011
  0
ARC
  5
1876D
  8
0
 10
8898.7995561779625859
 20
2543.7823034261841713
 30
0.0
 40
0.050648153078046
 50
40.1976775789583201
 51
89.6008010986691943
  0
ARC
  5
1876E
  8
0
 10
8898.7999357131211582
 20
2543.7833125577722058
 30
0.0
 40
0.0496377993252191
 50
90.0307676682143381
 51
127.8121895788541025
  0
ARC
  5
1876F
  8
0
 10
8898.8039233061663253
 20
2543.778663860558936
 30
0.0
 40
0.0557558873487792
 50
128.1207806688749997
 51
175.8072588539434093
  0
ARC
  5
18770
  8
0
 10
8898.8078676705208636
 20
2543.7782478560911841
 30
0.0
 40
0.0597202444449841
 50
175.6858833743168873
 51
232.3641287047516926
  0
ARC
  5
18771
  8
0
 10
8898.8027348554478522
 20
2543.7715913849069693
 30
0.0
 40
0.0513146273217282
 50
232.3641287047516926
 51
297.8036580387931735
  0
ARC
  5
18772
  8
0
 10
8898.801119938314514
 20
2543.7713574174431415
 30
0.0
 40
0.0518837271514924
 50
299.5019059203887082
 51
341.8953821273635185
  0
ARC
  5
18773
  8
0
 10
8898.7929094139053632
 20
2543.7745022336348484
 30
0.0
 40
0.0606665941341913
 50
341.4820238376860857
 51
11.6941364898355005
  0
CIRCLE
  5
18774
  8
0
 10
8898.6831934869187535
 20
2543.6574751231842129
 30
0.0
 40
0.0210314967061509
  0
CIRCLE
  5
18775
  8
0
 10
8898.6831934869187535
 20
2543.6574751231842129
 30
0.0
 40
0.0406031598599277
  0
CIRCLE
  5
18776
  8
0
 10
8898.6783457774308772
 20
2543.6498239695470147
 30
0.0
 40
0.0553527108374539
  0
CIRCLE
  5
18777
  8
0
 10
8898.6783457774308772
 20
2543.6498239695470147
 30
0.0
 40
0.0641862490288077
  0
CIRCLE
  5
18778
  8
0
 10
8898.8109670423928037
 20
2543.5305984171791351
 30
0.0
 40
0.0219145891738826
  0
CIRCLE
  5
18779
  8
0
 10
8898.8109670423928037
 20
2543.5305984171791351
 30
0.0
 40
0.0414944488494512
  0
CIRCLE
  5
1877A
  8
0
 10
8898.8051231044792075
 20
2543.5250338448408911
 30
0.0
 40
0.0629921260000011
  0
ARC
  5
1877B
  8
0
 10
8898.7995888228379044
 20
2543.5291507749298034
 30
0.0
 40
0.050648153078046
 50
40.1976775789583201
 51
89.6008010986691943
  0
ARC
  5
1877C
  8
0
 10
8898.7999683579946577
 20
2543.5301599065192022
 30
0.0
 40
0.0496377993252191
 50
90.0307676682143381
 51
127.8121895788541025
  0
ARC
  5
1877D
  8
0
 10
8898.8039559510416439
 20
2543.5255112093050229
 30
0.0
 40
0.0557558873487792
 50
128.1207806688749997
 51
175.8072588539434093
  0
ARC
  5
1877E
  8
0
 10
8898.8079003153961821
 20
2543.5250952048381805
 30
0.0
 40
0.0597202444449841
 50
175.6858833743168873
 51
232.3641287047516926
  0
ARC
  5
1877F
  8
0
 10
8898.8027675003195327
 20
2543.5184387336530563
 30
0.0
 40
0.0513146273217282
 50
232.3641287047516926
 51
297.8036580387931735
  0
ARC
  5
18780
  8
0
 10
8898.8011525831898325
 20
2543.5182047661887736
 30
0.0
 40
0.0518837271514924
 50
299.5019059203887082
 51
341.8953821273635185
  0
ARC
  5
18781
  8
0
 10
8898.7929420587788627
 20
2543.5213495823809353
 30
0.0
 40
0.0606665941341913
 50
341.4820238376860857
 51
11.6941364898355005
  0
CIRCLE
  5
18782
  8
0
 10
8898.6832226701026229
 20
2543.4043157189998965
 30
0.0
 40
0.0210314967061509
  0
CIRCLE
  5
18783
  8
0
 10
8898.6832226701026229
 20
2543.4043157189998965
 30
0.0
 40
0.0406031598599277
  0
CIRCLE
  5
18784
  8
0
 10
8898.6783749606147467
 20
2543.3966645653631531
 30
0.0
 40
0.0553527108374539
  0
CIRCLE
  5
18785
  8
0
 10
8898.6783749606147467
 20
2543.3966645653631531
 30
0.0
 40
0.0641862490288077
  0
CIRCLE
  5
18786
  8
0
 10
8898.8109962255748542
 20
2543.2774390129939093
 30
0.0
 40
0.0219145891738826
  0
CIRCLE
  5
18787
  8
0
 10
8898.8109962255748542
 20
2543.2774390129939093
 30
0.0
 40
0.0414944488494512
  0
CIRCLE
  5
18788
  8
0
 10
8898.805152287661258
 20
2543.27187444065612
 30
0.0
 40
0.0629921260000011
  0
ARC
  5
18789
  8
0
 10
8898.7996180060217739
 20
2543.2759913707450323
 30
0.0
 40
0.050648153078046
 50
40.1976775789583201
 51
89.6008010986691943
  0
ARC
  5
1878A
  8
0
 10
8898.7999975411785272
 20
2543.2770005023339763
 30
0.0
 40
0.0496377993252191
 50
90.0307676682143381
 51
127.8121895788541025
  0
ARC
  5
1878B
  8
0
 10
8898.8039851342236943
 20
2543.2723518051211613
 30
0.0
 40
0.0557558873487792
 50
128.1207806688749997
 51
175.8072588539434093
  0
ARC
  5
1878C
  8
0
 10
8898.8079294985782326
 20
2543.2719358006529546
 30
0.0
 40
0.0597202444449841
 50
175.6858833743168873
 51
232.3641287047516926
  0
ARC
  5
1878D
  8
0
 10
8898.8027966835034022
 20
2543.2652793294678304
 30
0.0
 40
0.0513146273217282
 50
232.3641287047516926
 51
297.8036580387931735
  0
ARC
  5
1878E
  8
0
 10
8898.801181766371883
 20
2543.2650453620040025
 30
0.0
 40
0.0518837271514924
 50
299.5019059203887082
 51
341.8953821273635185
  0
ARC
  5
1878F
  8
0
 10
8898.7929712419609132
 20
2543.2681901781970737
 30
0.0
 40
0.0606665941341913
 50
341.4820238376860857
 51
11.6941364898355005
  0
CIRCLE
  5
18790
  8
0
 10
8898.6832602498652705
 20
2543.1511496482671646
 30
0.0
 40
0.0210314967061509
  0
CIRCLE
  5
18791
  8
0
 10
8898.6832602498652705
 20
2543.1511496482671646
 30
0.0
 40
0.0406031598599277
  0
CIRCLE
  5
18792
  8
0
 10
8898.6784125403792132
 20
2543.1434984946308759
 30
0.0
 40
0.0553527108374539
  0
CIRCLE
  5
18793
  8
0
 10
8898.6784125403792132
 20
2543.1434984946308759
 30
0.0
 40
0.0641862490288077
  0
CIRCLE
  5
18794
  8
0
 10
8898.8110338053356827
 20
2543.0242729422620869
 30
0.0
 40
0.0219145891738826
  0
CIRCLE
  5
18795
  8
0
 10
8898.8110338053356827
 20
2543.0242729422620869
 30
0.0
 40
0.0414944488494512
  0
CIRCLE
  5
18796
  8
0
 10
8898.8051898674257245
 20
2543.0187083699238428
 30
0.0
 40
0.0629921260000011
  0
ARC
  5
18797
  8
0
 10
8898.7996555857826024
 20
2543.0228253000132099
 30
0.0
 40
0.050648153078046
 50
40.1976775789583201
 51
89.6008010986691943
  0
ARC
  5
18798
  8
0
 10
8898.8000351209393557
 20
2543.0238344316021539
 30
0.0
 40
0.0496377993252191
 50
90.0307676682143381
 51
127.8121895788541025
  0
ARC
  5
18799
  8
0
 10
8898.8040227139863418
 20
2543.0191857343879747
 30
0.0
 40
0.0557558873487792
 50
128.1207806688749997
 51
175.8072588539434093
  0
ARC
  5
1879A
  8
0
 10
8898.8079670783408801
 20
2543.0187697299211322
 30
0.0
 40
0.0597202444449841
 50
175.6858833743168873
 51
232.3641287047516926
  0
ARC
  5
1879B
  8
0
 10
8898.8028342632660497
 20
2543.012113258736008
 30
0.0
 40
0.0513146273217282
 50
232.3641287047516926
 51
297.8036580387931735
  0
ARC
  5
1879C
  8
0
 10
8898.8012193461345305
 20
2543.0118792912708159
 30
0.0
 40
0.0518837271514924
 50
299.5019059203887082
 51
341.8953821273635185
  0
ARC
  5
1879D
  8
0
 10
8898.7930088217253797
 20
2543.0150241074647965
 30
0.0
 40
0.0606665941341913
 50
341.4820238376860857
 51
11.6941364898355005
  0
CIRCLE
  5
1879E
  8
0
 10
8898.6832877412871312
 20
2542.8979773735359231
 30
0.0
 40
0.0210314967061509
  0
CIRCLE
  5
1879F
  8
0
 10
8898.6832877412871312
 20
2542.8979773735359231
 30
0.0
 40
0.0406031598599277
  0
CIRCLE
  5
187A0
  8
0
 10
8898.6784400318010739
 20
2542.8903262198991797
 30
0.0
 40
0.0553527108374539
  0
CIRCLE
  5
187A1
  8
0
 10
8898.6784400318010739
 20
2542.8903262198991797
 30
0.0
 40
0.0641862490288077
  0
CIRCLE
  5
187A2
  8
0
 10
8898.8110612967593624
 20
2542.7711006675308454
 30
0.0
 40
0.0219145891738826
  0
CIRCLE
  5
187A3
  8
0
 10
8898.8110612967593624
 20
2542.7711006675308454
 30
0.0
 40
0.0414944488494512
  0
CIRCLE
  5
187A4
  8
0
 10
8898.8052173588494043
 20
2542.7655360951930561
 30
0.0
 40
0.0629921260000011
  0
ARC
  5
187A5
  8
0
 10
8898.7996830772044632
 20
2542.7696530252819684
 30
0.0
 40
0.050648153078046
 50
40.1976775789583201
 51
89.6008010986691943
  0
ARC
  5
187A6
  8
0
 10
8898.8000626123648544
 20
2542.7706621568700029
 30
0.0
 40
0.0496377993252191
 50
90.0307676682143381
 51
127.8121895788541025
  0
ARC
  5
187A7
  8
0
 10
8898.8040502054082026
 20
2542.7660134596571879
 30
0.0
 40
0.0557558873487792
 50
128.1207806688749997
 51
175.8072588539434093
  0
ARC
  5
187A8
  8
0
 10
8898.8079945697627409
 20
2542.7655974551889813
 30
0.0
 40
0.0597202444449841
 50
175.6858833743168873
 51
232.3641287047516926
  0
ARC
  5
187A9
  8
0
 10
8898.8028617546860914
 20
2542.7589409840052213
 30
0.0
 40
0.0513146273217282
 50
232.3641287047516926
 51
297.8036580387931735
  0
ARC
  5
187AA
  8
0
 10
8898.8012468375563913
 20
2542.7587070165400291
 30
0.0
 40
0.0518837271514924
 50
299.5019059203887082
 51
341.8953821273635185
  0
ARC
  5
187AB
  8
0
 10
8898.7930363131454214
 20
2542.7618518327331003
 30
0.0
 40
0.0606665941341913
 50
341.4820238376860857
 51
11.6941364898355005
  0
LINE
  5
187AC
  8
0
 10
8898.6752854096721421
 20
2545.4477282963689504
 30
0.0
 11
8898.6752854096721421
 21
2545.4088203277028697
 31
0.0
  0
LINE
  5
187AD
  8
0
 10
8898.6700901637559582
 20
2545.4446581403981327
 30
0.0
 11
8898.6686611686327524
 21
2545.4131514880032228
 31
0.0
  0
LINE
  5
187AE
  8
0
 10
8898.6752854096721421
 20
2545.1946884125809447
 30
0.0
 11
8898.6752854096721421
 21
2545.1555970147392145
 31
0.0
  0
LINE
  5
187AF
  8
0
 10
8898.6686423992741766
 20
2545.1904640614848176
 30
0.0
 11
8898.6686423992741766
 21
2545.1598213658339773
 31
0.0
  0
LINE
  5
187B0
  8
0
 10
8898.6752854096721421
 20
2544.9415542444871789
 30
0.0
 11
8898.6752854096721421
 21
2544.9060692541929711
 31
0.0
  0
LINE
  5
187B1
  8
0
 10
8898.6693555944821128
 20
2544.9060692541929711
 30
0.0
 11
8898.6967806546272186
 21
2544.9060692541929711
 31
0.0
  0
LINE
  5
187B2
  8
0
 10
8898.6752854096721421
 20
2544.9060692541929711
 30
0.0
 11
8898.6728496548057592
 21
2544.903633499325224
 31
0.0
  0
LINE
  5
187B3
  8
0
 10
8898.6686423992741766
 20
2544.9067114157978722
 30
0.0
 11
8898.6686423992741766
 21
2544.9373200618879309
 31
0.0
  0
ARC
  5
187B4
  8
0
 10
8898.7933956458746252
 20
2544.7308724037930006
 30
0.0
 40
0.0658783965999752
 50
55.7778716752476029
 51
93.8467424031259299
  0
LINE
  5
187B5
  8
0
 10
8898.6709554541757825
 20
2544.6860524021758465
 30
0.0
 11
8898.6709554541757825
 21
2544.6517129359322098
 31
0.0
  0
LINE
  5
187B6
  8
0
 10
8898.6686423992741766
 20
2544.6841555538821922
 30
0.0
 11
8898.6686423992741766
 21
2544.6536097842258641
 31
0.0
  0
ARC
  5
187B7
  8
0
 10
8898.7933956458746252
 20
2544.6009511438928712
 30
0.0
 40
0.0658783966000065
 50
267.0959407498368137
 51
305.9379356218631187
  0
LINE
  5
187B8
  8
0
 10
8898.7006636928254011
 20
2544.427356824483013
 30
0.0
 11
8898.6686423992741766
 21
2544.4269852987931699
 31
0.0
  0
LINE
  5
187B9
  8
0
 10
8898.6686423992741766
 20
2544.4269852987931699
 30
0.0
 11
8898.6686423992741766
 21
2544.4309887743838772
 31
0.0
  0
LINE
  5
187BA
  8
0
 10
8898.6686423992123309
 20
2544.4269852988359162
 30
0.0
 11
8898.6752854096721421
 21
2544.4336283092929989
 31
0.0
  0
LINE
  5
187BB
  8
0
 10
8898.6752854096721421
 20
2544.4336283092929989
 30
0.0
 11
8898.6941946911629202
 21
2544.4336283092929989
 31
0.0
  0
LINE
  5
187BC
  8
0
 10
8898.6752854096721421
 20
2544.4336283092929989
 30
0.0
 11
8898.6752854096721421
 21
2544.4352566340107842
 31
0.0
  0
LINE
  5
187BD
  8
0
 10
8898.6921779347412667
 20
2544.3967571547032094
 30
0.0
 11
8898.6740816164347052
 21
2544.3967571547032094
 31
0.0
  0
ARC
  5
187BE
  8
0
 10
8898.7933956458746252
 20
2544.2229983879929023
 30
0.0
 40
0.0658783966000058
 50
56.3945590018182088
 51
93.8352657791522375
  0
LINE
  5
187BF
  8
0
 10
8898.6709554541757825
 20
2544.1797248307761947
 30
0.0
 11
8898.6709554541757825
 21
2544.1454677262240693
 31
0.0
  0
LINE
  5
187C0
  8
0
 10
8898.6686423992741766
 20
2544.177814039112036
 30
0.0
 11
8898.6686423992741766
 21
2544.1473785178877733
 31
0.0
  0
ARC
  5
187C1
  8
0
 10
8898.7933956458746252
 20
2544.0930771281928173
 30
0.0
 40
0.065878396599976
 50
267.6722109470978239
 51
306.330265686453572
  0
LINE
  5
187C2
  8
0
 10
8898.6992534928904206
 20
2543.924168470227869
 30
0.0
 11
8898.6686423992741766
 21
2543.924523288193086
 31
0.0
  0
LINE
  5
187C3
  8
0
 10
8898.6686423992741766
 20
2543.924523288193086
 30
0.0
 11
8898.6752854096721421
 21
2543.9178802777928468
 31
0.0
  0
LINE
  5
187C4
  8
0
 10
8898.6752854096721421
 20
2543.9178802777928468
 30
0.0
 11
8898.6752854096721421
 21
2543.8911264560551899
 31
0.0
  0
LINE
  5
187C5
  8
0
 10
8898.6752854096721421
 20
2543.9178802777928468
 30
0.0
 11
8898.7029022971291852
 21
2543.9178802777928468
 31
0.0
  0
LINE
  5
187C6
  8
0
 10
8898.6686423992741766
 20
2543.924523288193086
 30
0.0
 11
8898.6686423992741766
 21
2543.895411379556208
 31
0.0
  0
LINE
  5
187C7
  8
0
 10
8898.6947198774450953
 20
2543.6398834724609515
 30
0.0
 11
8898.6720859328779625
 21
2543.639616061146171
 31
0.0
  0
LINE
  5
187C8
  8
0
 10
8898.7009641820532124
 20
2543.6462267344932116
 30
0.0
 11
8898.6752854096721421
 21
2543.6462267344932116
 31
0.0
  0
LINE
  5
187C9
  8
0
 10
8898.6752854096721421
 20
2543.6462267344932116
 30
0.0
 11
8898.6752854096721421
 21
2543.6769632264267784
 31
0.0
  0
LINE
  5
187CA
  8
0
 10
8898.6686423992741766
 20
2543.6726603035272092
 30
0.0
 11
8898.6686423992741766
 21
2543.6422899428412165
 31
0.0
  0
LINE
  5
187CB
  8
0
 10
8898.6752854096721421
 20
2543.6462267344932116
 30
0.0
 11
8898.6700862102989049
 21
2543.6410275351158816
 31
0.0
  0
ARC
  5
187CC
  8
0
 10
8898.7933956458746252
 20
2543.4710298840927862
 30
0.0
 40
0.0658783965999775
 50
54.1352898233763966
 51
92.9949290426119148
  0
LINE
  5
187CD
  8
0
 10
8898.6709554541757825
 20
2543.4213990227522117
 30
0.0
 11
8898.6709554541757825
 21
2543.3872324152471265
 31
0.0
  0
LINE
  5
187CE
  8
0
 10
8898.6686423992741766
 20
2543.4194728808811305
 30
0.0
 11
8898.6686423992741766
 21
2543.3891585571182077
 31
0.0
  0
ARC
  5
187CF
  8
0
 10
8898.7933956458746252
 20
2543.3411086241931116
 30
0.0
 40
0.0658783965999817
 50
266.3310397589791023
 51
304.5744023628262198
  0
LINE
  5
187D0
  8
0
 10
8898.6982403534584591
 20
2543.165911773793141
 30
0.0
 11
8898.6686423992741766
 21
2543.165911773793141
 31
0.0
  0
LINE
  5
187D1
  8
0
 10
8898.6752854096721421
 20
2543.165911773793141
 30
0.0
 11
8898.6752854096721421
 21
2543.1316887701359519
 31
0.0
  0
LINE
  5
187D2
  8
0
 10
8898.6752854096721421
 20
2543.165911773793141
 30
0.0
 11
8898.6721747656756634
 21
2543.169022417890119
 31
0.0
  0
LINE
  5
187D3
  8
0
 10
8898.6686423992741766
 20
2543.165911773793141
 30
0.0
 11
8898.6686423992741766
 21
2543.1360287257480195
 31
0.0
  0
LINE
  5
187D4
  8
0
 10
8898.6752854096721421
 20
2542.9174269633122094
 30
0.0
 11
8898.6752854096721421
 21
2542.8785277837591821
 31
0.0
  0
LINE
  5
187D5
  8
0
 10
8898.6686423992741766
 20
2542.9130716708377804
 30
0.0
 11
8898.6686423992741766
 21
2542.8828830762331563
 31
0.0
  0
LINE
  5
187D6
  8
0
 10
8898.8329477402949124
 20
2542.77221098639302
 30
0.0
 11
8898.7891748532219935
 21
2542.77221098639302
 31
0.0
  0
LINE
  5
187D7
  8
0
 10
8898.8328390122369456
 20
2542.7686551967822197
 30
0.0
 11
8898.7893550724493252
 21
2542.7680858632252239
 31
0.0
  0
LINE
  5
187D8
  8
0
 10
8898.8052066695745452
 20
2542.7682934075778576
 30
0.0
 11
8898.8052066695745452
 21
2542.7499826051380296
 31
0.0
  0
LINE
  5
187D9
  8
0
 10
8898.6752854096721421
 20
2542.663931627679176
 30
0.0
 11
8898.6752854096721421
 21
2542.6244963078302135
 31
0.0
  0
LINE
  5
187DA
  8
0
 10
8898.6686357925518678
 20
2542.6593890348258356
 30
0.0
 11
8898.6700720919088781
 21
2542.6277213371690777
 31
0.0
  0
CIRCLE
  5
187DB
  8
0
 10
8898.6838788401109923
 20
2542.6442139677537853
 30
0.0
 40
0.0215089088415539
  0
CIRCLE
  5
187DC
  8
0
 10
8898.6838788401109923
 20
2542.6442139677537853
 30
0.0
 40
0.0412275532861836
  0
CIRCLE
  5
187DD
  8
0
 10
8898.6784746586545225
 20
2542.6513515168639969
 30
0.0
 40
0.0553428916806134
  0
CIRCLE
  5
187DE
  8
0
 10
8898.5532381656248617
 20
2545.0481922974890949
 30
0.0
 40
0.0216934947291918
  0
CIRCLE
  5
187DF
  8
0
 10
8898.5532381656248617
 20
2545.0481922974890949
 30
0.0
 40
0.0413033687885199
  0
CIRCLE
  5
187E0
  8
0
 10
8898.5532381656266807
 20
2545.0411726469678797
 30
0.0
 40
0.0553929292499973
  0
CIRCLE
  5
187E1
  8
0
 10
8898.5532381656266807
 20
2545.0411726469678797
 30
0.0
 40
0.0642286144499985
  0
CIRCLE
  5
187E2
  8
0
 10
8898.5532381656248617
 20
2544.795073568798216
 30
0.0
 40
0.0216934947291918
  0
CIRCLE
  5
187E3
  8
0
 10
8898.5532381656248617
 20
2544.795073568798216
 30
0.0
 40
0.0413033687885199
  0
CIRCLE
  5
187E4
  8
0
 10
8898.5532381656266807
 20
2544.7880539182770008
 30
0.0
 40
0.0553929292499973
  0
CIRCLE
  5
187E5
  8
0
 10
8898.5532381656266807
 20
2544.7880539182770008
 30
0.0
 40
0.0642286144499985
  0
CIRCLE
  5
187E6
  8
0
 10
8898.5532381656248617
 20
2544.5413043721600843
 30
0.0
 40
0.0216934947291918
  0
CIRCLE
  5
187E7
  8
0
 10
8898.5532381656248617
 20
2544.5413043721600843
 30
0.0
 40
0.0413033687885199
  0
CIRCLE
  5
187E8
  8
0
 10
8898.5532381656266807
 20
2544.5342847216397786
 30
0.0
 40
0.0553929292499973
  0
CIRCLE
  5
187E9
  8
0
 10
8898.5532381656266807
 20
2544.5342847216397786
 30
0.0
 40
0.0642286144499985
  0
CIRCLE
  5
187EA
  8
0
 10
8898.5532381656212237
 20
2544.2879585333289469
 30
0.0
 40
0.0216934947291918
  0
CIRCLE
  5
187EB
  8
0
 10
8898.5532381656212237
 20
2544.2879585333289469
 30
0.0
 40
0.0413033687885199
  0
CIRCLE
  5
187EC
  8
0
 10
8898.5532381656248617
 20
2544.2809388828081865
 30
0.0
 40
0.0553929292499973
  0
CIRCLE
  5
187ED
  8
0
 10
8898.5532381656248617
 20
2544.2809388828081865
 30
0.0
 40
0.0642286144499985
  0
CIRCLE
  5
187EE
  8
0
 10
8898.5532381656212237
 20
2544.0360555742281576
 30
0.0
 40
0.0216934947291918
  0
CIRCLE
  5
187EF
  8
0
 10
8898.5532381656212237
 20
2544.0360555742281576
 30
0.0
 40
0.0413033687885199
  0
CIRCLE
  5
187F0
  8
0
 10
8898.5532381656248617
 20
2544.0290359237069424
 30
0.0
 40
0.0553929292499973
  0
CIRCLE
  5
187F1
  8
0
 10
8898.5532381656248617
 20
2544.0290359237069424
 30
0.0
 40
0.0642286144499985
  0
CIRCLE
  5
187F2
  8
0
 10
8898.5532381656212237
 20
2543.7839769817128399
 30
0.0
 40
0.0216934947291918
  0
CIRCLE
  5
187F3
  8
0
 10
8898.5532381656212237
 20
2543.7839769817128399
 30
0.0
 40
0.0413033687885199
  0
CIRCLE
  5
187F4
  8
0
 10
8898.5532381656248617
 20
2543.7769573311920794
 30
0.0
 40
0.0553929292499973
  0
CIRCLE
  5
187F5
  8
0
 10
8898.5532381656248617
 20
2543.7769573311920794
 30
0.0
 40
0.0642286144499985
  0
CIRCLE
  5
187F6
  8
0
 10
8898.5532381656212237
 20
2543.5306060523930682
 30
0.0
 40
0.0216934947291918
  0
CIRCLE
  5
187F7
  8
0
 10
8898.5532381656212237
 20
2543.5306060523930682
 30
0.0
 40
0.0413033687885199
  0
CIRCLE
  5
187F8
  8
0
 10
8898.5532381656248617
 20
2543.523586401871853
 30
0.0
 40
0.0553929292499973
  0
CIRCLE
  5
187F9
  8
0
 10
8898.5532381656248617
 20
2543.523586401871853
 30
0.0
 40
0.0642286144499985
  0
CIRCLE
  5
187FA
  8
0
 10
8898.5532381656212237
 20
2543.2778705131681818
 30
0.0
 40
0.0216934947291918
  0
CIRCLE
  5
187FB
  8
0
 10
8898.5532381656212237
 20
2543.2778705131681818
 30
0.0
 40
0.0413033687885199
  0
CIRCLE
  5
187FC
  8
0
 10
8898.5532381656248617
 20
2543.2708508626469666
 30
0.0
 40
0.0553929292499973
  0
CIRCLE
  5
187FD
  8
0
 10
8898.5532381656248617
 20
2543.2708508626469666
 30
0.0
 40
0.0642286144499985
  0
CIRCLE
  5
187FE
  8
0
 10
8898.5532381656212237
 20
2543.0236393217310251
 30
0.0
 40
0.0216934947291918
  0
CIRCLE
  5
187FF
  8
0
 10
8898.5532381656212237
 20
2543.0236393217310251
 30
0.0
 40
0.0413033687885199
  0
CIRCLE
  5
18800
  8
0
 10
8898.5532381656248617
 20
2543.0166196712098099
 30
0.0
 40
0.0553929292499973
  0
CIRCLE
  5
18801
  8
0
 10
8898.5532381656248617
 20
2543.0166196712098099
 30
0.0
 40
0.0642286144499985
  0
CIRCLE
  5
18802
  8
0
 10
8898.5532381656212237
 20
2542.7700375128079031
 30
0.0
 40
0.0216934947291918
  0
CIRCLE
  5
18803
  8
0
 10
8898.5532381656212237
 20
2542.7700375128079031
 30
0.0
 40
0.0413033687885199
  0
CIRCLE
  5
18804
  8
0
 10
8898.5532381656248617
 20
2542.7630178622871426
 30
0.0
 40
0.0553929292499973
  0
CIRCLE
  5
18805
  8
0
 10
8898.5532381656248617
 20
2542.7630178622871426
 30
0.0
 40
0.0642286144499985
  0
LINE
  5
18806
  8
0
 10
8898.5316538257866341
 20
2542.77221098639302
 30
0.0
 11
8898.5748225054576324
 21
2542.77221098639302
 31
0.0
  0
LINE
  5
18807
  8
0
 10
8898.5321383945956768
 20
2542.7649969398071335
 30
0.0
 11
8898.5743379366485897
 21
2542.7649969398071335
 31
0.0
  0
LINE
  5
18808
  8
0
 10
8898.5337249539552431
 20
2544.5507828891268218
 30
0.0
 11
8898.5743181703346636
 21
2544.536181763939112
 31
0.0
  0
LINE
  5
18809
  8
0
 10
8898.5380694455416233
 20
2544.5568130034530441
 30
0.0
 11
8898.5748101089811826
 21
2544.5435976173121162
 31
0.0
  0
LINE
  5
1880A
  8
0
 10
8898.5334270847106382
 20
2544.786234519835034
 30
0.0
 11
8898.5475036795687629
 21
2544.7741517289350668
 31
0.0
  0
LINE
  5
1880B
  8
0
 10
8898.5317334542614844
 20
2544.7979292828608777
 30
0.0
 11
8898.5596176087801723
 21
2544.7743392875568134
 31
0.0
  0
CIRCLE
  5
1880E
  8
0
 10
8898.5532381656248617
 20
2541.6659117347930987
 30
0.0
 40
0.2952756296000348
  0
CIRCLE
  5
1880F
  8
0
 10
8898.5532381656248617
 20
2541.6659117347930987
 30
0.0
 40
0.2773484158570874
  0
LINE
  5
18810
  8
0
 10
8898.5059940711744275
 20
2541.9573833337099131
 30
0.0
 11
8898.5059940711744275
 21
2541.9392067023982236
 31
0.0
  0
LINE
  5
18811
  8
0
 10
8898.6004822600752959
 20
2541.9573833337099131
 30
0.0
 11
8898.6004822600752959
 21
2541.9392067023982236
 31
0.0
  0
LINE
  5
18812
  8
0
 10
8898.5332763087608328
 20
2541.9605118395220416
 30
0.0
 11
8898.5332763087608328
 21
2541.942540851207923
 31
0.0
  0
LINE
  5
18813
  8
0
 10
8898.5732000224888907
 20
2541.9605118395220416
 30
0.0
 11
8898.5732000224888907
 21
2541.942540851207923
 31
0.0
  0
CIRCLE
  5
18816
  8
0
 10
8898.5532381656248617
 20
2540.8785101104931528
 30
0.0
 40
0.2773484691136587
  0
CIRCLE
  5
18817
  8
0
 10
8898.5532381656248617
 20
2540.8785101104931528
 30
0.0
 40
0.2952756790999977
  0
LINE
  5
18818
  8
0
 10
8898.5059940711653326
 20
2541.1699817595549575
 30
0.0
 11
8898.5059940711653326
 21
2541.151805132141817
 31
0.0
  0
LINE
  5
18819
  8
0
 10
8898.5335531262753648
 20
2541.1731288911128104
 30
0.0
 11
8898.5335531262753648
 21
2541.1551591165371065
 31
0.0
  0
LINE
  5
1881A
  8
0
 10
8898.6004822600843909
 20
2541.1699817595549575
 30
0.0
 11
8898.6004822600843909
 21
2541.151805132141817
 31
0.0
  0
LINE
  5
1881B
  8
0
 10
8898.5729232049743587
 20
2541.1731288911128104
 30
0.0
 11
8898.5729232049743587
 21
2541.1551591165371065
 31
0.0
  0
LINE
  5
1881C
  8
0
 10
8898.5059940711653326
 20
2540.5870384614308932
 30
0.0
 11
8898.5059940711653326
 21
2540.6052150888431242
 31
0.0
  0
LINE
  5
1881D
  8
0
 10
8898.5335531262753648
 20
2540.5838913298730404
 30
0.0
 11
8898.5335531262753648
 21
2540.601861104449199
 31
0.0
  0
LINE
  5
1881E
  8
0
 10
8898.6004822600843909
 20
2540.5870384614308932
 30
0.0
 11
8898.6004822600843909
 21
2540.6052150888431242
 31
0.0
  0
LINE
  5
1881F
  8
0
 10
8898.5729232049743587
 20
2540.5838913298730404
 30
0.0
 11
8898.5729232049743587
 21
2540.601861104449199
 31
0.0
  0
LINE
  5
18820
  8
0
 10
8898.5059940711744275
 20
2541.3744401358749201
 30
0.0
 11
8898.5059940711744275
 21
2541.3926167671879739
 31
0.0
  0
LINE
  5
18821
  8
0
 10
8898.6004822600752959
 20
2541.3744401358749201
 30
0.0
 11
8898.6004822600752959
 21
2541.3926167671879739
 31
0.0
  0
LINE
  5
18822
  8
0
 10
8898.5332763087608328
 20
2541.3713116300641559
 30
0.0
 11
8898.5332763087608328
 21
2541.3892826183769102
 31
0.0
  0
LINE
  5
18823
  8
0
 10
8898.5732000224888907
 20
2541.3713116300641559
 30
0.0
 11
8898.5732000224888907
 21
2541.3892826183769102
 31
0.0
  0
ARC
  5
18824
  8
0
 10
8898.3288283497749944
 20
2546.1344158584929573
 30
0.0
 40
0.0865803144568602
 50
0.0
 51
270.0
  0
LINE
  5
18825
  8
0
 10
8898.3288283497749944
 20
2546.0478355440359337
 30
0.0
 11
8898.3839086642292386
 21
2546.0478355440359337
 31
0.0
  0
ARC
  5
18826
  8
0
 10
8898.3839086642292386
 20
2546.0793355440359846
 30
0.0
 40
0.0315
 50
270.0
 51
0.0
  0
LINE
  5
18827
  8
0
 10
8898.415408664233837
 20
2546.1344158584929573
 30
0.0
 11
8898.415408664233837
 21
2546.0793355440359846
 31
0.0
  0
ARC
  5
18828
  8
0
 10
8898.3288283497749944
 20
2545.6855968771928929
 30
0.0
 40
0.0865803144568602
 50
90.0
 51
0.0
  0
LINE
  5
18829
  8
0
 10
8898.3288283497749944
 20
2545.7721771916499165
 30
0.0
 11
8898.3839086642292386
 21
2545.7721771916499165
 31
0.0
  0
LINE
  5
1882A
  8
0
 10
8898.415408664233837
 20
2545.6855968771928929
 30
0.0
 11
8898.415408664233837
 21
2545.7406771916498656
 31
0.0
  0
ARC
  5
1882B
  8
0
 10
8898.3839086642292386
 20
2545.7406771916498656
 30
0.0
 40
0.0315
 50
0.0
 51
90.0
  0
ARC
  5
1882C
  8
0
 10
8898.777647981474729
 20
2546.1344158584929573
 30
0.0
 40
0.0865803144568602
 50
270.0
 51
180.0
  0
LINE
  5
1882D
  8
0
 10
8898.777647981474729
 20
2546.0478355440359337
 30
0.0
 11
8898.7225676670204848
 21
2546.0478355440359337
 31
0.0
  0
ARC
  5
1882E
  8
0
 10
8898.7225676670204848
 20
2546.0793355440359846
 30
0.0
 40
0.0315
 50
180.0
 51
270.0
  0
LINE
  5
1882F
  8
0
 10
8898.6910676670177054
 20
2546.1344158584929573
 30
0.0
 11
8898.6910676670177054
 21
2546.0793355440359846
 31
0.0
  0
ARC
  5
18830
  8
0
 10
8898.777647981474729
 20
2545.6855968771928929
 30
0.0
 40
0.0865803144568602
 50
180.0
 51
90.0
  0
LINE
  5
18831
  8
0
 10
8898.777647981474729
 20
2545.7721771916499165
 30
0.0
 11
8898.7225676670204848
 21
2545.7721771916499165
 31
0.0
  0
LINE
  5
18832
  8
0
 10
8898.6910676670177054
 20
2545.6855968771928929
 30
0.0
 11
8898.6910676670177054
 21
2545.7406771916498656
 31
0.0
  0
ARC
  5
18833
  8
0
 10
8898.7225676670204848
 20
2545.7406771916498656
 30
0.0
 40
0.0315
 50
90.0
 51
180.0
  0
ARC
  5
18834
  8
0
 10
8908.0085385087859322
 20
2535.9773994496231353
 30
0.0
 40
1.3912833270977509
 50
90.2669196194508032
 51
98.6093036573445545
  0
ARC
  5
18835
  8
0
 10
8908.0020570632768795
 20
2536.0609071409780881
 30
0.0
 40
1.30776053840019
 50
98.8762232767912366
 51
261.8493327135082041
  0
ARC
  5
18836
  8
0
 10
8908.008473236397549
 20
2536.1506624799549172
 30
0.0
 40
1.3975334294511641
 50
262.1106633225093105
 51
269.7369501693303846
  0
ARC
  5
18837
  8
0
 10
8908.0156796089904674
 20
2535.5224617798057807
 30
0.0
 40
1.8436098474154139
 50
90.4233658652503465
 51
93.6236163930886534
  0
ARC
  5
18838
  8
0
 10
8908.026850866195673
 20
2535.9030336692230776
 30
0.0
 40
1.464927861441518
 50
95.0005495880755575
 51
101.9612179229342956
  0
ARC
  5
18839
  8
0
 10
8908.0253430706288782
 20
2535.9835839321622188
 30
0.0
 40
1.385897571624082
 50
102.5904123424887047
 51
111.5029944650019047
  0
ARC
  5
1883A
  8
0
 10
8908.0309532581377425
 20
2536.005746473786985
 30
0.0
 40
1.367399096911033
 50
112.0621083573680039
 51
122.7299335307837964
  0
ARC
  5
1883B
  8
0
 10
8908.0347947300761007
 20
2536.0191127958969446
 30
0.0
 40
1.3582722381574719
 50
123.1711052958899018
 51
132.3706800996779975
  0
ARC
  5
1883C
  8
0
 10
8908.1028286162108998
 20
2535.9622829247628033
 30
0.0
 40
1.446157353972932
 50
132.8447076973498895
 51
139.6358040867218904
  0
ARC
  5
1883D
  8
0
 10
8908.0118683265754953
 20
2536.0562804550841065
 30
0.0
 40
1.3160352419319401
 50
140.1892028406832083
 51
154.3867844137882059
  0
ARC
  5
1883E
  8
0
 10
8908.0012168652065156
 20
2536.0599116945209062
 30
0.0
 40
1.3048613852811251
 50
154.3283781120327944
 51
167.8637866093029061
  0
ARC
  5
1883F
  8
0
 10
8908.0632327373168664
 20
2536.0533224929808966
 30
0.0
 40
1.366892442843183
 50
168.1402737162291885
 51
177.4144302963142934
  0
ARC
  5
18840
  8
0
 10
8907.9039367454297462
 20
2536.0605158796947762
 30
0.0
 40
1.2074341164882749
 50
177.4144302963142934
 51
184.786444449194903
  0
ARC
  5
18841
  8
0
 10
8908.0875632460338238
 20
2536.0758916782901906
 30
0.0
 40
1.3917032319309841
 50
184.786444449194903
 51
195.3273311514338104
  0
ARC
  5
18842
  8
0
 10
8907.9218303989327978
 20
2536.0304673164819178
 30
0.0
 40
1.2198581003345901
 50
195.3273311514338104
 51
205.661482177965496
  0
ARC
  5
18843
  8
0
 10
8908.0611432133864582
 20
2536.0973987365759967
 30
0.0
 40
1.3744151295087339
 50
205.661482177965496
 51
218.3618103450660897
  0
ARC
  5
18844
  8
0
 10
8908.0041413889757678
 20
2536.0632572845779578
 30
0.0
 40
1.3085588358000431
 50
218.7386395310149112
 51
243.3639953691582889
  0
ARC
  5
18845
  8
0
 10
8908.0026687813988246
 20
2536.0619652900281835
 30
0.0
 40
1.30674396461479
 50
243.3963377589950028
 51
250.159140875427596
  0
ARC
  5
18846
  8
0
 10
8908.0011411661489547
 20
2536.0577316507519754
 30
0.0
 40
1.302243152480508
 50
250.159140875427596
 51
258.6102587036587011
  0
ARC
  5
18847
  8
0
 10
8908.0036903534874
 20
2536.0703859043119337
 30
0.0
 40
1.315151618277959
 50
258.6102587036587011
 51
264.9785491654184852
  0
ARC
  5
18848
  8
0
 10
8908.0006340186610032
 20
2536.035601832113116
 30
0.0
 40
1.2802335303959
 50
264.9785491654184852
 51
268.4623830810136269
  0
ARC
  5
18849
  8
0
 10
8907.8511076809172664
 20
2524.5251347420057755
 30
0.0
 40
10.2313428124530699
 50
89.1546489566021876
 51
89.3550118379635165
  0
LINE
  5
1884A
  8
0
 10
8907.9946196616747329
 20
2534.7749338781859478
 30
0.0
 11
8907.9089418301118712
 21
2537.3424580700930164
 31
0.0
  0
LINE
  5
1884B
  8
0
 10
8907.8925607923083589
 20
2537.3411471561321378
 30
0.0
 11
8907.9861369079753786
 21
2534.7751972278779249
 31
0.0
  0
LINE
  5
1884C
  8
0
 10
8907.9711343723574828
 20
2534.7750982207107882
 30
0.0
 11
8907.7083562173538667
 21
2537.3132461392820005
 31
0.0
  0
LINE
  5
1884D
  8
0
 10
8907.6923808541559993
 20
2537.3082815139691775
 30
0.0
 11
8907.962503196175021
 21
2534.7758952886779298
 31
0.0
  0
LINE
  5
1884E
  8
0
 10
8907.9472371670199209
 20
2534.7757083472720296
 30
0.0
 11
8907.5146499440743355
 21
2537.2516985903780551
 31
0.0
  0
LINE
  5
1884F
  8
0
 10
8907.4994730120743043
 20
2537.2434251425779621
 30
0.0
 11
8907.9383011368754524
 21
2534.7770597154781171
 31
0.0
  0
LINE
  5
18850
  8
0
 10
8907.922574518384863
 20
2534.7768085420279931
 30
0.0
 11
8907.3323778668836894
 21
2537.1599887060028777
 31
0.0
  0
LINE
  5
18851
  8
0
 10
8907.3184173601493967
 20
2537.1484175630189384
 30
0.0
 11
8907.9131612148739805
 21
2534.77875068577805
 31
0.0
  0
LINE
  5
18852
  8
0
 10
8907.8967378007764637
 20
2534.7784760784738864
 30
0.0
 11
8907.1659689485750278
 21
2537.0398275472780369
 31
0.0
  0
LINE
  5
18853
  8
0
 10
8907.1536671214744274
 20
2537.024962797578155
 30
0.0
 11
8907.8866432166742015
 21
2534.7810669206778584
 31
0.0
  0
LINE
  5
18854
  8
0
 10
8907.8582004559739289
 20
2534.7841605379780958
 30
0.0
 11
8907.8692235141752462
 21
2534.7808348636781375
 31
0.0
  0
LINE
  5
18855
  8
0
 10
8907.8692235141752462
 20
2534.7808348636781375
 30
0.0
 11
8907.0196564897414646
 21
2536.8934128535611308
 31
0.0
  0
LINE
  5
18856
  8
0
 10
8907.0196564897414646
 20
2536.8934128535611308
 30
0.0
 11
8907.0094968970788614
 21
2536.8752479973782101
 31
0.0
  0
LINE
  5
18857
  8
0
 10
8907.0094968970788614
 20
2536.8752479973782101
 30
0.0
 11
8907.8582004559739289
 21
2534.7841605379780958
 31
0.0
  0
LINE
  5
18858
  8
0
 10
8907.8271157371927984
 20
2534.7882665661209103
 30
0.0
 11
8907.839386673476838
 21
2534.784077942877957
 31
0.0
  0
LINE
  5
18859
  8
0
 10
8907.839386673476838
 20
2534.784077942877957
 30
0.0
 11
8906.8974634706755751
 21
2536.7233727093780544
 31
0.0
  0
LINE
  5
1885A
  8
0
 10
8906.8974634706755751
 20
2536.7233727093780544
 30
0.0
 11
8906.8899947356494522
 21
2536.7018759694028631
 31
0.0
  0
LINE
  5
1885B
  8
0
 10
8906.8899947356494522
 20
2536.7018759694028631
 30
0.0
 11
8907.8271157371927984
 21
2534.7882665661209103
 31
0.0
  0
LINE
  5
1885C
  8
0
 10
8906.8032250490869046
 20
2536.5326646631001495
 30
0.0
 11
8907.8063409752157895
 21
2534.7885087083159306
 31
0.0
  0
LINE
  5
1885D
  8
0
 10
8907.8063409752157895
 20
2534.7885087083159306
 30
0.0
 11
8907.7923871161747229
 21
2534.7937571658781053
 31
0.0
  0
LINE
  5
1885E
  8
0
 10
8907.7923871161747229
 20
2534.7937571658781053
 30
0.0
 11
8906.799103777973869
 21
2536.5077535084778901
 31
0.0
  0
LINE
  5
1885F
  8
0
 10
8906.799103777973869
 20
2536.5077535084778901
 30
0.0
 11
8906.8032250490869046
 21
2536.5326646631001495
 31
0.0
  0
LINE
  5
18860
  8
0
 10
8906.7407721826766647
 20
2536.2959203838781832
 30
0.0
 11
8906.7407005585901061
 21
2536.3244299965890605
 31
0.0
  0
LINE
  5
18861
  8
0
 10
8906.7407005585901061
 20
2536.3244299965890605
 30
0.0
 11
8907.7687931836790085
 21
2534.7946257388362028
 31
0.0
  0
LINE
  5
18862
  8
0
 10
8907.7687931836790085
 20
2534.7946257388362028
 30
0.0
 11
8907.7525227206751879
 21
2534.8012490490777964
 31
0.0
  0
LINE
  5
18863
  8
0
 10
8907.7525227206751879
 20
2534.8012490490777964
 30
0.0
 11
8906.7407721826766647
 21
2536.2959203838781832
 31
0.0
  0
LINE
  5
18864
  8
0
 10
8906.7193354144746991
 20
2536.069237813178006
 30
0.0
 11
8906.7138637627722346
 21
2536.1017438913781916
 31
0.0
  0
LINE
  5
18865
  8
0
 10
8906.7138637627722346
 20
2536.1017438913781916
 30
0.0
 11
8907.7247051013746386
 21
2534.8033006514779117
 31
0.0
  0
LINE
  5
18866
  8
0
 10
8907.7247051013746386
 20
2534.8033006514779117
 30
0.0
 11
8907.7051105528753396
 21
2534.8118453132769901
 31
0.0
  0
LINE
  5
18867
  8
0
 10
8907.7051105528753396
 20
2534.8118453132769901
 30
0.0
 11
8906.7193354144746991
 21
2536.069237813178006
 31
0.0
  0
LINE
  5
18868
  8
0
 10
8906.7405325273739436
 20
2535.8296847257779518
 30
0.0
 11
8906.727651311268346
 21
2535.8670963096219566
 31
0.0
  0
LINE
  5
18869
  8
0
 10
8906.727651311268346
 20
2535.8670963096219566
 30
0.0
 11
8907.6705079646744707
 21
2534.8162204657778602
 31
0.0
  0
LINE
  5
1886A
  8
0
 10
8907.6705079646744707
 20
2534.8162204657778602
 30
0.0
 11
8907.645764027873156
 21
2534.8277612048777883
 31
0.0
  0
LINE
  5
1886B
  8
0
 10
8907.645764027873156
 20
2534.8277612048777883
 30
0.0
 11
8906.7405325273739436
 21
2535.8296847257779518
 31
0.0
  0
LINE
  5
1886C
  8
0
 10
8906.8148301759738388
 20
2535.5761492821779939
 30
0.0
 11
8906.7902807427017251
 21
2535.6208204692779873
 31
0.0
  0
LINE
  5
1886D
  8
0
 10
8906.7902807427017251
 20
2535.6208204692779873
 30
0.0
 11
8907.5988229389495245
 21
2534.8372553139020056
 31
0.0
  0
LINE
  5
1886E
  8
0
 10
8907.5988229389495245
 20
2534.8372553139020056
 30
0.0
 11
8907.564610475945301
 21
2534.854535259669774
 31
0.0
  0
LINE
  5
1886F
  8
0
 10
8907.564610475945301
 20
2534.854535259669774
 30
0.0
 11
8906.8148301759738388
 21
2535.5761492821779939
 31
0.0
  0
LINE
  5
18870
  8
0
 10
8906.9763283094034705
 20
2535.2913646603869893
 30
0.0
 11
8906.9231235590068536
 21
2535.3550131122451603
 31
0.0
  0
LINE
  5
18871
  8
0
 10
8906.9231235590068536
 20
2535.3550131122451603
 30
0.0
 11
8907.4883088860751741
 21
2534.8790085636778713
 31
0.0
  0
LINE
  5
18872
  8
0
 10
8907.4883088860751741
 20
2534.8790085636778713
 30
0.0
 11
8907.4282854450757441
 21
2534.9135154356781641
 31
0.0
  0
LINE
  5
18873
  8
0
 10
8907.4282854450757441
 20
2534.9135154356781641
 30
0.0
 11
8906.9763283094034705
 21
2535.2913646603869893
 31
0.0
  0
ARC
  5
18874
  8
0
 10
8908.0155744362255064
 20
2535.9069853728619819
 30
0.0
 40
1.439427795056776
 50
90.5380608923705381
 51
102.323481775463307
  0
LINE
  5
18875
  8
0
 10
8907.7083562173538667
 20
2537.3132461392820005
 30
0.0
 11
8907.6923808541559993
 21
2537.3082815139691775
 31
0.0
  0
LINE
  5
18876
  8
0
 10
8907.5146499440743355
 20
2537.2516985903780551
 30
0.0
 11
8907.4994730120743043
 21
2537.2434251425779621
 31
0.0
  0
LINE
  5
18877
  8
0
 10
8907.3323778668836894
 20
2537.1599887060028777
 30
0.0
 11
8907.3184173601493967
 21
2537.1484175630189384
 31
0.0
  0
LINE
  5
18878
  8
0
 10
8907.1659689485750278
 20
2537.0398275472780369
 30
0.0
 11
8907.1536671214744274
 21
2537.024962797578155
 31
0.0
  0
LINE
  5
18879
  8
0
 10
8907.8866432166742015
 20
2534.7810669206778584
 30
0.0
 11
8907.8967378007764637
 21
2534.7784760784738864
 31
0.0
  0
LINE
  5
1887A
  8
0
 10
8907.9131612148739805
 20
2534.77875068577805
 30
0.0
 11
8907.922574518384863
 21
2534.7768085420279931
 31
0.0
  0
LINE
  5
1887B
  8
0
 10
8907.9383011368754524
 20
2534.7770597154781171
 30
0.0
 11
8907.9472371670199209
 21
2534.7757083472720296
 31
0.0
  0
LINE
  5
1887C
  8
0
 10
8907.962503196175021
 20
2534.7758952886779298
 30
0.0
 11
8907.9711343723574828
 21
2534.7750982207107882
 31
0.0
  0
LINE
  5
1887D
  8
0
 10
8907.9861369079753786
 20
2534.7751972278779249
 30
0.0
 11
8907.9946196616747329
 21
2534.7749338781859478
 31
0.0
  0
ARC
  5
1887E
  8
0
 10
8908.0752911642612162
 20
2535.7981094639781077
 30
0.0
 40
1.557960181186111
 50
104.227738845295093
 51
111.091348863414396
  0
ARC
  5
1887F
  8
0
 10
8908.1086435440738569
 20
2535.8144253358809692
 30
0.0
 40
1.5534249851845121
 50
113.0881414721747973
 51
119.9809722154891034
  0
ARC
  5
18880
  8
0
 10
8908.1358299496896507
 20
2535.8395550054210617
 30
0.0
 40
1.5431411264765651
 50
121.9856571974623023
 51
128.9393891517555062
  0
ARC
  5
18881
  8
0
 10
8908.1561696593198576
 20
2535.869674453360858
 30
0.0
 40
1.529608608981093
 50
130.9498410048196888
 51
137.9883825198062084
  0
ARC
  5
18882
  8
0
 10
8908.1674822198838228
 20
2535.9037808071029758
 30
0.0
 40
1.511515302475636
 50
140.0057456269773013
 51
147.164292450980895
  0
ARC
  5
18883
  8
0
 10
8908.1712320070055284
 20
2535.9380187448709876
 30
0.0
 40
1.491659078000344
 50
149.1971453170602047
 51
156.5063558595740005
  0
ARC
  5
18884
  8
0
 10
8908.1697342067382124
 20
2535.9701331474461767
 30
0.0
 40
1.47229868737567
 50
158.5827470198449873
 51
166.0755672596941963
  0
ARC
  5
18885
  8
0
 10
8908.0853977941751509
 20
2536.0106333416438247
 30
0.0
 40
1.3745569219103619
 50
168.0212812403615033
 51
176.1994443431877073
  0
ARC
  5
18886
  8
0
 10
8908.1289610423991689
 20
2536.0259865787547824
 30
0.0
 40
1.410289005908278
 50
178.2425575118217864
 51
186.468966452198913
  0
ARC
  5
18887
  8
0
 10
8908.0888556274658185
 20
2536.0404775505890029
 30
0.0
 40
1.364700991879559
 50
188.8855265277263982
 51
197.9091418582198116
  0
ARC
  5
18888
  8
0
 10
8908.0377303977093106
 20
2536.0379356598750746
 30
0.0
 40
1.307184612419682
 50
200.6873259515442953
 51
211.4959113951111078
  0
ARC
  5
18889
  8
0
 10
8907.9162429844764119
 20
2535.9564010911590231
 30
0.0
 40
1.151396131081611
 50
215.2813078315161022
 51
244.9254965650773102
  0
ARC
  5
1888A
  8
0
 10
8907.8365740891276801
 20
2535.8336304270969777
 30
0.0
 40
1.016165121314716
 50
249.9570162644772893
 51
254.4762837812592977
  0
LINE
  5
1888B
  8
0
 10
8907.5988229389495245
 20
2534.8372553139020056
 30
0.0
 11
8907.645764027873156
 21
2534.8277612048777883
 31
0.0
  0
LINE
  5
1888C
  8
0
 10
8907.6705079646744707
 20
2534.8162204657778602
 30
0.0
 11
8907.7051105528753396
 21
2534.8118453132769901
 31
0.0
  0
LINE
  5
1888D
  8
0
 10
8907.7247051013746386
 20
2534.8033006514779117
 30
0.0
 11
8907.7525227206751879
 21
2534.8012490490777964
 31
0.0
  0
LINE
  5
1888E
  8
0
 10
8907.7687931836790085
 20
2534.7946257388362028
 30
0.0
 11
8907.7923871161747229
 21
2534.7937571658781053
 31
0.0
  0
LINE
  5
1888F
  8
0
 10
8907.8063409752157895
 20
2534.7885087083159306
 30
0.0
 11
8907.8271157371927984
 21
2534.7882665661209103
 31
0.0
  0
LINE
  5
18890
  8
0
 10
8907.839386673476838
 20
2534.784077942877957
 30
0.0
 11
8907.8582004559739289
 21
2534.7841605379780958
 31
0.0
  0
LINE
  5
18891
  8
0
 10
8907.8692235141752462
 20
2534.7808348636781375
 30
0.0
 11
8907.8866432166742015
 21
2534.7810669206778584
 31
0.0
  0
LINE
  5
18892
  8
0
 10
8907.8967378007764637
 20
2534.7784760784738864
 30
0.0
 11
8907.9131612148739805
 21
2534.77875068577805
 31
0.0
  0
LINE
  5
18893
  8
0
 10
8907.922574518384863
 20
2534.7768085420279931
 30
0.0
 11
8907.9383011368754524
 21
2534.7770597154781171
 31
0.0
  0
LINE
  5
18894
  8
0
 10
8907.9472371670199209
 20
2534.7757083472720296
 30
0.0
 11
8907.962503196175021
 21
2534.7758952886779298
 31
0.0
  0
LINE
  5
18895
  8
0
 10
8907.9711343723574828
 20
2534.7750982207107882
 30
0.0
 11
8907.9861369079753786
 21
2534.7751972278779249
 31
0.0
  0
ARC
  5
18896
  8
0
 10
8907.9662397660449642
 20
2537.3483131639018211
 30
0.0
 40
0.0575963157311148
 50
165.151844299083308
 51
185.8346210406022863
  0
ARC
  5
18897
  8
0
 10
8907.8399666657533089
 20
2537.3390244014490236
 30
0.0
 40
0.0526369474366727
 50
2.3112638950805482
 51
25.0750983731756385
  0
ARC
  5
18898
  8
0
 10
8907.761896751324457
 20
2537.3267656677930972
 30
0.0
 40
0.0552210687069063
 50
174.1271532617381865
 51
194.1715245061728865
  0
ARC
  5
18899
  8
0
 10
8907.6393191859679064
 20
2537.2971958317339158
 30
0.0
 40
0.0542073148338317
 50
11.8005402975754592
 51
33.2891501810857093
  0
ARC
  5
1889A
  8
0
 10
8907.5780345604198374
 20
2537.277157899687154
 30
0.0
 40
0.0683065591252612
 50
185.9641355153403026
 51
201.8835449210108095
  0
ARC
  5
1889B
  8
0
 10
8907.4355658267577383
 20
2537.2174060499251027
 30
0.0
 40
0.0690008805565928
 50
22.1531437282510417
 51
39.3277608425447198
  0
ARC
  5
1889C
  8
0
 10
8907.3820718681672588
 20
2537.1906386825630761
 30
0.0
 40
0.0583859129151343
 50
193.5085661848548
 51
211.6652135169578912
  0
ARC
  5
1889D
  8
0
 10
8907.2640867098434683
 20
2537.1165989181581608
 30
0.0
 40
0.0629622563404567
 50
30.3552940055324605
 51
49.5299069231882001
  0
ARC
  5
1889E
  8
0
 10
8907.2081237778093055
 20
2537.0764594283341467
 30
0.0
 40
0.0558473306211816
 50
202.3783800414661016
 51
220.9901256135061089
  0
ARC
  5
1889F
  8
0
 10
8907.1046260235543741
 20
2536.9851687583191051
 30
0.0
 40
0.0631553231785535
 50
39.0573490027784231
 51
58.4243653123626601
  0
ARC
  5
188A0
  8
0
 10
8907.0575765672656416
 20
2536.9383693765998942
 30
0.0
 40
0.0588134444104886
 50
212.2852578404778967
 51
229.8529268571286934
  0
ARC
  5
188A1
  8
0
 10
8906.9606377834861632
 20
2536.8189264143661603
 30
0.0
 40
0.0745609394642356
 50
49.0582801756388918
 51
65.8611038214252744
  0
ARC
  5
188A2
  8
0
 10
8906.9300172382336314
 20
2536.7773388805098875
 30
0.0
 40
0.0630245619499601
 50
223.0346411701061982
 51
238.9005512614039901
  0
ARC
  5
188A3
  8
0
 10
8906.8426886552351789
 20
2536.6234750601111045
 30
0.0
 40
0.0915672857631436
 50
58.8937697374847104
 51
72.5472794635799545
  0
ARC
  5
188A4
  8
0
 10
8906.8297223213412508
 20
2536.5983132914930138
 30
0.0
 40
0.0707944054772169
 50
234.1433351261453026
 51
248.0198819282801139
  0
ARC
  5
188A5
  8
0
 10
8906.7642826093942858
 20
2536.4209130107760757
 30
0.0
 40
0.0935616685524209
 50
68.1502780939768229
 51
81.7358749522421277
  0
ARC
  5
188A6
  8
0
 10
8906.7582108447822975
 20
2536.402766383368089
 30
0.0
 40
0.0802695435147788
 50
245.2519533324264955
 51
257.3999796791409835
  0
ARC
  5
188A7
  8
0
 10
8906.719909520348665
 20
2536.1990666124202107
 30
0.0
 40
0.0990752427450489
 50
77.8440124149901465
 51
90.8490568076835956
  0
ARC
  5
188A8
  8
0
 10
8906.7168964080574369
 20
2536.1806733807429737
 30
0.0
 40
0.0789877283431841
 50
255.6289162781168045
 51
267.7996519628475198
  0
ARC
  5
188A9
  8
0
 10
8906.7156253040357115
 20
2535.9567301635511285
 30
0.0
 40
0.1125688062646051
 50
88.1112691789867171
 51
99.7696408954346339
  0
ARC
  5
188AA
  8
0
 10
8906.7136854955915624
 20
2535.9660032139540817
 30
0.0
 40
0.0998880359803304
 50
268.8944383290757969
 51
278.037123819318424
  0
ARC
  5
188AB
  8
0
 10
8906.7627014650297497
 20
2535.6917754411970236
 30
0.0
 40
0.1396797500364103
 50
99.132179390264568
 51
108.3283249006503013
  0
ARC
  5
188AC
  8
0
 10
8906.7185013605194399
 20
2535.8478925494728173
 30
0.0
 40
0.2381470329672084
 50
283.5748583203267117
 51
287.5421807326176804
  0
ARC
  5
188AD
  8
0
 10
8906.8820606106673949
 20
2535.4030643402420537
 30
0.0
 40
0.1856834092578836
 50
111.2273904831346982
 51
118.4151719394586024
  0
ARC
  5
188AE
  8
0
 10
8906.7874669703578547
 20
2535.5720831499470478
 30
0.0
 40
0.2559728722179564
 50
298.4937038710885986
 51
302.0030703648913004
  0
ARC
  5
188AF
  8
0
 10
8907.1780495515195071
 20
2535.0173111827648427
 30
0.0
 40
0.3402892418478986
 50
126.3554932562590949
 51
130.2185159465907134
  0
ARC
  5
188B0
  8
0
 10
8907.0658865574441734
 20
2535.0917334302489508
 30
0.0
 40
0.4038497336178663
 50
330.5962635409877066
 51
333.8132854619282739
  0
ARC
  5
188B1
  8
0
 10
8907.7218036398644472
 20
2534.7784794990679984
 30
0.0
 40
0.2542162325216668
 50
156.7061403364639034
 51
160.4960011883196103
  0
ARC
  5
188B2
  8
0
 10
8907.4160167270802049
 20
2534.9018420864681502
 30
0.0
 40
0.1559424190646197
 50
334.1339597068213152
 51
342.3404233639653853
  0
ARC
  5
188B3
  8
0
 10
8907.7514134043722152
 20
2534.7869576856960521
 30
0.0
 40
0.1606664294170029
 50
161.7564894441115939
 51
167.8898253396747009
  0
ARC
  5
188B4
  8
0
 10
8907.464582835260444
 20
2534.8776456245332156
 30
0.0
 40
0.1879230690506521
 50
337.8995139765052045
 51
344.6062302167609914
  0
ARC
  5
188B5
  8
0
 10
8907.8168125982319907
 20
2534.7775668689569102
 30
0.0
 40
0.1513246389310368
 50
165.2006423610174863
 51
171.8267754285058118
  0
ARC
  5
188B6
  8
0
 10
8907.5479114987847424
 20
2534.8468803634091273
 30
0.0
 40
0.161055882675318
 50
339.7098898802938152
 51
347.4357951360480001
  0
ARC
  5
188B7
  8
0
 10
8907.8515663096077333
 20
2534.7751932238438712
 30
0.0
 40
0.1299376529048233
 50
167.5073292495387989
 51
175.3420264449941044
  0
ARC
  5
188B8
  8
0
 10
8907.6094649133628991
 20
2534.8274195984149628
 30
0.0
 40
0.1454318874433461
 50
341.1799290345954887
 51
349.6331200209235135
  0
ARC
  5
188B9
  8
0
 10
8907.8959081114535365
 20
2534.7712407124340643
 30
0.0
 40
0.1292480728032458
 50
169.5759878541499006
 51
177.5573676380479924
  0
ARC
  5
188BA
  8
0
 10
8907.65170382326869
 20
2534.8152974563508906
 30
0.0
 40
0.1423227775738929
 50
342.7546035751295221
 51
351.2949375333888042
  0
ARC
  5
188BB
  8
0
 10
8907.9234416894760216
 20
2534.7703025561081631
 30
0.0
 40
0.1185075578140072
 50
171.1627308039111881
 51
179.9819696652423033
  0
ARC
  5
188BC
  8
0
 10
8907.6924283050157101
 20
2534.8050840281030105
 30
0.0
 40
0.1357333098924855
 50
344.0205189586519055
 51
352.882718766502478
  0
ARC
  5
188BD
  8
0
 10
8907.9051617979075672
 20
2534.7722749389517958
 30
0.0
 40
0.0668257277984626
 50
169.8268416601646038
 51
185.7078087763775898
  0
ARC
  5
188BE
  8
0
 10
8907.7225173687984352
 20
2534.7980626411931553
 30
0.0
 40
0.1363934331976373
 50
345.4172643250449255
 51
354.1498831295853051
  0
ARC
  5
188BF
  8
0
 10
8907.9942489792756533
 20
2534.7678117434020351
 30
0.0
 40
0.1257019036678195
 50
174.0533027248374083
 51
182.5663546127244103
  0
ARC
  5
188C0
  8
0
 10
8907.7614125351774419
 20
2534.7909054461301821
 30
0.0
 40
0.1256165600999634
 50
346.1104433624395256
 51
355.5078860097224265
  0
ARC
  5
188C1
  8
0
 10
8908.0107565053640428
 20
2534.7685735388890862
 30
0.0
 40
0.1144479151664115
 50
175.0363092436867873
 51
184.4983658659087951
  0
ARC
  5
188C2
  8
0
 10
8907.7944143453023571
 20
2534.7855844736991457
 30
0.0
 40
0.118943346558489
 50
346.8689300860240792
 51
356.7063063825750078
  0
ARC
  5
188C3
  8
0
 10
8908.0314756379120809
 20
2534.7692958946950057
 30
0.0
 40
0.1091599455107268
 50
176.0536485272376979
 51
186.0828576810345965
  0
ARC
  5
188C4
  8
0
 10
8907.8229904839772644
 20
2534.7814336549981817
 30
0.0
 40
0.1153935787562068
 50
347.7819170448843238
 51
357.8277099447735736
  0
ARC
  5
188C5
  8
0
 10
8908.0544111894705566
 20
2534.7701900799947907
 30
0.0
 40
0.1073159930391872
 50
177.0525090044949934
 51
187.3551175368629913
  0
ARC
  5
188C6
  8
0
 10
8907.8463494419374911
 20
2534.7783167395368764
 30
0.0
 40
0.1161789914221304
 50
348.9261521063846203
 51
358.8057310562421094
  0
ARC
  5
188C7
  8
0
 10
8908.077649079483308
 20
2534.7714492317040822
 30
0.0
 40
0.1065771924698503
 50
178.0379241248863025
 51
188.4649793475873878
  0
ARC
  5
188C8
  8
0
 10
8907.8647806320223026
 20
2534.7760373989381151
 30
0.0
 40
0.1213591842451818
 50
350.3093352542762204
 51
359.6033374758272885
  0
ARC
  5
188C9
  8
0
 10
8908.1233574233156105
 20
2534.7740227002859683
 30
0.0
 40
0.1287409861606341
 50
179.5944796952393858
 51
188.2937332209646115
  0
ARC
  5
188CA
  8
0
 10
8907.9955756177623698
 20
2535.9773994496231353
 30
0.0
 40
1.3912833270977509
 50
81.3906963426554455
 51
89.7330803805491826
  0
ARC
  5
188CB
  8
0
 10
8908.0020570632768795
 20
2536.0609071409780881
 30
0.0
 40
1.3077605384001441
 50
278.1506503034569278
 51
81.123758809543034
  0
ARC
  5
188CC
  8
0
 10
8907.995640890152572
 20
2536.1506624799549172
 30
0.0
 40
1.3975334294511641
 50
270.2630498306696154
 51
277.8893366774906895
  0
ARC
  5
188CD
  8
0
 10
8907.9884345175614726
 20
2535.5224617798057807
 30
0.0
 40
1.8436098474154139
 50
86.3763836069113182
 51
89.5766341347496535
  0
ARC
  5
188CE
  8
0
 10
8907.977263260352629
 20
2535.9030336692230776
 30
0.0
 40
1.464927861441518
 50
78.0387820770656759
 51
84.9994504119244567
  0
ARC
  5
188CF
  8
0
 10
8907.9787710559212428
 20
2535.9835839321622188
 30
0.0
 40
1.385897571624082
 50
68.4970055349980242
 51
77.4095876575112953
  0
ARC
  5
188D0
  8
0
 10
8907.9731608684123785
 20
2536.005746473786985
 30
0.0
 40
1.367399096911033
 50
57.2700664692162107
 51
67.9378916426319392
  0
ARC
  5
188D1
  8
0
 10
8907.9693193964758393
 20
2536.0191127958969446
 30
0.0
 40
1.3582722381574719
 50
47.6293199003219598
 51
56.8288947041100982
  0
ARC
  5
188D2
  8
0
 10
8907.9012855103374022
 20
2535.9622829247628033
 30
0.0
 40
1.446157353972932
 50
40.3641959132780883
 51
47.1552923026500395
  0
ARC
  5
188D3
  8
0
 10
8907.9922457999746257
 20
2536.0562804550841065
 30
0.0
 40
1.3160352419319401
 50
25.6132155862117905
 51
39.810797159316742
  0
ARC
  5
188D4
  8
0
 10
8908.0028972613436054
 20
2536.0599116945209062
 30
0.0
 40
1.3048613852811251
 50
12.1362133906970495
 51
25.6716218879672198
  0
ARC
  5
188D5
  8
0
 10
8907.9408813892314356
 20
2536.0533224929808966
 30
0.0
 40
1.366892442843183
 50
2.585569703685672
 51
11.8597262837707902
  0
ARC
  5
188D6
  8
0
 10
8908.1001773811185558
 20
2536.0605158796947762
 30
0.0
 40
1.2074341164882749
 50
355.2135555508049833
 51
2.585569703685672
  0
ARC
  5
188D7
  8
0
 10
8907.9165508805162972
 20
2536.0758916782901906
 30
0.0
 40
1.3917032319309841
 50
344.672668848566218
 51
355.2135555508049833
  0
ARC
  5
188D8
  8
0
 10
8908.0822837276155042
 20
2536.0304673164819178
 30
0.0
 40
1.2198581003345901
 50
334.3385178220344187
 51
344.672668848566218
  0
ARC
  5
188D9
  8
0
 10
8907.9429709131618438
 20
2536.0973987365759967
 30
0.0
 40
1.3744151295087339
 50
321.6381896549339103
 51
334.3385178220344187
  0
ARC
  5
188DA
  8
0
 10
8907.9999727375761722
 20
2536.0632572845779578
 30
0.0
 40
1.30855883580004
 50
296.6359811269679199
 51
321.2613318428810771
  0
ARC
  5
188DB
  8
0
 10
8908.0014453451512964
 20
2536.0619652900281835
 30
0.0
 40
1.30674396461479
 50
289.8408591245723755
 51
296.6036622410049972
  0
ARC
  5
188DC
  8
0
 10
8908.0029729604011663
 20
2536.0577316507519754
 30
0.0
 40
1.302243152480508
 50
281.3897412963412989
 51
289.8408591245723755
  0
ARC
  5
188DD
  8
0
 10
8908.00042377306454
 20
2536.0703859043119337
 30
0.0
 40
1.315151618277959
 50
275.0214508345815148
 51
281.3897412963412989
  0
ARC
  5
188DE
  8
0
 10
8908.0034801078891178
 20
2536.035601832113116
 30
0.0
 40
1.2802335303959
 50
271.5376169189863163
 51
275.0214508345815148
  0
ARC
  5
188DF
  8
0
 10
8908.1530064456328546
 20
2524.5251347420057755
 30
0.0
 40
10.2313428124530699
 50
90.6449881620364692
 51
90.8453510433978124
  0
LINE
  5
188E0
  8
0
 10
8908.0094944648753881
 20
2534.7749338781859478
 30
0.0
 11
8908.0951722964382498
 21
2537.3424580700930164
 31
0.0
  0
LINE
  5
188E1
  8
0
 10
8908.1115533342417621
 20
2537.3411471561321378
 30
0.0
 11
8908.0179772185747424
 21
2534.7751972278779249
 31
0.0
  0
LINE
  5
188E2
  8
0
 10
8908.0329797541908192
 20
2534.7750982207107882
 30
0.0
 11
8908.2957579091962543
 21
2537.3132461392820005
 31
0.0
  0
LINE
  5
188E3
  8
0
 10
8908.3117332723923028
 20
2537.3082815139691775
 30
0.0
 11
8908.0416109303751
 21
2534.7758952886779298
 31
0.0
  0
LINE
  5
188E4
  8
0
 10
8908.0568769595302001
 20
2534.7757083472720296
 30
0.0
 11
8908.4894641824757855
 21
2537.2516985903780551
 31
0.0
  0
LINE
  5
188E5
  8
0
 10
8908.5046411144739977
 20
2537.2434251425779621
 30
0.0
 11
8908.0658129896746686
 21
2534.7770597154781171
 31
0.0
  0
LINE
  5
188E6
  8
0
 10
8908.081539608163439
 20
2534.7768085420279931
 30
0.0
 11
8908.6717362596646126
 21
2537.1599887060028777
 31
0.0
  0
LINE
  5
188E7
  8
0
 10
8908.6856967663989053
 20
2537.1484175630189384
 30
0.0
 11
8908.0909529116743215
 21
2534.77875068577805
 31
0.0
  0
LINE
  5
188E8
  8
0
 10
8908.1073763257718383
 20
2534.7784760784738864
 30
0.0
 11
8908.8381451779750932
 21
2537.0398275472780369
 31
0.0
  0
LINE
  5
188E9
  8
0
 10
8908.8504470050738746
 20
2537.024962797578155
 30
0.0
 11
8908.1174709098741005
 21
2534.7810669206778584
 31
0.0
  0
LINE
  5
188EA
  8
0
 10
8908.1459136705743731
 20
2534.7841605379780958
 30
0.0
 11
8908.1348906123748748
 21
2534.7808348636781375
 31
0.0
  0
LINE
  5
188EB
  8
0
 10
8908.1348906123748748
 20
2534.7808348636781375
 30
0.0
 11
8908.9844576368104754
 21
2536.8934128535611308
 31
0.0
  0
LINE
  5
188EC
  8
0
 10
8908.9844576368104754
 20
2536.8934128535611308
 30
0.0
 11
8908.9946172294712596
 21
2536.8752479973782101
 31
0.0
  0
LINE
  5
188ED
  8
0
 10
8908.9946172294712596
 20
2536.8752479973782101
 30
0.0
 11
8908.1459136705743731
 21
2534.7841605379780958
 31
0.0
  0
LINE
  5
188EE
  8
0
 10
8908.1769983893573226
 20
2534.7882665661209103
 30
0.0
 11
8908.164727453073283
 21
2534.784077942877957
 31
0.0
  0
LINE
  5
188EF
  8
0
 10
8908.164727453073283
 20
2534.784077942877957
 30
0.0
 11
8909.1066506558745459
 21
2536.7233727093780544
 31
0.0
  0
LINE
  5
188F0
  8
0
 10
8909.1066506558745459
 20
2536.7233727093780544
 30
0.0
 11
8909.1141193908988498
 21
2536.7018759694028631
 31
0.0
  0
LINE
  5
188F1
  8
0
 10
8909.1141193908988498
 20
2536.7018759694028631
 30
0.0
 11
8908.1769983893573226
 21
2534.7882665661209103
 31
0.0
  0
LINE
  5
188F2
  8
0
 10
8909.2008890774632164
 20
2536.5326646631001495
 30
0.0
 11
8908.1977731513361505
 21
2534.7885087083159306
 31
0.0
  0
LINE
  5
188F3
  8
0
 10
8908.1977731513361505
 20
2534.7885087083159306
 30
0.0
 11
8908.2117270103753981
 21
2534.7937571658781053
 31
0.0
  0
LINE
  5
188F4
  8
0
 10
8908.2117270103753981
 20
2534.7937571658781053
 30
0.0
 11
8909.205010348574433
 21
2536.5077535084778901
 31
0.0
  0
LINE
  5
188F5
  8
0
 10
8909.205010348574433
 20
2536.5077535084778901
 30
0.0
 11
8909.2008890774632164
 21
2536.5326646631001495
 31
0.0
  0
LINE
  5
188F6
  8
0
 10
8909.2633419438752753
 20
2536.2959203838781832
 30
0.0
 11
8909.2634135679581959
 21
2536.3244299965890605
 31
0.0
  0
LINE
  5
188F7
  8
0
 10
8909.2634135679581959
 20
2536.3244299965890605
 30
0.0
 11
8908.2353209428711125
 21
2534.7946257388362028
 31
0.0
  0
LINE
  5
188F8
  8
0
 10
8908.2353209428711125
 20
2534.7946257388362028
 30
0.0
 11
8908.2515914058749331
 21
2534.8012490490777964
 31
0.0
  0
LINE
  5
188F9
  8
0
 10
8908.2515914058749331
 20
2534.8012490490777964
 30
0.0
 11
8909.2633419438752753
 21
2536.2959203838781832
 31
0.0
  0
LINE
  5
188FA
  8
0
 10
8909.2847787120754219
 20
2536.069237813178006
 30
0.0
 11
8909.2902503637778864
 21
2536.1017438913781916
 31
0.0
  0
LINE
  5
188FB
  8
0
 10
8909.2902503637778864
 20
2536.1017438913781916
 30
0.0
 11
8908.2794090251736634
 21
2534.8033006514779117
 31
0.0
  0
LINE
  5
188FC
  8
0
 10
8908.2794090251736634
 20
2534.8033006514779117
 30
0.0
 11
8908.2990035736747814
 21
2534.8118453132769901
 31
0.0
  0
LINE
  5
188FD
  8
0
 10
8908.2990035736747814
 20
2534.8118453132769901
 30
0.0
 11
8909.2847787120754219
 21
2536.069237813178006
 31
0.0
  0
LINE
  5
188FE
  8
0
 10
8909.2635815991743584
 20
2535.8296847257779518
 30
0.0
 11
8909.276462815276318
 21
2535.8670963096219566
 31
0.0
  0
LINE
  5
188FF
  8
0
 10
8909.276462815276318
 20
2535.8670963096219566
 30
0.0
 11
8908.3336061618738313
 21
2534.8162204657778602
 31
0.0
  0
LINE
  5
18900
  8
0
 10
8908.3336061618738313
 20
2534.8162204657778602
 30
0.0
 11
8908.358350098675146
 21
2534.8277612048777883
 31
0.0
  0
LINE
  5
18901
  8
0
 10
8908.358350098675146
 20
2534.8277612048777883
 30
0.0
 11
8909.2635815991743584
 21
2535.8296847257779518
 31
0.0
  0
LINE
  5
18902
  8
0
 10
8909.1892839505744632
 20
2535.5761492821779939
 30
0.0
 11
8909.2138333838465769
 21
2535.6208204692779873
 31
0.0
  0
LINE
  5
18903
  8
0
 10
8909.2138333838465769
 20
2535.6208204692779873
 30
0.0
 11
8908.4052911876024154
 21
2534.8372553139020056
 31
0.0
  0
LINE
  5
18904
  8
0
 10
8908.4052911876024154
 20
2534.8372553139020056
 30
0.0
 11
8908.439503650603001
 21
2534.854535259669774
 31
0.0
  0
LINE
  5
18905
  8
0
 10
8908.439503650603001
 20
2534.854535259669774
 30
0.0
 11
8909.1892839505744632
 21
2535.5761492821779939
 31
0.0
  0
LINE
  5
18906
  8
0
 10
8909.0277858171448315
 20
2535.2913646603869893
 30
0.0
 11
8909.0809905675432674
 21
2535.3550131122451603
 31
0.0
  0
LINE
  5
18907
  8
0
 10
8909.0809905675432674
 20
2535.3550131122451603
 30
0.0
 11
8908.5158052404731279
 21
2534.8790085636778713
 31
0.0
  0
LINE
  5
18908
  8
0
 10
8908.5158052404731279
 20
2534.8790085636778713
 30
0.0
 11
8908.5758286814761959
 21
2534.9135154356781641
 31
0.0
  0
LINE
  5
18909
  8
0
 10
8908.5758286814761959
 20
2534.9135154356781641
 30
0.0
 11
8909.0277858171448315
 21
2535.2913646603869893
 31
0.0
  0
ARC
  5
1890A
  8
0
 10
8907.9885396903246146
 20
2535.9069853728619819
 30
0.0
 40
1.439427795056776
 50
77.6765182245367214
 51
89.4619391076294477
  0
LINE
  5
1890B
  8
0
 10
8908.2957579091962543
 20
2537.3132461392820005
 30
0.0
 11
8908.3117332723923028
 21
2537.3082815139691775
 31
0.0
  0
LINE
  5
1890C
  8
0
 10
8908.4894641824757855
 20
2537.2516985903780551
 30
0.0
 11
8908.5046411144739977
 21
2537.2434251425779621
 31
0.0
  0
LINE
  5
1890D
  8
0
 10
8908.6717362596646126
 20
2537.1599887060028777
 30
0.0
 11
8908.6856967663989053
 21
2537.1484175630189384
 31
0.0
  0
LINE
  5
1890E
  8
0
 10
8908.8381451779750932
 20
2537.0398275472780369
 30
0.0
 11
8908.8504470050738746
 21
2537.024962797578155
 31
0.0
  0
LINE
  5
1890F
  8
0
 10
8908.1174709098741005
 20
2534.7810669206778584
 30
0.0
 11
8908.1073763257718383
 21
2534.7784760784738864
 31
0.0
  0
LINE
  5
18910
  8
0
 10
8908.0909529116743215
 20
2534.77875068577805
 30
0.0
 11
8908.081539608163439
 21
2534.7768085420279931
 31
0.0
  0
LINE
  5
18911
  8
0
 10
8908.0658129896746686
 20
2534.7770597154781171
 30
0.0
 11
8908.0568769595302001
 21
2534.7757083472720296
 31
0.0
  0
LINE
  5
18912
  8
0
 10
8908.0416109303751
 20
2534.7758952886779298
 30
0.0
 11
8908.0329797541908192
 21
2534.7750982207107882
 31
0.0
  0
LINE
  5
18913
  8
0
 10
8908.0179772185747424
 20
2534.7751972278779249
 30
0.0
 11
8908.0094944648753881
 21
2534.7749338781859478
 31
0.0
  0
ARC
  5
18914
  8
0
 10
8907.9288229622889048
 20
2535.7981094639781077
 30
0.0
 40
1.557960181186111
 50
68.9086511365855756
 51
75.7722611547048359
  0
ARC
  5
18915
  8
0
 10
8907.8954705824762641
 20
2535.8144253358809692
 30
0.0
 40
1.5534249851845121
 50
60.0190277845108682
 51
66.9118585278251317
  0
ARC
  5
18916
  8
0
 10
8907.8682841768568323
 20
2535.8395550054210617
 30
0.0
 40
1.5431411264765651
 50
51.0606108482444583
 51
58.0143428025376267
  0
ARC
  5
18917
  8
0
 10
8907.8479444672302634
 20
2535.869674453360858
 30
0.0
 40
1.529608608981093
 50
42.0116174801938271
 51
49.0501589951802686
  0
ARC
  5
18918
  8
0
 10
8907.8366319066644792
 20
2535.9037808071029758
 30
0.0
 40
1.511515302475636
 50
32.8357075490190482
 51
39.9942543730226774
  0
ARC
  5
18919
  8
0
 10
8907.8328821195445926
 20
2535.9380187448709876
 30
0.0
 40
1.491659078000344
 50
23.4936441404259995
 51
30.8028546829397385
  0
ARC
  5
1891A
  8
0
 10
8907.8343799198119086
 20
2535.9701331474461767
 30
0.0
 40
1.47229868737567
 50
13.9244327403057593
 51
21.4172529801549487
  0
ARC
  5
1891B
  8
0
 10
8907.9187163323731511
 20
2536.0106333416438247
 30
0.0
 40
1.3745569219103619
 50
3.8005556568122429
 51
11.9787187596384594
  0
ARC
  5
1891C
  8
0
 10
8907.8751530841473141
 20
2536.0259865787547824
 30
0.0
 40
1.410289005908278
 50
353.531033547801087
 51
1.7574424881781909
  0
ARC
  5
1891D
  8
0
 10
8907.9152584990806645
 20
2536.0404775505890029
 30
0.0
 40
1.364700991879559
 50
342.0908581417801884
 51
351.1144734722735166
  0
ARC
  5
1891E
  8
0
 10
8907.9663837288371724
 20
2536.0379356598750746
 30
0.0
 40
1.307184612419682
 50
328.5040886048889206
 51
339.3126740484556194
  0
ARC
  5
1891F
  8
0
 10
8908.0878711420718901
 20
2535.9564010911590231
 30
0.0
 40
1.151396131081611
 50
295.0745034349226898
 51
324.7186921684839263
  0
ARC
  5
18920
  8
0
 10
8908.1675400374224409
 20
2535.8336304270969777
 30
0.0
 40
1.016165121314716
 50
285.5237162187406739
 51
290.0429837355226823
  0
LINE
  5
18921
  8
0
 10
8908.4052911876024154
 20
2534.8372553139020056
 30
0.0
 11
8908.358350098675146
 21
2534.8277612048777883
 31
0.0
  0
LINE
  5
18922
  8
0
 10
8908.3336061618738313
 20
2534.8162204657778602
 30
0.0
 11
8908.2990035736747814
 21
2534.8118453132769901
 31
0.0
  0
LINE
  5
18923
  8
0
 10
8908.2794090251736634
 20
2534.8033006514779117
 30
0.0
 11
8908.2515914058749331
 21
2534.8012490490777964
 31
0.0
  0
LINE
  5
18924
  8
0
 10
8908.2353209428711125
 20
2534.7946257388362028
 30
0.0
 11
8908.2117270103753981
 21
2534.7937571658781053
 31
0.0
  0
LINE
  5
18925
  8
0
 10
8908.1977731513361505
 20
2534.7885087083159306
 30
0.0
 11
8908.1769983893573226
 21
2534.7882665661209103
 31
0.0
  0
LINE
  5
18926
  8
0
 10
8908.164727453073283
 20
2534.784077942877957
 30
0.0
 11
8908.1459136705743731
 21
2534.7841605379780958
 31
0.0
  0
LINE
  5
18927
  8
0
 10
8908.1348906123748748
 20
2534.7808348636781375
 30
0.0
 11
8908.1174709098741005
 21
2534.7810669206778584
 31
0.0
  0
LINE
  5
18928
  8
0
 10
8908.1073763257718383
 20
2534.7784760784738864
 30
0.0
 11
8908.0909529116743215
 21
2534.77875068577805
 31
0.0
  0
LINE
  5
18929
  8
0
 10
8908.081539608163439
 20
2534.7768085420279931
 30
0.0
 11
8908.0658129896746686
 21
2534.7770597154781171
 31
0.0
  0
LINE
  5
1892A
  8
0
 10
8908.0568769595302001
 20
2534.7757083472720296
 30
0.0
 11
8908.0416109303751
 21
2534.7758952886779298
 31
0.0
  0
LINE
  5
1892B
  8
0
 10
8908.0329797541908192
 20
2534.7750982207107882
 30
0.0
 11
8908.0179772185747424
 21
2534.7751972278779249
 31
0.0
  0
ARC
  5
1892C
  8
0
 10
8908.0378743605051568
 20
2537.3483131639018211
 30
0.0
 40
0.0575963157311148
 50
354.1653789593976853
 51
14.84815570091666
  0
ARC
  5
1892D
  8
0
 10
8908.1641474607931741
 20
2537.3390244014490236
 30
0.0
 40
0.0526369474366727
 50
154.9249016268244077
 51
177.6887361049193998
  0
ARC
  5
1892E
  8
0
 10
8908.242217375225664
 20
2537.3267656677930972
 30
0.0
 40
0.0552210687069063
 50
345.8284754938269998
 51
5.8728467382617344
  0
ARC
  5
1892F
  8
0
 10
8908.3647949405785766
 20
2537.2971958317339158
 30
0.0
 40
0.0542073148338317
 50
146.710849818914312
 51
168.1994597024244911
  0
ARC
  5
18930
  8
0
 10
8908.4260795661302836
 20
2537.277157899687154
 30
0.0
 40
0.0683065591252612
 50
338.1164550789890768
 51
354.0358644846596121
  0
ARC
  5
18931
  8
0
 10
8908.5685482997905638
 20
2537.2174060499251027
 30
0.0
 40
0.0690008805565928
 50
140.6722391574552944
 51
157.8468562717488908
  0
ARC
  5
18932
  8
0
 10
8908.6220422583792242
 20
2537.1906386825630761
 30
0.0
 40
0.0583859129151343
 50
328.3347864830420804
 51
346.4914338151451716
  0
ARC
  5
18933
  8
0
 10
8908.7400274167048337
 20
2537.1165989181581608
 30
0.0
 40
0.0629622563404567
 50
130.4700930768117928
 51
149.6447059944675004
  0
ARC
  5
18934
  8
0
 10
8908.7959903487408155
 20
2537.0764594283341467
 30
0.0
 40
0.0558473306211816
 50
319.0098743864937774
 51
337.6216199585338131
  0
ARC
  5
18935
  8
0
 10
8908.8994881029957469
 20
2536.9851687583191051
 30
0.0
 40
0.0631553231785535
 50
121.5756346876373044
 51
140.9426509972215911
  0
ARC
  5
18936
  8
0
 10
8908.9465375592826604
 20
2536.9383693765998942
 30
0.0
 40
0.0588134444104886
 50
310.1470731428713066
 51
327.7147421595220749
  0
ARC
  5
18937
  8
0
 10
8909.0434763430621388
 20
2536.8189264143661603
 30
0.0
 40
0.0745609394642356
 50
114.1388961785746972
 51
130.9417198243610869
  0
ARC
  5
18938
  8
0
 10
8909.0740968883164896
 20
2536.7773388805098875
 30
0.0
 40
0.0630245619499601
 50
301.0994487385959815
 51
316.9653588298937734
  0
ARC
  5
18939
  8
0
 10
8909.1614254713167611
 20
2536.6234750601111045
 30
0.0
 40
0.0915672857631436
 50
107.4527205364200029
 51
121.1062302625152967
  0
ARC
  5
1893A
  8
0
 10
8909.1743918052070512
 20
2536.5983132914930138
 30
0.0
 40
0.0707944054772169
 50
291.9801180717199145
 51
305.856664873854811
  0
ARC
  5
1893B
  8
0
 10
8909.2398315171521972
 20
2536.4209130107760757
 30
0.0
 40
0.0935616685524209
 50
98.2641250477579007
 51
111.8497219060232055
  0
ARC
  5
1893C
  8
0
 10
8909.2459032817696425
 20
2536.402766383368089
 30
0.0
 40
0.0802695435147788
 50
282.6000203208590165
 51
294.7480466675734192
  0
ARC
  5
1893D
  8
0
 10
8909.284204606201456
 20
2536.1990666124202107
 30
0.0
 40
0.0990752427450489
 50
89.1509431923164044
 51
102.1559875850097967
  0
ARC
  5
1893E
  8
0
 10
8909.2872177184926841
 20
2536.1806733807429737
 30
0.0
 40
0.0789877283431841
 50
272.2003480371524802
 51
284.3710837218832239
  0
ARC
  5
1893F
  8
0
 10
8909.2884888225144095
 20
2535.9567301635511285
 30
0.0
 40
0.1125688062646051
 50
80.2303591045653235
 51
91.8887308210132829
  0
ARC
  5
18940
  8
0
 10
8909.2904286309585586
 20
2535.9660032139540817
 30
0.0
 40
0.0998880359803304
 50
261.9628761806815191
 51
271.1055616709242031
  0
ARC
  5
18941
  8
0
 10
8909.2414126615203713
 20
2535.6917754411970236
 30
0.0
 40
0.1396797500364103
 50
71.6716750993496845
 51
80.8678206097354462
  0
ARC
  5
18942
  8
0
 10
8909.2856127660325001
 20
2535.8478925494728173
 30
0.0
 40
0.2381470329672084
 50
252.4578192673822912
 51
256.4251416796732883
  0
ARC
  5
18943
  8
0
 10
8909.1220535158827261
 20
2535.4030643402420537
 30
0.0
 40
0.1856834092578836
 50
61.5848280605414118
 51
68.7726095168653444
  0
ARC
  5
18944
  8
0
 10
8909.2166471561922663
 20
2535.5720831499470478
 30
0.0
 40
0.2559728722179564
 50
237.9969296351086996
 51
241.5062961289112877
  0
ARC
  5
18945
  8
0
 10
8908.8260645750287949
 20
2535.0173111827648427
 30
0.0
 40
0.3402892418478986
 50
49.7814840534093292
 51
53.6445067437409122
  0
ARC
  5
18946
  8
0
 10
8908.9382275691023096
 20
2535.0917334302489508
 30
0.0
 40
0.4038497336178663
 50
206.1867145380716977
 51
209.4037364590124071
  0
ARC
  5
18947
  8
0
 10
8908.2823104866874928
 20
2534.7784794990679984
 30
0.0
 40
0.2542162325216668
 50
19.5039988116804288
 51
23.2938596635361002
  0
ARC
  5
18948
  8
0
 10
8908.5880973994717351
 20
2534.9018420864681502
 30
0.0
 40
0.1559424190646197
 50
197.6595766360345863
 51
205.8660402931787132
  0
ARC
  5
18949
  8
0
 10
8908.2527007221760869
 20
2534.7869576856960521
 30
0.0
 40
0.1606664294170029
 50
12.1101746603252494
 51
18.2435105558883492
  0
ARC
  5
1894A
  8
0
 10
8908.539531291289677
 20
2534.8776456245332156
 30
0.0
 40
0.1879230690506521
 50
195.3937697832390086
 51
202.1004860234947955
  0
ARC
  5
1894B
  8
0
 10
8908.1873015283181303
 20
2534.7775668689569102
 30
0.0
 40
0.1513246389310368
 50
8.1732245714942362
 51
14.7993576389824302
  0
ARC
  5
1894C
  8
0
 10
8908.4562026277635596
 20
2534.8468803634091273
 30
0.0
 40
0.161055882675318
 50
192.5642048639519999
 51
200.2901101197060996
  0
ARC
  5
1894D
  8
0
 10
8908.1525478169423877
 20
2534.7751932238438712
 30
0.0
 40
0.1299376529048233
 50
4.6579735550059089
 51
12.4926707504611603
  0
ARC
  5
1894E
  8
0
 10
8908.3946492131854029
 20
2534.8274195984149628
 30
0.0
 40
0.1454318874433461
 50
190.3668799790764865
 51
198.8200709654045113
  0
ARC
  5
1894F
  8
0
 10
8908.1082060150947655
 20
2534.7712407124340643
 30
0.0
 40
0.1292480728032458
 50
2.4426323619519841
 51
10.42401214585011
  0
ARC
  5
18950
  8
0
 10
8908.352410303279612
 20
2534.8152974563508906
 30
0.0
 40
0.1423227775738929
 50
188.7050624666111958
 51
197.2453964248703926
  0
ARC
  5
18951
  8
0
 10
8908.0806724370722804
 20
2534.7703025561081631
 30
0.0
 40
0.1185075578140072
 50
0.0180303347576946
 51
8.8372691960887586
  0
ARC
  5
18952
  8
0
 10
8908.3116858215344109
 20
2534.8050840281030105
 30
0.0
 40
0.1357333098924855
 50
187.1172812334974083
 51
195.9794810413480945
  0
ARC
  5
18953
  8
0
 10
8908.0989523286425538
 20
2534.7722749389517958
 30
0.0
 40
0.0668257277984626
 50
354.2921912236224102
 51
10.1731583398354299
  0
ARC
  5
18954
  8
0
 10
8908.2815967577516858
 20
2534.7980626411931553
 30
0.0
 40
0.1363934331976373
 50
185.8501168704146949
 51
194.5827356749551029
  0
ARC
  5
18955
  8
0
 10
8908.0098651472726488
 20
2534.7678117434020351
 30
0.0
 40
0.1257019036678195
 50
357.4336453872755897
 51
5.9466972751625882
  0
ARC
  5
18956
  8
0
 10
8908.2427015913726791
 20
2534.7909054461301821
 30
0.0
 40
0.1256165600999634
 50
184.4921139902776019
 51
193.8895566375605028
  0
ARC
  5
18957
  8
0
 10
8907.9933576211842592
 20
2534.7685735388890862
 30
0.0
 40
0.1144479151664115
 50
355.5016341340912049
 51
4.9636907563131976
  0
ARC
  5
18958
  8
0
 10
8908.2096997812495829
 20
2534.7855844736991457
 30
0.0
 40
0.118943346558489
 50
183.2936936174249922
 51
193.1310699139758924
  0
ARC
  5
18959
  8
0
 10
8907.9726384886380401
 20
2534.7692958946950057
 30
0.0
 40
0.1091599455107268
 50
353.9171423189653751
 51
3.9463514727623519
  0
ARC
  5
1895A
  8
0
 10
8908.1811236425692186
 20
2534.7814336549981817
 30
0.0
 40
0.1153935787562068
 50
182.1722900552263127
 51
192.2180829551157046
  0
ARC
  5
1895B
  8
0
 10
8907.9497029370795644
 20
2534.7701900799947907
 30
0.0
 40
0.1073159930391872
 50
352.6448824631111734
 51
2.947490995504928
  0
ARC
  5
1895C
  8
0
 10
8908.1577646846126299
 20
2534.7783167395368764
 30
0.0
 40
0.1161789914221304
 50
181.1942689437578906
 51
191.0738478936154081
  0
ARC
  5
1895D
  8
0
 10
8907.926465047066813
 20
2534.7714492317040822
 30
0.0
 40
0.1065771924698503
 50
351.5350206524125838
 51
1.9620758751136489
  0
ARC
  5
1895E
  8
0
 10
8908.1393334945278184
 20
2534.7760373989381151
 30
0.0
 40
0.1213591842451818
 50
180.3966625241727115
 51
189.6906647457236943
  0
ARC
  5
1895F
  8
0
 10
8907.8807567032326915
 20
2534.7740227002859683
 30
0.0
 40
0.1287409861606341
 50
351.7062667790352748
 51
0.4055203047605597
  0
LINE
  5
18960
  8
0
 10
8907.9946196616747329
 20
2534.7749338781859478
 30
0.0
 11
8908.0094944648753881
 21
2534.7749338781859478
 31
0.0
  0
LINE
  5
18A8B
  8
0
 10
8903.1949704491762532
 20
2535.4808724038430228
 30
0.0
 11
8903.3603247796745563
 21
2535.4808724038430228
 31
0.0
  0
LINE
  5
18A8C
  8
0
 10
8903.1792224176751915
 20
2535.4966204353431749
 30
0.0
 11
8903.376072811175618
 21
2535.4966204353431749
 31
0.0
  0
LINE
  5
18A8D
  8
0
 10
8903.1792224176751915
 20
2535.500557443192065
 30
0.0
 11
8903.1792224176751915
 21
2535.4966204353431749
 31
0.0
  0
LINE
  5
18A8E
  8
0
 10
8903.1792224176751915
 20
2535.4966204353431749
 30
0.0
 11
8903.1949704491762532
 21
2535.4808724038430228
 31
0.0
  0
LINE
  5
18A8F
  8
0
 10
8903.376072811175618
 20
2535.500557443192065
 30
0.0
 11
8903.376072811175618
 21
2535.4966204353431749
 31
0.0
  0
LINE
  5
18A90
  8
0
 10
8903.376072811175618
 20
2535.4966204353431749
 30
0.0
 11
8903.3603247796745563
 21
2535.4808724038430228
 31
0.0
  0
ENDSEC
  0
EOF
