  0
SECTION
  2
HEADER
  9
$ACADVER
  1
AC1009
  9
$INSBASE
 10
8694.7133843172432535
 20
2162.9709302443761771
 30
0.0
  9
$EXTMIN
 10
8684.2015732936433778
 20
2136.9177806380757829
 30
0.0
  9
$EXTMAX
 10
8694.7254488750513701
 20
2173.3646310317758434
 30
0.0
  9
$LIMMIN
 10
0.0
 20
0.0
  9
$LIMMAX
 10
11.6929133858000007
 20
8.2677165353999982
  9
$ORTHOMODE
 70
     0
  9
$REGENMODE
 70
     1
  9
$FILLMODE
 70
     1
  9
$QTEXTMODE
 70
     0
  9
$MIRRTEXT
 70
     0
  9
$DRAGMODE
 70
     2
  9
$LTSCALE
 40
0.6431102362
  9
$OSMODE
 70
  4095
  9
$ATTMODE
 70
     1
  9
$TEXTSIZE
 40
0.2
  9
$TRACEWID
 40
0.05
  9
$TEXTSTYLE
  7
STANDARD
  9
$CLAYER
  8
0
  9
$CELTYPE
  6
BYLAYER
  9
$CECOLOR
 62
   256
  9
$DIMSCALE
 40
1.0
  9
$DIMASZ
 40
0.1875
  9
$DIMEXO
 40
0.0625
  9
$DIMDLI
 40
0.4443307087
  9
$DIMRND
 40
0.0
  9
$DIMDLE
 40
0.0
  9
$DIMEXE
 40
0.125
  9
$DIMTP
 40
0.01
  9
$DIMTM
 40
0.01
  9
$DIMTXT
 40
2.0
  9
$DIMCEN
 40
0.1052362205
  9
$DIMTSZ
 40
0.0
  9
$DIMTOL
 70
     1
  9
$DIMLIM
 70
     0
  9
$DIMTIH
 70
     1
  9
$DIMTOH
 70
     1
  9
$DIMSE1
 70
     0
  9
$DIMSE2
 70
     0
  9
$DIMTAD
 70
     0
  9
$DIMZIN
 70
     0
  9
$DIMBLK
  1

  9
$DIMASO
 70
     1
  9
$DIMSHO
 70
     1
  9
$DIMPOST
  1
\X
  9
$DIMAPOST
  1

  9
$DIMALT
 70
     1
  9
$DIMALTD
 70
     2
  9
$DIMALTF
 40
25.3999999999999986
  9
$DIMLFAC
 40
1.0
  9
$DIMTOFL
 70
     0
  9
$DIMTVP
 40
0.0
  9
$DIMTIX
 70
     0
  9
$DIMSOXD
 70
     0
  9
$DIMSAH
 70
     0
  9
$DIMBLK1
  1

  9
$DIMBLK2
  1

  9
$DIMSTYLE
  2
STANDARD
  9
$DIMCLRD
 70
     0
  9
$DIMCLRE
 70
     0
  9
$DIMCLRT
 70
     0
  9
$DIMTFAC
 40
1.0
  9
$DIMGAP
 40
0.09
  9
$LUNITS
 70
     2
  9
$LUPREC
 70
     4
  9
$SKETCHINC
 40
0.1
  9
$FILLETRAD
 40
0.0
  9
$AUNITS
 70
     0
  9
$AUPREC
 70
     0
  9
$MENU
  1
.
  9
$ELEVATION
 40
0.0
  9
$PELEVATION
 40
0.0
  9
$THICKNESS
 40
0.0
  9
$LIMCHECK
 70
     0
  9
$BLIPMODE
 70
     0
  9
$CHAMFERA
 40
0.0
  9
$CHAMFERB
 40
0.0
  9
$SKPOLY
 70
     0
  9
$TDCREATE
 40
2458060.468368056230247
  9
$TDUPDATE
 40
2460584.3442476848140359
  9
$TDINDWG
 40
0.4961876157
  9
$TDUSRTIMER
 40
0.4961876157
  9
$USRTIMER
 70
     1
  9
$ANGBASE
 50
0.0
  9
$ANGDIR
 70
     0
  9
$PDMODE
 70
     0
  9
$PDSIZE
 40
0.3125
  9
$PLINEWID
 40
0.0
  9
$COORDS
 70
     2
  9
$SPLFRAME
 70
     0
  9
$SPLINETYPE
 70
     6
  9
$SPLINESEGS
 70
     8
  9
$ATTDIA
 70
     1
  9
$ATTREQ
 70
     1
  9
$HANDLING
 70
     1
  9
$HANDSEED
  5
14BC2
  9
$SURFTAB1
 70
     6
  9
$SURFTAB2
 70
     6
  9
$SURFTYPE
 70
     6
  9
$SURFU
 70
     6
  9
$SURFV
 70
     6
  9
$UCSNAME
  2

  9
$UCSORG
 10
0.0
 20
0.0
 30
0.0
  9
$UCSXDIR
 10
1.0
 20
0.0
 30
0.0
  9
$UCSYDIR
 10
0.0
 20
1.0
 30
0.0
  9
$PUCSNAME
  2

  9
$PUCSORG
 10
0.0
 20
0.0
 30
0.0
  9
$PUCSXDIR
 10
1.0
 20
0.0
 30
0.0
  9
$PUCSYDIR
 10
0.0
 20
1.0
 30
0.0
  9
$USERI1
 70
     0
  9
$USERI2
 70
     0
  9
$USERI3
 70
     0
  9
$USERI4
 70
     0
  9
$USERI5
 70
     0
  9
$USERR1
 40
0.0
  9
$USERR2
 40
0.0
  9
$USERR3
 40
0.0
  9
$USERR4
 40
0.0
  9
$USERR5
 40
0.0
  9
$WORLDVIEW
 70
     1
  9
$SHADEDGE
 70
     3
  9
$SHADEDIF
 70
    70
  9
$TILEMODE
 70
     1
  9
$MAXACTVP
 70
    64
  9
$PLIMCHECK
 70
     0
  9
$PEXTMIN
 10
1.0000000000000000E+20
 20
1.0000000000000000E+20
 30
1.0000000000000000E+20
  9
$PEXTMAX
 10
-1.0000000000000000E+20
 20
-1.0000000000000000E+20
 30
-1.0000000000000000E+20
  9
$PLIMMIN
 10
0.0
 20
0.0
  9
$PLIMMAX
 10
12.0
 20
9.0
  9
$UNITMODE
 70
     0
  9
$VISRETAIN
 70
     1
  9
$PLINEGEN
 70
     0
  9
$PSLTSCALE
 70
     1
  0
ENDSEC
  0
SECTION
  2
TABLES
  0
TABLE
  2
VPORT
 70
     1
  0
VPORT
  2
*ACTIVE
 70
     0
 10
0.0
 20
0.0
 11
1.0
 21
1.0
 12
3874.1651712405978287
 22
1907.3325815673479156
 13
0.0
 23
0.0
 14
1.0
 24
1.0
 15
0.0
 25
0.0
 16
0.0
 26
0.0
 36
9.5192988075487186
 17
4815.2983398437490905
 27
247.8086242675780966
 37
0.0
 40
36.7053386943644
 41
2.244970414201183
 42
50.0
 43
0.0
 44
0.0
 50
0.0
 51
0.0
 71
     0
 72
   100
 73
     1
 74
     1
 75
     0
 76
     0
 77
     0
 78
     0
  0
ENDTAB
  0
TABLE
  2
LTYPE
 70
     2
  0
LTYPE
  2
CONTINUOUS
 70
     0
  3
Solid line
 72
    65
 73
     0
 40
0.0
  0
LTYPE
  2
PHANTOM2
 70
     0
  3
___ _ _ ___ _ _ ___ _ _ ___ _ _
 72
    65
 73
     6
 40
1.25
 49
0.625
 49
-0.125
 49
0.125
 49
-0.125
 49
0.125
 49
-0.125
  0
ENDTAB
  0
TABLE
  2
LAYER
 70
     2
  0
LAYER
  2
0
 70
     0
 62
   255
  6
CONTINUOUS
  0
LAYER
  2
DEFPOINTS
 70
     0
 62
     7
  6
CONTINUOUS
  0
ENDTAB
  0
TABLE
  2
STYLE
 70
     1
  0
STYLE
  2
STANDARD
 70
     0
 40
0.0
 41
0.8
 50
0.0
 71
     0
 42
0.2
  3
txt
  4

  0
ENDTAB
  0
TABLE
  2
VIEW
 70
     0
  0
ENDTAB
  0
TABLE
  2
UCS
 70
     0
  0
ENDTAB
  0
TABLE
  2
APPID
 70
    10
  0
APPID
  2
ACAD
 70
     0
  0
APPID
  2
ACAD_MLEADERVER
 70
     0
  0
APPID
  2
ACAD_EXEMPT_FROM_CAD_STANDARDS
 70
     0
  0
APPID
  2
ACAD_NAV_VCDISPLAY
 70
     0
  0
APPID
  2
ACAECLAYERSTANDARD
 70
     0
  0
APPID
  2
ACCMTRANSPARENCY
 70
     0
  0
APPID
  2
ACAD_DSTYLE_DIMJAG
 70
     0
  0
APPID
  2
ACAD_DSTYLE_DIMTALN
 70
     0
  0
APPID
  2
ACDBATTR
 70
     0
  0
APPID
  2
ACADANNOTATIVE
 70
     0
  0
ENDTAB
  0
TABLE
  2
DIMSTYLE
 70
     2
  0
DIMSTYLE
  2
STANDARD
 70
     0
  3

  4

  5

  6

  7

 40
1.0
 41
0.1875
 42
0.0625
 43
0.38
 44
0.125
 45
0.0
 46
0.0
 47
0.01
 48
0.01
140
0.15625
141
0.09
142
0.0
143
25.3999999999999986
144
1.0
145
0.0
146
1.0
147
0.09
 71
     1
 72
     0
 73
     1
 74
     1
 75
     0
 76
     0
 77
     0
 78
     4
170
     0
171
     2
172
     0
173
     0
174
     0
175
     0
176
     0
177
     0
178
     0
  0
DIMSTYLE
  2
ANNOTATIVE
 70
     0
  3

  4

  5

  6

  7

 40
0.0
 41
0.18
 42
0.0625
 43
0.38
 44
0.18
 45
0.0
 46
0.0
 47
0.0
 48
0.0
140
0.18
141
0.09
142
0.0
143
25.3999999999999986
144
1.0
145
0.0
146
1.0
147
0.09
 71
     0
 72
     0
 73
     1
 74
     1
 75
     0
 76
     0
 77
     0
 78
     0
170
     0
171
     2
172
     0
173
     0
174
     0
175
     0
176
     0
177
     0
178
     0
  0
ENDTAB
  0
ENDSEC
  0
SECTION
  2
BLOCKS
  0
BLOCK
  8
0
  2
$MODEL_SPACE
 70
     0
 10
0.0
 20
0.0
 30
0.0
  3
$MODEL_SPACE
  1

  0
ENDBLK
  5
21
  8
0
  0
BLOCK
 67
     1
  8
0
  2
$PAPER_SPACE
 70
     0
 10
0.0
 20
0.0
 30
0.0
  3
$PAPER_SPACE
  1

  0
ENDBLK
  5
1D
 67
     1
  8
0
  0
BLOCK
  8
0
  2
_FILLED
 70
     0
 10
0.0
 20
0.0
 30
0.0
  3
_FILLED
  1

  0
SOLID
  5
D8EA
  8
0
  6
BYBLOCK
 62
     0
 10
0.0
 20
0.0
 30
0.0
 11
-1.0
 21
0.1666666667
 31
0.0
 12
-1.0
 22
-0.1666666667
 32
0.0
 13
-1.0
 23
-0.1666666667
 33
0.0
  0
ENDBLK
  5
D8EB
  8
0
  6
BYBLOCK
 62
     0
  0
ENDSEC
  0
SECTION
  2
ENTITIES
  0
ATTDEF
  5
3930
  8
DEFPOINTS
 10
8694.7147822083843494
 20
2162.9742194038321941
 30
0.0
 40
0.001
  1
K-EX36241T-4BLPT
  3

  2
MODELNUMBER
 70
     0
1001
ACDBATTR
1070
     0
1070
     1
  0
ATTDEF
  5
3931
  8
DEFPOINTS
 10
8694.7147822083843494
 20
2162.9725527371660974
 30
0.0
 40
0.001
  1
ORIANA
  3

  2
TRADENAME
 70
     0
1001
ACDBATTR
1070
     0
1070
     1
  0
ATTDEF
  5
3932
  8
DEFPOINTS
 10
8694.7147822083843494
 20
2162.9708860704990911
 30
0.0
 40
0.001
  1
BATH FAUCET
  3

  2
PRODUCT
 70
     0
1001
ACDBATTR
1070
     0
1070
     1
  0
LINE
  5
143E2
  8
0
 10
8684.2212732936441171
 20
2163.5319538663761705
 30
0.0
 11
8693.0401559708443529
 21
2163.5319538663761705
 31
0.0
  0
LINE
  5
143E3
  8
0
 10
8693.5816001901584968
 20
2163.5319538663761705
 30
0.0
 11
8693.9654646823091753
 21
2163.5319538663761705
 31
0.0
  0
LINE
  5
143E4
  8
0
 10
8684.2015732936433778
 20
2163.512253866375886
 30
0.0
 11
8684.2015732936433778
 21
2162.4296066223760135
 31
0.0
  0
LINE
  5
143E5
  8
0
 10
8684.2212732936441171
 20
2162.4099066223761838
 30
0.0
 11
8693.0401559708443529
 21
2162.4099066223761838
 31
0.0
  0
ARC
  5
143E6
  8
0
 10
8684.2212732936441171
 20
2163.512253866375886
 30
0.0
 40
0.0197
 50
90.0
 51
180.0
  0
ARC
  5
143E7
  8
0
 10
8684.2212732936441171
 20
2162.4296066223760135
 30
0.0
 40
0.0197
 50
180.0
 51
270.0
  0
LINE
  5
143E8
  8
0
 10
8693.7324373693445523
 20
2163.2760483545798706
 30
0.0
 11
8693.1770951018661435
 21
2164.2182242023909566
 31
0.0
  0
LINE
  5
143E9
  8
0
 10
8693.7324373693445523
 20
2162.6658121341711194
 30
0.0
 11
8693.7324373693445523
 21
2163.2760483545798706
 31
0.0
  0
LINE
  5
143EA
  8
0
 10
8693.7324373693445523
 20
2162.6658121341711194
 30
0.0
 11
8693.1770951018661435
 21
2161.7236362863600334
 31
0.0
  0
LINE
  5
143EB
  8
0
 10
8693.1770951018661435
 20
2161.7236362863600334
 30
0.0
 11
8693.1616262701354572
 21
2161.6985063882630129
 31
0.0
  0
LINE
  5
143EC
  8
0
 10
8693.2173213251444395
 20
2160.2968984344670389
 30
0.0
 11
8693.2173213251444395
 21
2161.7918828043029862
 31
0.0
  0
LINE
  5
143ED
  8
0
 10
8693.4732268369443773
 20
2160.3006775521880627
 30
0.0
 11
8693.4732268369443773
 21
2162.2260438733569572
 31
0.0
  0
LINE
  5
143EE
  8
0
 10
8693.4538706493458449
 20
2160.2809805525930642
 30
0.0
 11
8693.2373651375455665
 21
2160.2772014348720404
 31
0.0
  0
ARC
  5
143EF
  8
0
 10
8693.453526836945457
 20
2160.3006775521880627
 30
0.0
 40
0.0197
 50
270.9999999883012265
 51
0.0
  0
ARC
  5
143F0
  8
0
 10
8693.2370213251433597
 20
2160.2968984344670389
 30
0.0
 40
0.0197
 50
180.0
 51
270.9999999884054205
  0
LINE
  5
143F1
  8
0
 10
8693.9806826324438589
 20
2163.6350305682572071
 30
0.0
 11
8693.9806826324438589
 21
2162.3068299204951472
 31
0.0
  0
ARC
  5
143F2
  8
0
 10
8693.7326152414752869
 20
2163.2662058347978018
 30
0.0
 40
0.0196850393175199
 50
269.4822737718534995
 51
336.0834659677640843
  0
ARC
  5
143F3
  8
0
 10
8694.3984236723299546
 20
2162.970930256327847
 30
0.0
 40
0.7086613987447801
 50
126.1200478971161942
 51
156.0834659677639991
  0
LINE
  5
143F4
  8
0
 10
8693.5816001901584968
 20
2162.4099066223761838
 30
0.0
 11
8693.9654646823091753
 21
2162.4099066223761838
 31
0.0
  0
ARC
  5
143F5
  8
0
 10
8693.7326152414752869
 20
2162.6756546539531882
 30
0.0
 40
0.0196850393175199
 50
23.9165340322359405
 51
90.5177262281464436
  0
ARC
  5
143F6
  8
0
 10
8694.3984236723299546
 20
2162.9709302324240525
 30
0.0
 40
0.7086613987447801
 50
203.9165340322358873
 51
233.8799521028838058
  0
LINE
  5
143F7
  8
0
 10
8693.7506100643458922
 20
2162.683635075175971
 30
0.0
 11
8693.7506100643458922
 21
2163.2582254135759285
 31
0.0
  0
ARC
  5
143F8
  8
0
 10
8696.0396500554434169
 20
2162.9709302443748129
 30
0.0
 40
2.1653543307015459
 50
156.0817711636524905
 51
161.7974310510001885
  0
LINE
  5
143F9
  8
0
 10
8694.1108271977427648
 20
2163.8565474515671667
 30
0.0
 11
8694.0708262389343872
 21
2163.8558492322181337
 31
0.0
  0
LINE
  5
143FA
  8
0
 10
8694.1228331361453456
 20
2163.8487570159759343
 30
0.0
 11
8694.1228331361453456
 21
2162.0931034727759652
 31
0.0
  0
ARC
  5
143FB
  8
0
 10
8694.1110331361433055
 20
2163.8447492487639465
 30
0.0
 40
0.0118
 50
0.0
 51
91.0000000223865158
  0
ARC
  5
143FC
  8
0
 10
8694.0710321773349278
 20
2163.8440510294149135
 30
0.0
 40
0.0118
 50
91.000000022282336
 51
156.0817711637714922
  0
ARC
  5
143FD
  8
0
 10
8694.0200826324435184
 20
2163.6350305682572071
 30
0.0
 40
0.0394
 50
161.7974310511239082
 51
179.999999999947903
  0
ARC
  5
143FE
  8
0
 10
8696.0396500554434169
 20
2162.9709302443770866
 30
0.0
 40
2.1653543307015459
 50
198.2025689489998115
 51
203.9182288363475095
  0
LINE
  5
143FF
  8
0
 10
8694.1108271977427648
 20
2162.0853130371851876
 30
0.0
 11
8694.0708262389343872
 21
2162.0860112565342206
 31
0.0
  0
ARC
  5
14400
  8
0
 10
8694.1110331361433055
 20
2162.097111239987953
 30
0.0
 40
0.0118
 50
268.9999999776135269
 51
0.0
  0
ARC
  5
14401
  8
0
 10
8694.0710321773349278
 20
2162.097809459336986
 30
0.0
 40
0.0118
 50
203.9182288362283941
 51
268.9999999777177209
  0
ARC
  5
14402
  8
0
 10
8694.0200826324435184
 20
2162.3068299204951472
 30
0.0
 40
0.0394
 50
180.000000000052097
 51
198.2025689488760065
  0
LINE
  5
14403
  8
0
 10
8694.0602455021944479
 20
2163.8488351321962
 30
0.0
 11
8694.0602455021944479
 21
2162.0930253565561543
 31
0.0
  0
LINE
  5
14404
  8
0
 10
8691.0176772666382021
 20
2163.8567570159761999
 30
0.0
 11
8691.1385662070442777
 21
2163.8567570159761999
 31
0.0
  0
LINE
  5
14405
  8
0
 10
8691.1976512464443658
 20
2163.8567570159761999
 30
0.0
 11
8691.8669276243435888
 21
2163.8567570159761999
 31
0.0
  0
LINE
  5
14406
  8
0
 10
8692.2999984905454767
 20
2163.8567570159761999
 30
0.0
 11
8693.0401559708443529
 21
2163.8567570159761999
 31
0.0
  0
LINE
  5
14407
  8
0
 10
8693.3901530011844443
 20
2163.8567570159761999
 30
0.0
 11
8694.5165339235445572
 21
2163.8567570159761999
 31
0.0
  0
LINE
  5
14408
  8
0
 10
8692.2999984905454767
 20
2163.8567570159761999
 30
0.0
 11
8692.2999984905454767
 21
2163.5319538663761705
 31
0.0
  0
LINE
  5
14409
  8
0
 10
8692.2999984905454767
 20
2162.4099066223761838
 30
0.0
 11
8692.2999984905454767
 21
2162.0851034727761544
 31
0.0
  0
LINE
  5
1440A
  8
0
 10
8691.1976512464443658
 20
2162.0851034727761544
 30
0.0
 11
8691.8669276243435888
 21
2162.0851034727761544
 31
0.0
  0
LINE
  5
1440B
  8
0
 10
8691.8984126637442387
 20
2162.0851034727761544
 30
0.0
 11
8692.2685134511430078
 21
2162.0851034727761544
 31
0.0
  0
LINE
  5
1440C
  8
0
 10
8692.2999984905454767
 20
2162.0851034727761544
 30
0.0
 11
8693.0401559708443529
 21
2162.0851034727761544
 31
0.0
  0
LINE
  5
1440D
  8
0
 10
8694.1308331361433375
 20
2162.0851034727761544
 30
0.0
 11
8694.5165339235445572
 21
2162.0851034727761544
 31
0.0
  0
ARC
  5
1440E
  8
0
 10
8694.4164000653436233
 20
2162.0061034727759761
 30
0.0
 40
0.079
 50
90.0
 51
180.0
  0
ARC
  5
1440F
  8
0
 10
8694.1308331361433375
 20
2163.8487570159759343
 30
0.0
 40
0.008
 50
90.0
 51
179.999999999947903
  0
ARC
  5
14410
  8
0
 10
8694.1308331361433375
 20
2162.0931034727759652
 30
0.0
 40
0.008
 50
180.0
 51
270.0
  0
LINE
  5
14411
  8
0
 10
8694.5165339235445572
 20
2164.2307578033760365
 30
0.0
 11
8694.5165339235445572
 21
2161.7111026853758631
 31
0.0
  0
LINE
  5
14412
  8
0
 10
8694.7133843172432535
 20
2164.2504578033758662
 30
0.0
 11
8694.7133843172432535
 21
2161.6914026853760333
 31
0.0
  0
LINE
  5
14413
  8
0
 10
8694.5362339235434774
 20
2164.2504578033758662
 30
0.0
 11
8694.7133843172432535
 21
2164.2504578033758662
 31
0.0
  0
ARC
  5
14414
  8
0
 10
8694.5362339235434774
 20
2164.2307578033760365
 30
0.0
 40
0.0197
 50
90.0
 51
180.0
  0
LINE
  5
14415
  8
0
 10
8694.5362339235434774
 20
2161.6914026853760333
 30
0.0
 11
8694.7133843172432535
 21
2161.6914026853760333
 31
0.0
  0
ARC
  5
14416
  8
0
 10
8694.5362339235434774
 20
2161.7111026853758631
 30
0.0
 40
0.0197
 50
180.0
 51
270.0
  0
LINE
  5
14417
  8
0
 10
8693.4732268369443773
 20
2161.9276231577759972
 30
0.0
 11
8694.3374000653438998
 21
2161.9276231577759972
 31
0.0
  0
LINE
  5
14418
  8
0
 10
8694.3275575456464139
 20
2161.86856803967612
 30
0.0
 11
8693.4732268369443773
 21
2161.86856803967612
 31
0.0
  0
LINE
  5
14419
  8
0
 10
8694.2685024275433534
 20
2160.4512452049762032
 30
0.0
 11
8694.3275575456464139
 21
2161.86856803967612
 31
0.0
  0
LINE
  5
1441A
  8
0
 10
8693.4811008527431113
 20
2160.4512452049762032
 30
0.0
 11
8694.2685024275433534
 21
2160.4512452049762032
 31
0.0
  0
LINE
  5
1441B
  8
0
 10
8693.4732268369443773
 20
2160.6402215828761655
 30
0.0
 11
8693.4811008527431113
 21
2160.4512452049762032
 31
0.0
  0
LINE
  5
1441C
  8
0
 10
8693.5106284117446194
 20
2161.9276231577759972
 30
0.0
 11
8693.5106284117446194
 21
2161.86856803967612
 31
0.0
  0
LINE
  5
1441D
  8
0
 10
8694.2389748684436199
 20
2161.9276231577759972
 30
0.0
 11
8694.2389748684436199
 21
2161.86856803967612
 31
0.0
  0
LINE
  5
1441E
  8
0
 10
8694.3374000653438998
 20
2162.0061034727759761
 30
0.0
 11
8694.3374000653438998
 21
2161.9276231577759972
 31
0.0
  0
ARC
  5
1441F
  8
0
 10
8693.999443467171659
 20
2161.1865271666461013
 30
0.0
 40
1.00633912462161
 50
109.2139450908563987
 51
121.5271066127191943
  0
ARC
  5
14420
  8
0
 10
8693.8781748178334965
 20
2161.534490580253987
 30
0.0
 40
0.6378494741263508
 50
87.3512478644842787
 51
109.2139450908563987
  0
ARC
  5
14421
  8
0
 10
8693.8820419714993477
 20
2161.6180822888268267
 30
0.0
 40
0.5541683614444657
 50
73.8984046478445009
 51
87.3512478644842787
  0
ARC
  5
14422
  8
0
 10
8693.597411573970021
 20
2160.9002034111681496
 30
0.0
 40
1.330638160293186
 50
56.2124186820456302
 51
62.9330003099850117
  0
LINE
  5
14423
  8
0
 10
8693.5893685692444706
 20
2160.4512452049762032
 30
0.0
 11
8693.5893685692444706
 21
2138.8764420553761738
 31
0.0
  0
LINE
  5
14424
  8
0
 10
8694.1602347109437687
 20
2160.4512452049762032
 30
0.0
 11
8694.1602347109437687
 21
2138.8764420553761738
 31
0.0
  0
LINE
  5
14425
  8
0
 10
8690.8137780180441041
 20
2162.348883000276146
 30
0.0
 11
8690.8137780180441041
 21
2138.8764420553761738
 31
0.0
  0
LINE
  5
14426
  8
0
 10
8690.2429118763448059
 20
2162.348883000276146
 30
0.0
 11
8690.2429118763448059
 21
2138.8764420553761738
 31
0.0
  0
ARC
  5
14427
  8
0
 10
8692.2015732936415588
 20
2138.8764420553761738
 30
0.0
 40
1.387795275599998
 50
180.0
 51
0.0
  0
ARC
  5
14428
  8
0
 10
8692.2015732936415588
 20
2138.8764420553761738
 30
0.0
 40
1.9586614173000001
 50
180.0
 51
0.0
  0
LINE
  5
14429
  8
0
 10
8690.1149740810433286
 20
2162.348883000276146
 30
0.0
 11
8691.0132659442861041
 21
2162.348883000276146
 31
0.0
  0
LINE
  5
1442A
  8
0
 10
8690.0952740810425894
 20
2162.3685830002759758
 30
0.0
 11
8690.0952740810425894
 21
2162.4099066223761838
 31
0.0
  0
ARC
  5
1442B
  8
0
 10
8690.1149740810433286
 20
2162.3932921292198444
 30
0.0
 40
0.0197
 50
180.0
 51
269.4493786455851136
  0
LINE
  5
1442C
  8
0
 10
8690.0952740810425894
 20
2163.5319538663761705
 30
0.0
 11
8690.0952740810425894
 21
2163.7567774600761368
 31
0.0
  0
ARC
  5
1442D
  8
0
 10
8690.1149740810433286
 20
2163.6052797352758716
 30
0.0
 40
0.0197
 50
90.0
 51
180.0
  0
ARC
  5
1442E
  8
0
 10
8690.1149740810433286
 20
2163.554989781713175
 30
0.0
 40
0.0197
 50
90.5388032537165941
 51
180.0
  0
ARC
  5
1442F
  8
0
 10
8690.1149740810433286
 20
2163.5485605521339494
 30
0.0
 40
0.0197
 50
90.5510441811741345
 51
180.0
  0
LINE
  5
14430
  8
0
 10
8690.1147888271298143
 20
2162.3671716858862055
 30
0.0
 11
8691.1848687297424476
 21
2162.3571084749269176
 31
0.0
  0
LINE
  5
14431
  8
0
 10
8691.1779512464436266
 20
2162.1048034727759841
 30
0.0
 11
8691.1779512464436266
 21
2162.357173528101157
 31
0.0
  0
LINE
  5
14432
  8
0
 10
8691.1779512464436266
 20
2163.5846870686691545
 30
0.0
 11
8691.1779512464436266
 21
2163.8370570159759154
 31
0.0
  0
ARC
  5
14433
  8
0
 10
8690.1149740810433286
 20
2162.3868708148252153
 30
0.0
 40
0.0197
 50
180.0
 51
269.4611967587903223
  0
ARC
  5
14434
  8
0
 10
8690.1149740810433286
 20
2162.3685830002759758
 30
0.0
 40
0.0197
 50
180.0
 51
270.0
  0
LINE
  5
14435
  8
0
 10
8691.8866126637421985
 20
2162.0969034727759208
 30
0.0
 11
8691.8866126637421985
 21
2162.4099066223761838
 31
0.0
  0
LINE
  5
14436
  8
0
 10
8691.8866126637421985
 20
2163.5319538663761705
 30
0.0
 11
8691.8866126637421985
 21
2164.7307837876760459
 31
0.0
  0
ARC
  5
14437
  8
0
 10
8691.8984126637442387
 20
2163.8325672201758607
 30
0.0
 40
0.0118
 50
90.0
 51
180.0
  0
LINE
  5
14438
  8
0
 10
8692.280313451143229
 20
2162.0969034727759208
 30
0.0
 11
8692.280313451143229
 21
2162.4099066223761838
 31
0.0
  0
LINE
  5
14439
  8
0
 10
8692.280313451143229
 20
2163.5319538663761705
 30
0.0
 11
8692.280313451143229
 21
2164.7307837876760459
 31
0.0
  0
ARC
  5
1443A
  8
0
 10
8692.2685134511430078
 20
2163.8325672201758607
 30
0.0
 40
0.0118
 50
0.0
 51
90.0
  0
ARC
  5
1443B
  8
0
 10
8692.2685134511430078
 20
2162.0969034727759208
 30
0.0
 40
0.0118
 50
270.0
 51
359.9999999999740226
  0
LINE
  5
1443C
  8
0
 10
8691.8669276243435888
 20
2162.0851034727761544
 30
0.0
 11
8691.8669276243435888
 21
2162.4099066223761838
 31
0.0
  0
LINE
  5
1443D
  8
0
 10
8691.8669276243435888
 20
2163.5319538663761705
 30
0.0
 11
8691.8669276243435888
 21
2163.8567570159761999
 31
0.0
  0
ARC
  5
1443E
  8
0
 10
8691.8984126637442387
 20
2162.0969034727759208
 30
0.0
 40
0.0118
 50
180.0000000000260059
 51
270.0
  0
ARC
  5
1443F
  8
0
 10
8691.1976512464443658
 20
2162.1048034727759841
 30
0.0
 40
0.0197
 50
180.0
 51
270.0
  0
ARC
  5
14440
  8
0
 10
8690.7448804029227176
 20
2162.9709301958391734
 30
0.0
 40
0.6791338047270504
 50
294.0161361739864105
 51
295.6040902189524218
  0
ARC
  5
14441
  8
0
 10
8691.0132659442861041
 20
2162.3685830002768853
 30
0.0
 40
0.0197
 50
270.000000000208388
 51
294.0161361732986052
  0
LINE
  5
14442
  8
0
 10
8691.8669276243435888
 20
2162.1540011104762016
 30
0.0
 11
8691.8866126637421985
 21
2162.1540011104762016
 31
0.0
  0
LINE
  5
14443
  8
0
 10
8692.280313451143229
 20
2162.1540011104762016
 30
0.0
 11
8692.2999984905454767
 21
2162.1540011104762016
 31
0.0
  0
LINE
  5
14444
  8
0
 10
8691.8984126637442387
 20
2164.7425837876758123
 30
0.0
 11
8692.2685134511430078
 21
2164.7425837876758123
 31
0.0
  0
ARC
  5
14445
  8
0
 10
8692.2685134511430078
 20
2164.7307837876760459
 30
0.0
 40
0.0118
 50
0.0
 51
90.0
  0
ARC
  5
14446
  8
0
 10
8691.8984126637442387
 20
2164.7307837876760459
 30
0.0
 40
0.0118
 50
90.0
 51
180.0
  0
LINE
  5
14447
  8
0
 10
8691.1582662070431979
 20
2163.8370570159759154
 30
0.0
 11
8691.1582662070431979
 21
2163.5845019472508284
 31
0.0
  0
ARC
  5
14448
  8
0
 10
8691.1976512464443658
 20
2163.8370570159759154
 30
0.0
 40
0.0197
 50
90.0
 51
180.0
  0
ARC
  5
14449
  8
0
 10
8691.1385662070442777
 20
2163.8370570159759154
 30
0.0
 40
0.0197
 50
0.0
 51
90.0
  0
LINE
  5
1444A
  8
0
 10
8692.2685134511430078
 20
2163.8443672201760819
 30
0.0
 11
8691.8984126637442387
 21
2163.8443672201760819
 31
0.0
  0
LINE
  5
1444B
  8
0
 10
8692.2999984905454767
 20
2163.7878593781761083
 30
0.0
 11
8692.280313451143229
 21
2163.7878593781761083
 31
0.0
  0
LINE
  5
1444C
  8
0
 10
8691.8866126637421985
 20
2163.7878593781761083
 30
0.0
 11
8691.8669276243435888
 21
2163.7878593781761083
 31
0.0
  0
LINE
  5
1444D
  8
0
 10
8690.1149740810433286
 20
2163.6249797352761561
 30
0.0
 11
8691.1385662070442777
 21
2163.6249797352761561
 31
0.0
  0
LINE
  5
1444E
  8
0
 10
8690.1147888271261763
 20
2163.5746889106530944
 30
0.0
 11
8691.1850876563476049
 21
2163.5847541806660956
 31
0.0
  0
ARC
  5
1444F
  8
0
 10
8691.1385662070442777
 20
2163.6052797352758716
 30
0.0
 40
0.0197
 50
0.0
 51
90.0
  0
LINE
  5
14450
  8
0
 10
8691.1976362857440108
 20
2162.3631863469581731
 30
0.0
 11
8691.1976362857440108
 21
2162.0851034784568583
 31
0.0
  0
LINE
  5
14451
  8
0
 10
8691.1976362857440108
 20
2163.5786743262760865
 30
0.0
 11
8691.1976362857440108
 21
2163.8567570102950413
 31
0.0
  0
LINE
  5
14452
  8
0
 10
8690.1147847638931125
 20
2162.373593038909803
 30
0.0
 11
8691.1976362857440108
 21
2162.3631863469581731
 31
0.0
  0
ARC
  5
14453
  8
0
 10
8691.1779039592820482
 20
2162.3881882020518788
 30
0.0
 40
0.0318505489074549
 50
282.6309478519859795
 51
308.2817196316112813
  0
ARC
  5
14454
  8
0
 10
8691.1773793284428393
 20
2163.5528565228210027
 30
0.0
 40
0.0328158329932109
 50
51.882656265122101
 51
76.4144716791989111
  0
LINE
  5
14455
  8
0
 10
8690.1147846185194794
 20
2163.5682596410460974
 30
0.0
 11
8691.1976362857440108
 21
2163.5786743262760865
 31
0.0
  0
LINE
  5
14456
  8
0
 10
8690.2067106180693372
 20
2163.7764774600759665
 30
0.0
 11
8690.1149740810433286
 21
2163.7764774600759665
 31
0.0
  0
ARC
  5
14457
  8
0
 10
8690.6204295345451101
 20
2164.7952906182417792
 30
0.0
 40
1.0981877052420459
 50
248.2788400424074098
 51
253.121076945041807
  0
ARC
  5
14458
  8
0
 10
8690.5414128139382228
 20
2164.5348715903342054
 30
0.0
 40
0.8260448893678823
 50
253.121076945041807
 51
260.8841640453031232
  0
ARC
  5
14459
  8
0
 10
8690.5316288468075072
 20
2164.4738961633452163
 30
0.0
 40
0.7642894951958703
 50
260.8841640453031232
 51
268.6798904220935924
  0
ARC
  5
1445A
  8
0
 10
8690.530062583340623
 20
2164.4059287706818395
 30
0.0
 40
0.6963040581767483
 50
268.6798904220935924
 51
278.1807164154379848
  0
ARC
  5
1445B
  8
0
 10
8690.5049126594294648
 20
2164.5808742151698425
 30
0.0
 40
0.8730480176775722
 50
278.1807164154379848
 51
285.1171318982255798
  0
ARC
  5
1445C
  8
0
 10
8690.4920667076203245
 20
2164.6284268914901077
 30
0.0
 40
0.9223052557552547
 50
285.1171318982255798
 51
290.576727391809527
  0
ARC
  5
1445D
  8
0
 10
8690.3398694117222476
 20
2165.0338411597072081
 30
0.0
 40
1.3553465306392101
 50
290.576727391809527
 51
294.678223741642114
  0
ARC
  5
1445E
  8
0
 10
8690.2958761995487293
 20
2165.1295850990231884
 30
0.0
 40
1.4607140049042531
 50
294.678223741642114
 51
299.180794903777894
  0
ARC
  5
1445F
  8
0
 10
8691.0176772666382021
 20
2163.8370570159759154
 30
0.0
 40
0.0197
 50
90.0
 51
119.180794903777894
  0
ARC
  5
14460
  8
0
 10
8690.2067106180693372
 20
2163.7567774600761368
 30
0.0
 40
0.0197
 50
68.2788400425042141
 51
90.0
  0
ARC
  5
14461
  8
0
 10
8690.1149740810433286
 20
2163.7567774600761368
 30
0.0
 40
0.0197
 50
90.0
 51
179.9999999999739089
  0
LINE
  5
14462
  8
0
 10
8690.9811008527431113
 20
2163.8764420553761738
 30
0.0
 11
8690.0755890416457987
 21
2163.8764420553761738
 31
0.0
  0
LINE
  5
14463
  8
0
 10
8690.9811008527431113
 20
2163.8764420553761738
 30
0.0
 11
8690.9794836358614702
 21
2163.8387069958921529
 31
0.0
  0
LINE
  5
14464
  8
0
 10
8690.0755890416457987
 20
2163.8764420553761738
 30
0.0
 11
8690.0903528212438687
 21
2163.5319538663761705
 31
0.0
  0
LINE
  5
14465
  8
0
 10
8691.0795260495433467
 20
2163.9158121340760772
 30
0.0
 11
8689.9771638448437443
 21
2163.9158121340760772
 31
0.0
  0
LINE
  5
14466
  8
0
 10
8689.9771638448437443
 20
2163.9158121340760772
 30
0.0
 11
8689.9771638448437443
 21
2167.4846767419580829
 31
0.0
  0
LINE
  5
14467
  8
0
 10
8689.9771638448437443
 20
2168.0910418373941866
 30
0.0
 11
8689.9771638448437443
 21
2168.2720783825598119
 31
0.0
  0
LINE
  5
14468
  8
0
 10
8689.9771638448437443
 20
2168.3115537331259475
 30
0.0
 11
8689.9771638448437443
 21
2168.8389680948262139
 31
0.0
  0
LINE
  5
14469
  8
0
 10
8689.9771638448437443
 20
2168.8784434453909853
 30
0.0
 11
8689.9771638448437443
 21
2169.511134721667986
 31
0.0
  0
LINE
  5
1446A
  8
0
 10
8689.9771638448437443
 20
2169.6003886372091074
 30
0.0
 11
8689.9771638448437443
 21
2169.614566199651108
 31
0.0
  0
LINE
  5
1446B
  8
0
 10
8689.9771638448437443
 20
2169.7558542080678308
 30
0.0
 11
8689.9771638448437443
 21
2169.7644346823090018
 31
0.0
  0
LINE
  5
1446C
  8
0
 10
8689.9771638448437443
 20
2169.8536885978501232
 30
0.0
 11
8689.9771638448437443
 21
2169.8678661602930333
 31
0.0
  0
LINE
  5
1446D
  8
0
 10
8689.9771638448437443
 20
2170.0091541687102108
 30
0.0
 11
8689.9771638448437443
 21
2170.0177215381918359
 31
0.0
  0
LINE
  5
1446E
  8
0
 10
8689.9771638448437443
 20
2170.1069754537329572
 30
0.0
 11
8689.9771638448437443
 21
2170.1211530161749579
 31
0.0
  0
LINE
  5
1446F
  8
0
 10
8689.9771638448437443
 20
2170.2624410245921354
 30
0.0
 11
8689.9771638448437443
 21
2170.2709951019301116
 31
0.0
  0
LINE
  5
14470
  8
0
 10
8689.9771638448437443
 20
2170.3602490174707782
 30
0.0
 11
8689.9771638448437443
 21
2170.3744265799141431
 31
0.0
  0
LINE
  5
14471
  8
0
 10
8689.9771638448437443
 20
2170.5157145883299563
 30
0.0
 11
8689.9771638448437443
 21
2170.5242551643491424
 31
0.0
  0
LINE
  5
14472
  8
0
 10
8689.9771638448437443
 20
2170.6135090798898091
 30
0.0
 11
8689.9771638448437443
 21
2170.6276866423318097
 31
0.0
  0
LINE
  5
14473
  8
0
 10
8689.9771638448437443
 20
2170.7689746507489872
 30
0.0
 11
8689.9771638448437443
 21
2170.7749376349388513
 31
0.0
  0
LINE
  5
14474
  8
0
 10
8689.9771638448437443
 20
2170.8637732474680888
 30
0.0
 11
8689.9771638448437443
 21
2170.8745184106492161
 31
0.0
  0
LINE
  5
14475
  8
0
 10
8689.9771638448437443
 20
2171.0161280399352108
 30
0.0
 11
8689.9771638448437443
 21
2171.0269061388839873
 31
0.0
  0
LINE
  5
14476
  8
0
 10
8689.9771638448437443
 20
2171.1157417514132248
 30
0.0
 11
8689.9771638448437443
 21
2171.1217047356030889
 31
0.0
  0
LINE
  5
14477
  8
0
 10
8689.9771638448437443
 20
2171.2629927440189022
 30
0.0
 11
8689.9771638448437443
 21
2171.2771703064618123
 31
0.0
  0
LINE
  5
14478
  8
0
 10
8689.9771638448437443
 20
2171.3664242220038432
 30
0.0
 11
8689.9771638448437443
 21
2171.3749647980221198
 31
0.0
  0
LINE
  5
14479
  8
0
 10
8689.9771638448437443
 20
2171.516252806437933
 30
0.0
 11
8689.9771638448437443
 21
2171.5304303688808432
 31
0.0
  0
LINE
  5
1447A
  8
0
 10
8689.9771638448437443
 20
2171.6196842844219645
 30
0.0
 11
8689.9771638448437443
 21
2171.6282383617599407
 31
0.0
  0
LINE
  5
1447B
  8
0
 10
8689.9771638448437443
 20
2171.7695263701771182
 30
0.0
 11
8689.9771638448437443
 21
2171.7837039326191189
 31
0.0
  0
LINE
  5
1447C
  8
0
 10
8689.9771638448437443
 20
2171.8729578481597855
 30
0.0
 11
8689.9771638448437443
 21
2171.8815252176418653
 31
0.0
  0
LINE
  5
1447D
  8
0
 10
8689.9771638448437443
 20
2172.0228132260590428
 30
0.0
 11
8689.9771638448437443
 21
2172.0369907885019529
 31
0.0
  0
LINE
  5
1447E
  8
0
 10
8689.9771638448437443
 20
2172.1262447040430743
 30
0.0
 11
8689.9771638448437443
 21
2172.1348251782837906
 31
0.0
  0
LINE
  5
1447F
  8
0
 10
8689.9771638448437443
 20
2172.2761131867000586
 30
0.0
 11
8689.9771638448437443
 21
2172.2902907491438782
 31
0.0
  0
LINE
  5
14480
  8
0
 10
8689.9771638448437443
 20
2172.3795446646849996
 30
0.0
 11
8689.9771638448437443
 21
2173.3646310317758434
 31
0.0
  0
LINE
  5
14481
  8
0
 10
8691.0795260495433467
 20
2163.9158121340760772
 30
0.0
 11
8691.0795260495433467
 21
2173.3646310317758434
 31
0.0
  0
LINE
  5
14482
  8
0
 10
8690.1661402227437065
 20
2163.9158121340760772
 30
0.0
 11
8690.1661402227437065
 21
2163.8764420553761738
 31
0.0
  0
LINE
  5
14483
  8
0
 10
8690.8905496716415655
 20
2163.9158121340760772
 30
0.0
 11
8690.8905496716415655
 21
2163.8764420553761738
 31
0.0
  0
LINE
  5
14484
  8
0
 10
8691.0795260495433467
 20
2163.9945522915759284
 30
0.0
 11
8691.0749513847458729
 21
2163.9945522915759284
 31
0.0
  0
LINE
  5
14485
  8
0
 10
8691.0749513847458729
 20
2163.9945522915759284
 30
0.0
 11
8691.0749513847458729
 21
2163.9158121340760772
 31
0.0
  0
LINE
  5
14486
  8
0
 10
8689.9771638448437443
 20
2173.3646310317758434
 30
0.0
 11
8691.0795260495433467
 21
2173.3646310317758434
 31
0.0
  0
ARC
  5
14487
  8
0
 10
8689.0862397635373782
 20
2168.3752748848160081
 30
0.0
 40
1.022166542021745
 50
25.7200523796304488
 51
29.2377172906579084
  0
ARC
  5
14488
  8
0
 10
8689.9851638448435551
 20
2168.8784434453909853
 30
0.0
 40
0.008
 50
180.0
 51
209.2377172906805924
  0
ARC
  5
14489
  8
0
 10
8689.3049233307883696
 20
2168.4806144559861423
 30
0.0
 40
0.7794343277634149
 50
18.7251811054101083
 51
25.7200523796304488
  0
ARC
  5
1448A
  8
0
 10
8689.5592902020889596
 20
2168.5668375108930377
 30
0.0
 40
0.5108511555205649
 50
10.39392196875556
 51
18.7251811054101083
  0
ARC
  5
1448B
  8
0
 10
8689.5912510832404223
 20
2168.5726975740722082
 30
0.0
 40
0.4783574906161132
 50
0.3034912674034154
 51
10.3941990114759104
  0
ARC
  5
1448C
  8
0
 10
8689.0862397635373782
 20
2168.7752469431361533
 30
0.0
 40
1.022166542021745
 50
330.7622827093421165
 51
334.2799476203696258
  0
ARC
  5
1448D
  8
0
 10
8689.9851638448435551
 20
2168.2720783825598119
 30
0.0
 40
0.008
 50
150.7622827093420881
 51
180.0
  0
ARC
  5
1448E
  8
0
 10
8689.3049233307883696
 20
2168.6699073719660191
 30
0.0
 40
0.7794343277634149
 50
334.2799476203696258
 51
341.2748188945898846
  0
ARC
  5
1448F
  8
0
 10
8689.5592902020889596
 20
2168.5836843170591237
 30
0.0
 40
0.5108511555205649
 50
341.2748188945898846
 51
349.6060780312445218
  0
ARC
  5
14490
  8
0
 10
8689.5912047223700938
 20
2168.5778304060140727
 30
0.0
 40
0.478404200663886
 50
349.6060780312445218
 51
359.6887282818295262
  0
LINE
  5
14491
  8
0
 10
8689.98916384484437
 20
2168.8509680948259302
 30
0.0
 11
8689.9909719944116659
 21
2168.8509680948259302
 31
0.0
  0
LINE
  5
14492
  8
0
 10
8689.98916384484437
 20
2168.2995537331257765
 30
0.0
 11
8689.9909719944116659
 21
2168.2995537331257765
 31
0.0
  0
ARC
  5
14493
  8
0
 10
8689.98916384484437
 20
2168.8389680948262139
 30
0.0
 40
0.012
 50
90.0
 51
179.9999999999739089
  0
ARC
  5
14494
  8
0
 10
8689.98916384484437
 20
2168.3115537331259475
 30
0.0
 40
0.012
 50
180.0000000000260059
 51
270.0
  0
ARC
  5
14495
  8
0
 10
8689.0774330128024303
 20
2167.5833718141989266
 30
0.0
 40
1.0320500545103091
 50
25.6327479662705215
 51
29.2171392576761306
  0
ARC
  5
14496
  8
0
 10
8689.9851638448435551
 20
2168.0910418373941866
 30
0.0
 40
0.008
 50
180.0
 51
209.2171392576989035
  0
ARC
  5
14497
  8
0
 10
8689.3413295906866551
 20
2167.7085116847738391
 30
0.0
 40
0.73999030819798
 50
18.0302830568153816
 51
25.7363212058015414
  0
ARC
  5
14498
  8
0
 10
8689.5550406852235028
 20
2167.7780755297540054
 30
0.0
 40
0.5152425374472442
 50
9.7771902702129179
 51
18.0302830568153816
  0
ARC
  5
14499
  8
0
 10
8689.3674369383134035
 20
2167.7656808193819415
 30
0.0
 40
0.7025009801405674
 50
1.8091703311554339
 51
8.1748503749914097
  0
ARC
  5
1449A
  8
0
 10
8689.0774330128024303
 20
2167.9923467651519786
 30
0.0
 40
1.0320500545103091
 50
330.7828607423239191
 51
334.3672520337295282
  0
ARC
  5
1449B
  8
0
 10
8689.9851638448435551
 20
2167.4846767419580829
 30
0.0
 40
0.008
 50
150.7828607423238054
 51
180.0
  0
ARC
  5
1449C
  8
0
 10
8689.3413295906866551
 20
2167.8672068945779756
 30
0.0
 40
0.73999030819798
 50
334.2636787941984835
 51
341.9697169431846078
  0
ARC
  5
1449D
  8
0
 10
8689.5550406852235028
 20
2167.7976430495978093
 30
0.0
 40
0.5152425374472442
 50
341.9697169431846078
 51
350.2228097297871159
  0
ARC
  5
1449E
  8
0
 10
8689.3674369383134035
 20
2167.8100377599698732
 30
0.0
 40
0.7025009801405674
 50
351.8251496250085779
 51
358.1908296688445716
  0
LINE
  5
1449F
  8
0
 10
8689.8868016401447676
 20
2168.0640111352258828
 30
0.0
 11
8689.9907309697136952
 21
2168.0640111352258828
 31
0.0
  0
LINE
  5
144A0
  8
0
 10
8689.8868016401447676
 20
2167.5117074441259319
 30
0.0
 11
8689.9907309697136952
 21
2167.5117074441259319
 31
0.0
  0
LINE
  5
144A1
  8
0
 10
8689.8748016401441419
 20
2168.0520111352261665
 30
0.0
 11
8689.8748016401441419
 21
2167.5237074441261029
 31
0.0
  0
ARC
  5
144A2
  8
0
 10
8689.8868016401447676
 20
2168.0520111352261665
 30
0.0
 40
0.012
 50
90.0
 51
179.9999999999739089
  0
ARC
  5
144A3
  8
0
 10
8689.8868016401447676
 20
2167.5237074441261029
 30
0.0
 40
0.012
 50
180.0000000000260059
 51
270.0
  0
ARC
  5
144A4
  8
0
 10
8689.092592096350927
 20
2167.6623719851550049
 30
0.0
 40
0.873882393499565
 50
21.3305146743172109
 51
26.4791029894469503
  0
ARC
  5
144A5
  8
0
 10
8689.3363757937859191
 20
2167.758515390276898
 30
0.0
 40
0.6118271794981492
 50
10.3845189318307298
 51
21.2479486050972994
  0
ARC
  5
144A6
  8
0
 10
8689.339135715206794
 20
2167.7759579906110048
 30
0.0
 40
0.606197336028907
 50
1.124943940698103
 51
8.8097280826711728
  0
ARC
  5
144A7
  8
0
 10
8689.092592096350927
 20
2167.9133465941959003
 30
0.0
 40
0.873882393499565
 50
333.5208970105530284
 51
338.6694853256827855
  0
ARC
  5
144A8
  8
0
 10
8689.3363757937859191
 20
2167.8172031890749167
 30
0.0
 40
0.6118271794981492
 50
338.7520513949027077
 51
349.6154810681692879
  0
ARC
  5
144A9
  8
0
 10
8689.339135715206794
 20
2167.7997605887408099
 30
0.0
 40
0.606197336028907
 50
351.1902719173288006
 51
358.8750560593019259
  0
LINE
  5
144AA
  8
0
 10
8690.0110280392309505
 20
2173.1225050475768512
 30
0.0
 11
8690.0496379662472464
 21
2173.1225050475768512
 31
0.0
  0
LINE
  5
144AB
  8
0
 10
8689.9909625832842721
 20
2172.9650250277750274
 30
0.0
 11
8690.0496785473096679
 21
2172.9650250277750274
 31
0.0
  0
ARC
  5
144AC
  8
0
 10
8690.0125032056112104
 20
2173.1067898775049798
 30
0.0
 40
0.0157842543770152
 50
95.3625804391487435
 51
133.4716040353970925
  0
ARC
  5
144AD
  8
0
 10
8690.0339412724115391
 20
2173.0880186926779061
 30
0.0
 40
0.044235131493713
 50
136.8975934525959133
 51
165.7561403097124924
  0
ARC
  5
144AE
  8
0
 10
8690.2090673217935546
 20
2173.0442595441359117
 30
0.0
 40
0.224745259645481
 50
165.928424005859199
 51
182.4325226630670898
  0
ARC
  5
144AF
  8
0
 10
8691.5879866774375841
 20
2173.011737780598196
 30
0.0
 40
1.6036267998407081
 50
179.1788169420256054
 51
180.924722671820291
  0
ARC
  5
144B0
  8
0
 10
8690.0456803920242237
 20
2172.9868436357292012
 30
0.0
 40
0.0611196210953651
 50
180.924722671820291
 51
193.3009147882135039
  0
ARC
  5
144B1
  8
0
 10
8690.0077322369688773
 20
2172.9778724322591188
 30
0.0
 40
0.0221254553284299
 50
193.3009147882135039
 51
207.0648917055540039
  0
ARC
  5
144B2
  8
0
 10
8689.9934295858547557
 20
2172.970564451447899
 30
0.0
 40
0.0060639357114346
 50
207.0648917054834044
 51
245.994024660720612
  0
ARC
  5
144B3
  8
0
 10
8690.0091907178757538
 20
2172.9904482400088455
 30
0.0
 40
0.0258131548304346
 50
279.971618721645882
 51
311.3284985103231861
  0
ARC
  5
144B4
  8
0
 10
8689.9773447001516615
 20
2173.0248726309841913
 30
0.0
 40
0.0727035808432937
 50
312.2594888896197745
 51
338.8253123618083009
  0
ARC
  5
144B5
  8
0
 10
8689.9353410915882705
 20
2173.0434749589849162
 30
0.0
 40
0.1186105752257245
 50
337.7750234455326108
 51
1.999037267326869
  0
ARC
  5
144B6
  8
0
 10
8689.9429001526768843
 20
2173.0454169155500495
 30
0.0
 40
0.1110010439647273
 50
1.1333330026799799
 51
31.436014309128069
  0
ARC
  5
144B7
  8
0
 10
8689.9930155739893962
 20
2173.0759464917118748
 30
0.0
 40
0.0523189028626139
 50
31.5334355736307117
 51
55.3782568835747568
  0
ARC
  5
144B8
  8
0
 10
8690.010443291734191
 20
2173.1002629320801134
 30
0.0
 40
0.0224129095358709
 50
56.7232847759763104
 51
82.922155110886564
  0
ARC
  5
144B9
  8
0
 10
8690.0339265758047986
 20
2173.1097462946918313
 30
0.0
 40
0.020710500088275
 50
104.7012535646770033
 51
141.9715720003009949
  0
ARC
  5
144BA
  8
0
 10
8690.0330626870836568
 20
2173.1130389491449932
 30
0.0
 40
0.0173064029881378
 50
63.6006347427588992
 51
104.7012535646770033
  0
ARC
  5
144BB
  8
0
 10
8690.0192631432819326
 20
2173.0873637895460888
 30
0.0
 40
0.0464493044744279
 50
42.3123991554603691
 51
62.4353082718949182
  0
ARC
  5
144BC
  8
0
 10
8689.9736186080117477
 20
2173.0487339243941278
 30
0.0
 40
0.1062293095644159
 50
12.7998960411274503
 51
41.1470726845629073
  0
ARC
  5
144BD
  8
0
 10
8689.9598516449023009
 20
2173.0438594398087844
 30
0.0
 40
0.120746101139634
 50
353.5461259225546087
 51
13.6081761768022194
  0
ARC
  5
144BE
  8
0
 10
8689.967419023745606
 20
2173.041399742412068
 30
0.0
 40
0.1129614413134411
 50
332.6429696372089779
 51
354.3544060582316888
  0
ARC
  5
144BF
  8
0
 10
8689.9797380575655552
 20
2173.0350258783992103
 30
0.0
 40
0.0990911588104779
 50
317.560582632815624
 51
332.6429696372089779
  0
ARC
  5
144C0
  8
0
 10
8690.0219419901713991
 20
2172.9964351148441892
 30
0.0
 40
0.041903581845253
 50
299.5015715079074994
 51
317.560582632815624
  0
ARC
  5
144C1
  8
0
 10
8690.0310498675189592
 20
2172.9803380263088002
 30
0.0
 40
0.0234084557553492
 50
278.5660503537366139
 51
299.5015715079074994
  0
ARC
  5
144C2
  8
0
 10
8690.0233114014936291
 20
2174.533026148063982
 30
0.0
 40
1.5758754312879859
 50
269.5918720993469151
 51
270.4081279006531986
  0
ARC
  5
144C3
  8
0
 10
8690.0133320555123646
 20
2172.9654612840618029
 30
0.0
 40
0.0083638885341894
 50
221.8445688771153925
 51
261.4339496462633861
  0
ARC
  5
144C4
  8
0
 10
8690.0211389924061223
 20
2172.9709020709951801
 30
0.0
 40
0.0178467485664858
 50
199.2266641831355969
 51
218.1340915856723939
  0
ARC
  5
144C5
  8
0
 10
8690.012887282840893
 20
2173.0736697433430891
 30
0.0
 40
0.0096408293708676
 50
110.6342254769412961
 51
135.3981290107859934
  0
ARC
  5
144C6
  8
0
 10
8690.0121073677892127
 20
2173.0757409162838485
 30
0.0
 40
0.0074276811974688
 50
61.8095462808787275
 51
110.6342254768437954
  0
ARC
  5
144C7
  8
0
 10
8690.0064312572085328
 20
2173.0651507783459238
 30
0.0
 40
0.0194430568841538
 50
26.1108267579149711
 51
61.8095462808787275
  0
ARC
  5
144C8
  8
0
 10
8689.964241348714495
 20
2173.043616109100185
 30
0.0
 40
0.0668092721568839
 50
349.0838856739068206
 51
26.7701520885030391
  0
ARC
  5
144C9
  8
0
 10
8689.9722805279143358
 20
2173.0413801360600701
 30
0.0
 40
0.0584960011264498
 50
331.6159039391818055
 51
349.7432110045133982
  0
ARC
  5
144CA
  8
0
 10
8690.0045212175537017
 20
2173.0239592240618549
 30
0.0
 40
0.0218497155953322
 50
303.8946802570151249
 51
331.6159039391818055
  0
ARC
  5
144CB
  8
0
 10
8690.0120608829092816
 20
2173.0127367676750509
 30
0.0
 40
0.0083297273911977
 50
258.6446270352520855
 51
303.8946802570151249
  0
ARC
  5
144CC
  8
0
 10
8690.0140925039504509
 20
2173.0161301525517956
 30
0.0
 40
0.0121291479425255
 50
206.8801892760500891
 51
252.3791684641041968
  0
ARC
  5
144CD
  8
0
 10
8690.0456588798951998
 20
2173.0334453983291496
 30
0.0
 40
0.0481278612868057
 50
188.2884642565695117
 51
208.276072446396995
  0
ARC
  5
144CE
  8
0
 10
8690.1041949461723561
 20
2173.0438597481052057
 30
0.0
 40
0.1075700161418081
 50
174.2572037689027979
 51
189.2830478757074957
  0
ARC
  5
144CF
  8
0
 10
8690.0640999727183953
 20
2173.0490925152080308
 30
0.0
 40
0.0671632915117862
 50
159.1210881621996123
 51
175.2762487555091013
  0
ARC
  5
144D0
  8
0
 10
8690.0224323236070632
 20
2173.0649040012967816
 30
0.0
 40
0.0225967287991586
 50
136.5672786326765049
 51
158.9261788467736949
  0
LINE
  5
144D1
  8
0
 10
8690.0008705635464139
 20
2173.0158301279439002
 30
0.0
 11
8690.0249016190573457
 21
2173.0158301279439002
 31
0.0
  0
LINE
  5
144D2
  8
0
 10
8690.0110280392309505
 20
2172.5162060464749629
 30
0.0
 11
8690.0496379662472464
 21
2172.5162060464749629
 31
0.0
  0
LINE
  5
144D3
  8
0
 10
8689.9909625832842721
 20
2172.6736860662767867
 30
0.0
 11
8690.0496785473096679
 21
2172.6736860662767867
 31
0.0
  0
ARC
  5
144D4
  8
0
 10
8690.0125032056112104
 20
2172.5319212165468343
 30
0.0
 40
0.0157842543770152
 50
226.5283959646029075
 51
264.6374195608511855
  0
ARC
  5
144D5
  8
0
 10
8690.0339412724115391
 20
2172.5506924013739081
 30
0.0
 40
0.044235131493713
 50
194.243859690287394
 51
223.1024065474040867
  0
ARC
  5
144D6
  8
0
 10
8690.2090673217935546
 20
2172.5944515499168119
 30
0.0
 40
0.224745259645481
 50
177.5674773369327966
 51
194.071575994140801
  0
ARC
  5
144D7
  8
0
 10
8691.5879866774375841
 20
2172.6269733134549824
 30
0.0
 40
1.6036267998407081
 50
179.075277328179709
 51
180.8211830579743093
  0
ARC
  5
144D8
  8
0
 10
8690.0456803920242237
 20
2172.6518674583230677
 30
0.0
 40
0.0611196210953651
 50
166.6990852117864108
 51
179.075277328179709
  0
ARC
  5
144D9
  8
0
 10
8690.0077322369688773
 20
2172.6608386617940596
 30
0.0
 40
0.0221254553284299
 50
152.9351082944459961
 51
166.6990852117864108
  0
ARC
  5
144DA
  8
0
 10
8689.9934295858547557
 20
2172.6681466426039151
 30
0.0
 40
0.0060639357114346
 50
114.0059753392794022
 51
152.9351082945165956
  0
ARC
  5
144DB
  8
0
 10
8690.0091907178757538
 20
2172.6482628540429687
 30
0.0
 40
0.0258131548304346
 50
48.6715014896595193
 51
80.0283812782514161
  0
ARC
  5
144DC
  8
0
 10
8689.9773447001516615
 20
2172.613838463068987
 30
0.0
 40
0.0727035808432937
 50
21.1746876381916991
 51
47.7405111103802469
  0
ARC
  5
144DD
  8
0
 10
8689.9353410915882705
 20
2172.5952361350659885
 30
0.0
 40
0.1186105752257245
 50
358.0009627326730879
 51
22.2249765544674602
  0
ARC
  5
144DE
  8
0
 10
8689.9429001526768843
 20
2172.5932941785022194
 30
0.0
 40
0.1110010439647273
 50
328.5639856908719025
 51
358.8666669973200101
  0
ARC
  5
144DF
  8
0
 10
8689.9930155739893962
 20
2172.5627646023399393
 30
0.0
 40
0.0523189028626139
 50
304.6217431164253071
 51
328.4665644263693025
  0
ARC
  5
144E0
  8
0
 10
8690.010443291734191
 20
2172.5384481619721555
 30
0.0
 40
0.0224129095358709
 50
277.0778448891134076
 51
303.2767152240236896
  0
ARC
  5
144E1
  8
0
 10
8690.0339265758047986
 20
2172.5289647993599829
 30
0.0
 40
0.020710500088275
 50
218.0284279996990051
 51
255.2987464353230109
  0
ARC
  5
144E2
  8
0
 10
8690.0330626870836568
 20
2172.5256721449068209
 30
0.0
 40
0.0173064029881378
 50
255.2987464353230109
 51
296.3993652572411861
  0
ARC
  5
144E3
  8
0
 10
8690.0192631432819326
 20
2172.5513473045061801
 30
0.0
 40
0.0464493044744279
 50
297.5646917281050037
 51
317.6876008445395883
  0
ARC
  5
144E4
  8
0
 10
8689.9736186080117477
 20
2172.5899771696581411
 30
0.0
 40
0.1062293095644159
 50
318.852927315437114
 51
347.200103958872603
  0
ARC
  5
144E5
  8
0
 10
8689.9598516449023009
 20
2172.5948516542430298
 30
0.0
 40
0.120746101139634
 50
346.3918238231976829
 51
6.4538740774454109
  0
ARC
  5
144E6
  8
0
 10
8689.967419023745606
 20
2172.5973113516402009
 30
0.0
 40
0.1129614413134411
 50
5.6455939417682863
 51
27.3570303627909617
  0
ARC
  5
144E7
  8
0
 10
8689.9797380575655552
 20
2172.6036852156530585
 30
0.0
 40
0.0990911588104779
 50
27.3570303627909617
 51
42.4394173671843475
  0
ARC
  5
144E8
  8
0
 10
8690.0219419901713991
 20
2172.6422759792089892
 30
0.0
 40
0.041903581845253
 50
42.4394173671843475
 51
60.4984284920925575
  0
ARC
  5
144E9
  8
0
 10
8690.0310498675189592
 20
2172.658373067743014
 30
0.0
 40
0.0234084557553492
 50
60.4984284920925575
 51
81.4339496462633576
  0
ARC
  5
144EA
  8
0
 10
8690.0233114014936291
 20
2171.1056849459878322
 30
0.0
 40
1.5758754312879859
 50
89.5918720993468582
 51
90.408127900653156
  0
ARC
  5
144EB
  8
0
 10
8690.0133320555123646
 20
2172.6732498099900113
 30
0.0
 40
0.0083638885341894
 50
98.5660503537366282
 51
138.1554311228844938
  0
ARC
  5
144EC
  8
0
 10
8690.0211389924061223
 20
2172.6678090230570888
 30
0.0
 40
0.0178467485664858
 50
141.8659084143276061
 51
160.7733358168642894
  0
ARC
  5
144ED
  8
0
 10
8690.012887282840893
 20
2172.5650413507100893
 30
0.0
 40
0.0096408293708676
 50
224.6018709892140066
 51
249.3657745230586897
  0
ARC
  5
144EE
  8
0
 10
8690.0121073677892127
 20
2172.5629701777679657
 30
0.0
 40
0.0074276811974688
 50
249.3657745231562046
 51
298.190453719121308
  0
ARC
  5
144EF
  8
0
 10
8690.0064312572085328
 20
2172.5735603157058904
 30
0.0
 40
0.0194430568841538
 50
298.190453719121308
 51
333.8891732420851213
  0
ARC
  5
144F0
  8
0
 10
8689.964241348714495
 20
2172.5950949849520839
 30
0.0
 40
0.0668092721568839
 50
333.2298479114970178
 51
10.9161143260932505
  0
ARC
  5
144F1
  8
0
 10
8689.9722805279143358
 20
2172.5973309579931083
 30
0.0
 40
0.0584960011264498
 50
10.2567889954866001
 51
28.3840960608181909
  0
ARC
  5
144F2
  8
0
 10
8690.0045212175537017
 20
2172.6147518699899592
 30
0.0
 40
0.0218497155953322
 50
28.3840960608181909
 51
56.1053197429849035
  0
ARC
  5
144F3
  8
0
 10
8690.0120608829092816
 20
2172.6259743263772179
 30
0.0
 40
0.0083297273911977
 50
56.1053197429849035
 51
101.3553729647479003
  0
ARC
  5
144F4
  8
0
 10
8690.0140925039504509
 20
2172.6225809415000185
 30
0.0
 40
0.0121291479425255
 50
107.6208315358958032
 51
153.1198107239499109
  0
ARC
  5
144F5
  8
0
 10
8690.0456588798951998
 20
2172.6052656957231193
 30
0.0
 40
0.0481278612868057
 50
151.723927553603005
 51
171.7115357434304883
  0
ARC
  5
144F6
  8
0
 10
8690.1041949461723561
 20
2172.5948513459470632
 30
0.0
 40
0.1075700161418081
 50
170.7169521242923906
 51
185.7427962310970884
  0
ARC
  5
144F7
  8
0
 10
8690.0640999727183953
 20
2172.5896185788437833
 30
0.0
 40
0.0671632915117862
 50
184.7237512444908987
 51
200.8789118378003877
  0
ARC
  5
144F8
  8
0
 10
8690.0224323236070632
 20
2172.5738070927550325
 30
0.0
 40
0.0225967287991586
 50
201.0738211532263051
 51
223.4327213673234951
  0
LINE
  5
144F9
  8
0
 10
8690.0008705635464139
 20
2172.6228809661088235
 30
0.0
 11
8690.0249016190573457
 21
2172.6228809661088235
 31
0.0
  0
LINE
  5
144FA
  8
0
 10
8689.9648704960145551
 20
2172.378243421571824
 30
0.0
 11
8690.0055870425803732
 21
2172.382553241990081
 31
0.0
  0
LINE
  5
144FB
  8
0
 10
8689.9576368277485017
 20
2172.2958701852307968
 30
0.0
 11
8690.0062850254471414
 21
2172.2819699818091976
 31
0.0
  0
ARC
  5
144FC
  8
0
 10
8690.0219594420650537
 20
2172.375681275721945
 30
0.0
 40
0.0310054594744363
 50
151.8165268936074881
 51
170.0212535294730003
  0
ARC
  5
144FD
  8
0
 10
8690.0016741016297601
 20
2172.3865506474407994
 30
0.0
 40
0.0079915880453366
 50
109.824918920912495
 51
151.816526893630396
  0
ARC
  5
144FE
  8
0
 10
8689.9480148711318179
 20
2172.3571020010931534
 30
0.0
 40
0.0629469664767695
 50
9.3516135564823824
 51
35.9632192638431221
  0
ARC
  5
144FF
  8
0
 10
8689.8459788642703643
 20
2172.3310879689988724
 30
0.0
 40
0.1680998323065644
 50
348.4392037639149748
 51
12.4507769140832192
  0
ARC
  5
14500
  8
0
 10
8689.9294271497310547
 20
2172.3121419031431287
 30
0.0
 40
0.0825680198182445
 50
329.1820831109562846
 51
349.7147572913884801
  0
ARC
  5
14501
  8
0
 10
8689.998298758011515
 20
2172.2715882111401697
 30
0.0
 40
0.0026840364570035
 50
222.7819730131768949
 51
319.3958461813867871
  0
ARC
  5
14502
  8
0
 10
8690.0182821394355415
 20
2172.2863339631480812
 30
0.0
 40
0.0275040421028039
 50
179.8608949624220941
 51
217.042873111299599
  0
ARC
  5
14503
  8
0
 10
8689.9619012233888498
 20
2172.2985802325101758
 30
0.0
 40
0.00505266527856
 50
186.0779558376308103
 51
212.4361867217481858
  0
ARC
  5
14504
  8
0
 10
8690.0519435487130977
 20
2172.3081679437359526
 30
0.0
 40
0.0956040018592193
 50
179.7031877269573101
 51
186.0779558376308103
  0
ARC
  5
14505
  8
0
 10
8690.226850392169581
 20
2172.3072618567148311
 30
0.0
 40
0.2705131922460366
 50
176.112436158658312
 51
179.7031877269573101
  0
ARC
  5
14506
  8
0
 10
8690.6888313481013029
 20
2172.2758678931609211
 30
0.0
 40
0.7335596095639341
 50
174.925275067179598
 51
176.112436158658312
  0
ARC
  5
14507
  8
0
 10
8690.2759135220112512
 20
2172.3125362319869964
 30
0.0
 40
0.3190168516064773
 50
169.5899573250653134
 51
174.925275067179598
  0
ARC
  5
14508
  8
0
 10
8690.0049978927254415
 20
2172.3623076410472095
 30
0.0
 40
0.0435672711916421
 50
160.6954316295656895
 51
169.5899573250653134
  0
ARC
  5
14509
  8
0
 10
8689.9685226131314266
 20
2172.3750843673401505
 30
0.0
 40
0.0049189755453497
 50
145.1655729909242041
 51
160.6954316295656895
  0
ARC
  5
1450A
  8
0
 10
8689.9654355515322095
 20
2172.3772326831121973
 30
0.0
 40
0.0011579637185596
 50
119.2074673002958036
 51
145.1655729909454919
  0
ARC
  5
1450B
  8
0
 10
8689.9643916471086413
 20
2172.3771893787238696
 30
0.0
 40
0.0012664249951981
 50
11.5561552039133009
 51
58.0294696261177165
  0
ARC
  5
1450C
  8
0
 10
8689.9072949882938701
 20
2172.36715434225016
 30
0.0
 40
0.0592377560371611
 50
357.7597421874859833
 51
10.0021693540836303
  0
ARC
  5
1450D
  8
0
 10
8689.5462964959151577
 20
2172.373121324326803
 30
0.0
 40
0.4202725958197119
 50
351.7137468509832274
 51
358.8707623269489204
  0
ARC
  5
1450E
  8
0
 10
8689.8020878748793621
 20
2172.3361441617607852
 30
0.0
 40
0.1618227046405434
 50
348.1154773363792856
 51
351.6170139460335804
  0
ARC
  5
1450F
  8
0
 10
8689.9336139940824069
 20
2172.3076697701271769
 30
0.0
 40
0.0272629722764115
 50
335.4539288952452125
 51
349.7498240427078144
  0
ARC
  5
14510
  8
0
 10
8689.9575289856438758
 20
2172.2968325583869955
 30
0.0
 40
0.0010101343563646
 50
281.5890327133431015
 51
331.0790729529504119
  0
ARC
  5
14511
  8
0
 10
8690.086249870395477
 20
2172.3261469929930172
 30
0.0
 40
0.1271961937992413
 50
165.1980888541316119
 51
184.7986292159048958
  0
ARC
  5
14512
  8
0
 10
8689.8414611060234165
 20
2172.3475702993241612
 30
0.0
 40
0.1223157890504523
 50
344.8029605781458145
 51
5.1937574918646412
  0
LINE
  5
14513
  8
0
 10
8690.0077424615556083
 20
2172.252229733212971
 30
0.0
 11
8690.0644463873941277
 21
2172.2583602758841153
 31
0.0
  0
LINE
  5
14514
  8
0
 10
8690.0005617275328405
 20
2172.1700436959181388
 30
0.0
 11
8690.0640207861051749
 21
2172.1516424851388365
 31
0.0
  0
ARC
  5
14515
  8
0
 10
8690.0122823325018544
 20
2172.2457526010930451
 30
0.0
 40
0.0079097198870455
 50
125.0269046647400017
 51
161.8777712680316085
  0
ARC
  5
14516
  8
0
 10
8690.0967105854160764
 20
2172.2139102504479524
 30
0.0
 40
0.098135957114537
 50
159.5407005617682898
 51
172.3508274527322897
  0
ARC
  5
14517
  8
0
 10
8690.2184939961462078
 20
2172.1926019701418227
 30
0.0
 40
0.2217263174092978
 50
171.0823441176997903
 51
181.0966008715950863
  0
ARC
  5
14518
  8
0
 10
8690.1006707630658639
 20
2172.1922853410678727
 30
0.0
 40
0.1039366799997546
 50
182.165188242824911
 51
189.3817166668040102
  0
ARC
  5
14519
  8
0
 10
8690.0111806858039927
 20
2172.1774996926092172
 30
0.0
 40
0.0132333761536773
 50
189.3817166668297034
 51
207.4432974370535874
  0
ARC
  5
1451A
  8
0
 10
8690.0031323306902777
 20
2172.1733201023839683
 30
0.0
 40
0.0041644735456623
 50
207.4432974371478053
 51
231.8829766648671011
  0
ARC
  5
1451B
  8
0
 10
8690.0006150433982839
 20
2172.1727186011171398
 30
0.0
 40
0.0029254500565212
 50
281.7915792711377776
 51
326.9812149400661951
  0
ARC
  5
1451C
  8
0
 10
8689.9704474811405817
 20
2172.1902862785300385
 30
0.0
 40
0.0378321729898433
 50
329.5693741496089046
 51
348.3046759373153236
  0
ARC
  5
1451D
  8
0
 10
8689.8018986203296663
 20
2172.2291884009400746
 30
0.0
 40
0.2108042048445119
 50
347.2368923212933964
 51
359.0439789038632057
  0
ARC
  5
1451E
  8
0
 10
8689.9149847858716385
 20
2172.2298163853920414
 30
0.0
 40
0.0977766029299182
 50
357.5702164859395111
 51
10.5812491192237292
  0
ARC
  5
1451F
  8
0
 10
8690.003137494348266
 20
2172.2464413274360595
 30
0.0
 40
0.0080715393401374
 50
9.4823971435131842
 51
46.8373353318239509
  0
ARC
  5
14520
  8
0
 10
8690.0514045916697796
 20
2172.2413688452429597
 30
0.0
 40
0.0281834242360516
 50
121.101052346480202
 51
152.8272552589002089
  0
ARC
  5
14521
  8
0
 10
8690.0461895379266934
 20
2172.2500135796381073
 30
0.0
 40
0.0180874736458402
 50
96.0521869160070025
 51
121.101052346480202
  0
ARC
  5
14522
  8
0
 10
8690.0462255303555139
 20
2172.249674109175885
 30
0.0
 40
0.0184288468279212
 50
67.3377600996077348
 51
96.0521869160070025
  0
ARC
  5
14523
  8
0
 10
8690.0342978609805868
 20
2172.2296554126578485
 30
0.0
 40
0.0416281493445408
 50
33.051034644293118
 51
62.7998051837318201
  0
ARC
  5
14524
  8
0
 10
8690.0048103214667208
 20
2172.2077469683340496
 30
0.0
 40
0.078325949045587
 50
11.1224357349961807
 51
34.72001174257597
  0
ARC
  5
14525
  8
0
 10
8689.9958642915189557
 20
2172.2051953662439701
 30
0.0
 40
0.0875996216767173
 50
343.8255515780389828
 51
11.6312593887989593
  0
ARC
  5
14526
  8
0
 10
8690.006170057975396
 20
2172.2018404659211228
 30
0.0
 40
0.0767680312739871
 50
325.3540348476586246
 51
344.0877474909788134
  0
ARC
  5
14527
  8
0
 10
8690.0324402273017768
 20
2172.182623889462775
 30
0.0
 40
0.0442400170467837
 50
299.9182616981073011
 51
326.4865670103390016
  0
ARC
  5
14528
  8
0
 10
8690.0460577283629391
 20
2172.1623213695029335
 30
0.0
 40
0.0199218145104279
 50
256.698717833797275
 51
295.0904895874870135
  0
ARC
  5
14529
  8
0
 10
8690.0512122848631407
 20
2172.1699528449380523
 30
0.0
 40
0.0287201586320659
 50
193.0463506587634868
 51
250.1800852696351001
  0
ARC
  5
1452A
  8
0
 10
8690.0235806027412764
 20
2172.2219147989421799
 30
0.0
 40
0.0207029914077528
 50
152.809805445951099
 51
167.7867429122713929
  0
ARC
  5
1452B
  8
0
 10
8690.0083336302923271
 20
2172.2297473801918386
 30
0.0
 40
0.0035618275618712
 50
130.2796889013791883
 51
152.8098054458571937
  0
ARC
  5
1452C
  8
0
 10
8690.0065936014980252
 20
2172.2318006268201316
 30
0.0
 40
0.0008704483776159
 50
9.7949086692464356
 51
130.2796889012491874
  0
ARC
  5
1452D
  8
0
 10
8689.956472739122546
 20
2172.2193381745769329
 30
0.0
 40
0.052515193124652
 50
353.6617861201999062
 51
13.8942820658835409
  0
ARC
  5
1452E
  8
0
 10
8689.9078833876374119
 20
2172.219248307485941
 30
0.0
 40
0.1009450393026873
 50
346.2932129493423759
 51
356.7586365091012794
  0
ARC
  5
1452F
  8
0
 10
8689.987422234051337
 20
2172.1997117079481541
 30
0.0
 40
0.0190425807738631
 50
330.6946217774723209
 51
346.6940856137186984
  0
ARC
  5
14530
  8
0
 10
8690.0029666076916328
 20
2172.1909529683821347
 30
0.0
 40
0.0012007940738292
 50
208.4122028179706092
 51
332.0980174495663846
  0
ARC
  5
14531
  8
0
 10
8690.0628953312279918
 20
2172.2035120399978041
 30
0.0
 40
0.0623823968947787
 50
173.3311592460121062
 51
192.1506486773184008
  0
ARC
  5
14532
  8
0
 10
8690.0996788361208019
 20
2172.2033896787997946
 30
0.0
 40
0.0990182438227867
 50
166.6252272298769981
 51
175.7333041724500049
  0
LINE
  5
14533
  8
0
 10
8689.9794798338916735
 20
2172.2554441119400508
 30
0.0
 11
8689.9492706767432537
 21
2172.2522690015762237
 31
0.0
  0
LINE
  5
14534
  8
0
 10
8689.9492706767432537
 20
2172.2522690015762237
 30
0.0
 11
8689.9420648869436263
 21
2172.1699064477761567
 31
0.0
  0
LINE
  5
14535
  8
0
 10
8689.9420648869436263
 20
2172.1699064477761567
 30
0.0
 11
8689.9798005510856456
 21
2172.15908592022015
 31
0.0
  0
ARC
  5
14536
  8
0
 10
8689.4400892086632666
 20
2172.2054691824919246
 30
0.0
 40
0.5417007847106562
 50
352.5066288528927885
 51
7.4933711471072533
  0
LINE
  5
14537
  8
0
 10
8689.9648704960145551
 20
2172.1249434609298987
 30
0.0
 11
8690.0055870425803732
 21
2172.1292532813481557
 31
0.0
  0
LINE
  5
14538
  8
0
 10
8689.9576368277485017
 20
2172.0425702245888715
 30
0.0
 11
8690.0062850254471414
 21
2172.0286700211668176
 31
0.0
  0
ARC
  5
14539
  8
0
 10
8690.0219594420650537
 20
2172.1223813150800197
 30
0.0
 40
0.0310054594744363
 50
151.8165268936074881
 51
170.0212535294730003
  0
ARC
  5
1453A
  8
0
 10
8690.0016741016297601
 20
2172.1332506867988741
 30
0.0
 40
0.0079915880453366
 50
109.824918920912495
 51
151.816526893630396
  0
ARC
  5
1453B
  8
0
 10
8689.9480148711318179
 20
2172.1038020404507733
 30
0.0
 40
0.0629469664767695
 50
9.3516135564823824
 51
35.9632192638431221
  0
ARC
  5
1453C
  8
0
 10
8689.8459788642703643
 20
2172.0777880083569471
 30
0.0
 40
0.1680998323065644
 50
348.4392037639149748
 51
12.4507769140832192
  0
ARC
  5
1453D
  8
0
 10
8689.9294271497310547
 20
2172.0588419425012034
 30
0.0
 40
0.0825680198182445
 50
329.1820831109562846
 51
349.7147572913884801
  0
ARC
  5
1453E
  8
0
 10
8689.998298758011515
 20
2172.0182882504977897
 30
0.0
 40
0.0026840364570035
 50
222.7819730131768949
 51
319.3958461813867871
  0
ARC
  5
1453F
  8
0
 10
8690.0182821394355415
 20
2172.0330340025070655
 30
0.0
 40
0.0275040421028039
 50
179.8608949624220941
 51
217.042873111299599
  0
ARC
  5
14540
  8
0
 10
8689.9619012233888498
 20
2172.0452802718677958
 30
0.0
 40
0.00505266527856
 50
186.0779558376308103
 51
212.4361867217481858
  0
ARC
  5
14541
  8
0
 10
8690.0519435487130977
 20
2172.0548679830940273
 30
0.0
 40
0.0956040018592193
 50
179.7031877269573101
 51
186.0779558376308103
  0
ARC
  5
14542
  8
0
 10
8690.226850392169581
 20
2172.0539618960729058
 30
0.0
 40
0.2705131922460366
 50
176.112436158658312
 51
179.7031877269573101
  0
ARC
  5
14543
  8
0
 10
8690.6888313481013029
 20
2172.0225679325189958
 30
0.0
 40
0.7335596095639341
 50
174.925275067179598
 51
176.112436158658312
  0
ARC
  5
14544
  8
0
 10
8690.2759135220112512
 20
2172.0592362713450711
 30
0.0
 40
0.3190168516064773
 50
169.5899573250653134
 51
174.925275067179598
  0
ARC
  5
14545
  8
0
 10
8690.0049978927254415
 20
2172.1090076804048294
 30
0.0
 40
0.0435672711916421
 50
160.6954316295656895
 51
169.5899573250653134
  0
ARC
  5
14546
  8
0
 10
8689.9685226131314266
 20
2172.1217844066982252
 30
0.0
 40
0.0049189755453497
 50
145.1655729909242041
 51
160.6954316295656895
  0
ARC
  5
14547
  8
0
 10
8689.9654355515322095
 20
2172.1239327224698172
 30
0.0
 40
0.0011579637185596
 50
119.2074673002958036
 51
145.1655729909454919
  0
ARC
  5
14548
  8
0
 10
8689.9643916471086413
 20
2172.1238894180819443
 30
0.0
 40
0.0012664249951981
 50
11.5561552039133009
 51
58.0294696261177165
  0
ARC
  5
14549
  8
0
 10
8689.9072949882938701
 20
2172.1138543816077799
 30
0.0
 40
0.0592377560371611
 50
357.7597421874859833
 51
10.0021693540836303
  0
ARC
  5
1454A
  8
0
 10
8689.5462964959151577
 20
2172.1198213636848777
 30
0.0
 40
0.4202725958197119
 50
351.7137468509832274
 51
358.8707623269489204
  0
ARC
  5
1454B
  8
0
 10
8689.8020878748793621
 20
2172.0828442011188599
 30
0.0
 40
0.1618227046405434
 50
348.1154773363792856
 51
351.6170139460335804
  0
ARC
  5
1454C
  8
0
 10
8689.9336139940824069
 20
2172.0543698094847969
 30
0.0
 40
0.0272629722764115
 50
335.4539288952452125
 51
349.7498240427078144
  0
ARC
  5
1454D
  8
0
 10
8689.9575289856438758
 20
2172.0435325977450702
 30
0.0
 40
0.0010101343563646
 50
281.5890327133431015
 51
331.0790729529504119
  0
ARC
  5
1454E
  8
0
 10
8690.086249870395477
 20
2172.0728470323510919
 30
0.0
 40
0.1271961937992413
 50
165.1980888541316119
 51
184.7986292159048958
  0
ARC
  5
1454F
  8
0
 10
8689.8414611060234165
 20
2172.0942703386817811
 30
0.0
 40
0.1223157890504523
 50
344.8029605781458145
 51
5.1937574918646412
  0
LINE
  5
14550
  8
0
 10
8690.0077424615556083
 20
2171.9989297725710458
 30
0.0
 11
8690.0644463873941277
 21
2172.00506031524219
 31
0.0
  0
LINE
  5
14551
  8
0
 10
8690.0005617275328405
 20
2171.9167437352762136
 30
0.0
 11
8690.0640207861051749
 21
2171.8983425244969112
 31
0.0
  0
ARC
  5
14552
  8
0
 10
8690.0122823325018544
 20
2171.9924526404511198
 30
0.0
 40
0.0079097198870455
 50
125.0269046647400017
 51
161.8777712680316085
  0
ARC
  5
14553
  8
0
 10
8690.0967105854160764
 20
2171.9606102898060271
 30
0.0
 40
0.098135957114537
 50
159.5407005617682898
 51
172.3508274527322897
  0
ARC
  5
14554
  8
0
 10
8690.2184939961462078
 20
2171.9393020094998974
 30
0.0
 40
0.2217263174092978
 50
171.0823441176997903
 51
181.0966008715950863
  0
ARC
  5
14555
  8
0
 10
8690.1006707630658639
 20
2171.9389853804259474
 30
0.0
 40
0.1039366799997546
 50
182.165188242824911
 51
189.3817166668040102
  0
ARC
  5
14556
  8
0
 10
8690.0111806858039927
 20
2171.9241997319668371
 30
0.0
 40
0.0132333761536773
 50
189.3817166668297034
 51
207.4432974370535874
  0
ARC
  5
14557
  8
0
 10
8690.0031323306902777
 20
2171.9200201417420431
 30
0.0
 40
0.0041644735456623
 50
207.4432974371478053
 51
231.8829766648671011
  0
ARC
  5
14558
  8
0
 10
8690.0006150433982839
 20
2171.9194186404752145
 30
0.0
 40
0.0029254500565212
 50
281.7915792711377776
 51
326.9812149400661951
  0
ARC
  5
14559
  8
0
 10
8689.9704474811405817
 20
2171.9369863178881133
 30
0.0
 40
0.0378321729898433
 50
329.5693741496089046
 51
348.3046759373153236
  0
ARC
  5
1455A
  8
0
 10
8689.8018986203296663
 20
2171.9758884402981494
 30
0.0
 40
0.2108042048445119
 50
347.2368923212933964
 51
359.0439789038632057
  0
ARC
  5
1455B
  8
0
 10
8689.9149847858716385
 20
2171.9765164247501161
 30
0.0
 40
0.0977766029299182
 50
357.5702164859395111
 51
10.5812491192237292
  0
ARC
  5
1455C
  8
0
 10
8690.003137494348266
 20
2171.9931413667941342
 30
0.0
 40
0.0080715393401374
 50
9.4823971435131842
 51
46.8373353318239509
  0
ARC
  5
1455D
  8
0
 10
8690.0514045916697796
 20
2171.9880688846010344
 30
0.0
 40
0.0281834242360516
 50
121.101052346480202
 51
152.8272552589002089
  0
ARC
  5
1455E
  8
0
 10
8690.0461895379266934
 20
2171.996713618996182
 30
0.0
 40
0.0180874736458402
 50
96.0521869160070025
 51
121.101052346480202
  0
ARC
  5
1455F
  8
0
 10
8690.0462255303555139
 20
2171.9963741485339597
 30
0.0
 40
0.0184288468279212
 50
67.3377600996077348
 51
96.0521869160070025
  0
ARC
  5
14560
  8
0
 10
8690.0342978609805868
 20
2171.9763554520168327
 30
0.0
 40
0.0416281493445408
 50
33.051034644293118
 51
62.7998051837318201
  0
ARC
  5
14561
  8
0
 10
8690.0048103214667208
 20
2171.9544470076921243
 30
0.0
 40
0.078325949045587
 50
11.1224357349961807
 51
34.72001174257597
  0
ARC
  5
14562
  8
0
 10
8689.9958642915189557
 20
2171.9518954056020448
 30
0.0
 40
0.0875996216767173
 50
343.8255515780389828
 51
11.6312593887989593
  0
ARC
  5
14563
  8
0
 10
8690.006170057975396
 20
2171.9485405052791975
 30
0.0
 40
0.0767680312739871
 50
325.3540348476586246
 51
344.0877474909788134
  0
ARC
  5
14564
  8
0
 10
8690.0324402273017768
 20
2171.9293239288208497
 30
0.0
 40
0.0442400170467837
 50
299.9182616981073011
 51
326.4865670103390016
  0
ARC
  5
14565
  8
0
 10
8690.0460577283629391
 20
2171.9090214088610082
 30
0.0
 40
0.0199218145104279
 50
256.698717833797275
 51
295.0904895874870135
  0
ARC
  5
14566
  8
0
 10
8690.0512122848631407
 20
2171.916652884296127
 30
0.0
 40
0.0287201586320659
 50
193.0463506587634868
 51
250.1800852696351001
  0
ARC
  5
14567
  8
0
 10
8690.0235806027412764
 20
2171.9686148382997999
 30
0.0
 40
0.0207029914077528
 50
152.809805445951099
 51
167.7867429122713929
  0
ARC
  5
14568
  8
0
 10
8690.0083336302923271
 20
2171.9764474195499133
 30
0.0
 40
0.0035618275618712
 50
130.2796889013791883
 51
152.8098054458571937
  0
ARC
  5
14569
  8
0
 10
8690.0065936014980252
 20
2171.9785006661782063
 30
0.0
 40
0.0008704483776159
 50
9.7949086692464356
 51
130.2796889012491874
  0
ARC
  5
1456A
  8
0
 10
8689.956472739122546
 20
2171.9660382139350077
 30
0.0
 40
0.052515193124652
 50
353.6617861201999062
 51
13.8942820658835409
  0
ARC
  5
1456B
  8
0
 10
8689.9078833876374119
 20
2171.9659483468440158
 30
0.0
 40
0.1009450393026873
 50
346.2932129493423759
 51
356.7586365091012794
  0
ARC
  5
1456C
  8
0
 10
8689.987422234051337
 20
2171.946411747305774
 30
0.0
 40
0.0190425807738631
 50
330.6946217774723209
 51
346.6940856137186984
  0
ARC
  5
1456D
  8
0
 10
8690.0029666076916328
 20
2171.9376530077402094
 30
0.0
 40
0.0012007940738292
 50
208.4122028179706092
 51
332.0980174495663846
  0
ARC
  5
1456E
  8
0
 10
8690.0628953312279918
 20
2171.9502120793567883
 30
0.0
 40
0.0623823968947787
 50
173.3311592460121062
 51
192.1506486773184008
  0
ARC
  5
1456F
  8
0
 10
8690.0996788361208019
 20
2171.9500897181578694
 30
0.0
 40
0.0990182438227867
 50
166.6252272298769981
 51
175.7333041724500049
  0
LINE
  5
14570
  8
0
 10
8689.9794798338916735
 20
2172.0021441512981255
 30
0.0
 11
8689.9492706767432537
 21
2171.9989690409338436
 31
0.0
  0
LINE
  5
14571
  8
0
 10
8689.9492706767432537
 20
2171.9989690409338436
 30
0.0
 11
8689.9420648869436263
 21
2171.9166064871337767
 31
0.0
  0
LINE
  5
14572
  8
0
 10
8689.9420648869436263
 20
2171.9166064871337767
 30
0.0
 11
8689.9798005510856456
 21
2171.9057859595782247
 31
0.0
  0
ARC
  5
14573
  8
0
 10
8689.4400892086632666
 20
2171.9521692218499993
 30
0.0
 40
0.5417007847106562
 50
352.5066288528927885
 51
7.4933711471072533
  0
LINE
  5
14574
  8
0
 10
8689.9648704960145551
 20
2171.8716566050470647
 30
0.0
 11
8690.0055870425803732
 21
2171.8759664254648669
 31
0.0
  0
LINE
  5
14575
  8
0
 10
8689.9576368277485017
 20
2171.7892833687069469
 30
0.0
 11
8690.0062850254471414
 21
2171.775383165284893
 31
0.0
  0
ARC
  5
14576
  8
0
 10
8690.0219594420650537
 20
2171.8690944591980951
 30
0.0
 40
0.0310054594744363
 50
151.8165268936074881
 51
170.0212535294730003
  0
ARC
  5
14577
  8
0
 10
8690.0016741016297601
 20
2171.87996383091604
 30
0.0
 40
0.0079915880453366
 50
109.824918920912495
 51
151.816526893630396
  0
ARC
  5
14578
  8
0
 10
8689.9480148711318179
 20
2171.8505151845688488
 30
0.0
 40
0.0629469664767695
 50
9.3516135564823824
 51
35.9632192638431221
  0
ARC
  5
14579
  8
0
 10
8689.8459788642703643
 20
2171.8245011524750225
 30
0.0
 40
0.1680998323065644
 50
348.4392037639149748
 51
12.4507769140832192
  0
ARC
  5
1457A
  8
0
 10
8689.9294271497310547
 20
2171.8055550866179146
 30
0.0
 40
0.0825680198182445
 50
329.1820831109562846
 51
349.7147572913884801
  0
ARC
  5
1457B
  8
0
 10
8689.998298758011515
 20
2171.7650013946158651
 30
0.0
 40
0.0026840364570035
 50
222.7819730131768949
 51
319.3958461813867871
  0
ARC
  5
1457C
  8
0
 10
8690.0182821394355415
 20
2171.7797471466237766
 30
0.0
 40
0.0275040421028039
 50
179.8608949624220941
 51
217.042873111299599
  0
ARC
  5
1457D
  8
0
 10
8689.9619012233888498
 20
2171.7919934159858713
 30
0.0
 40
0.00505266527856
 50
186.0779558376308103
 51
212.4361867217481858
  0
ARC
  5
1457E
  8
0
 10
8690.0519435487130977
 20
2171.8015811272121027
 30
0.0
 40
0.0956040018592193
 50
179.7031877269573101
 51
186.0779558376308103
  0
ARC
  5
1457F
  8
0
 10
8690.226850392169581
 20
2171.8006750401909812
 30
0.0
 40
0.2705131922460366
 50
176.112436158658312
 51
179.7031877269573101
  0
ARC
  5
14580
  8
0
 10
8690.6888313481013029
 20
2171.7692810766361617
 30
0.0
 40
0.7335596095639341
 50
174.925275067179598
 51
176.112436158658312
  0
ARC
  5
14581
  8
0
 10
8690.2759135220112512
 20
2171.8059494154617823
 30
0.0
 40
0.3190168516064773
 50
169.5899573250653134
 51
174.925275067179598
  0
ARC
  5
14582
  8
0
 10
8690.0049978927254415
 20
2171.8557208245229049
 30
0.0
 40
0.0435672711916421
 50
160.6954316295656895
 51
169.5899573250653134
  0
ARC
  5
14583
  8
0
 10
8689.9685226131314266
 20
2171.8684975508158459
 30
0.0
 40
0.0049189755453497
 50
145.1655729909242041
 51
160.6954316295656895
  0
ARC
  5
14584
  8
0
 10
8689.9654355515322095
 20
2171.8706458665869832
 30
0.0
 40
0.0011579637185596
 50
119.2074673002958036
 51
145.1655729909454919
  0
ARC
  5
14585
  8
0
 10
8689.9643916471086413
 20
2171.8706025621991103
 30
0.0
 40
0.0012664249951981
 50
11.5561552039133009
 51
58.0294696261177165
  0
ARC
  5
14586
  8
0
 10
8689.9072949882938701
 20
2171.8605675257258554
 30
0.0
 40
0.0592377560371611
 50
357.7597421874859833
 51
10.0021693540836303
  0
ARC
  5
14587
  8
0
 10
8689.5462964959151577
 20
2171.8665345078020437
 30
0.0
 40
0.4202725958197119
 50
351.7137468509832274
 51
358.8707623269489204
  0
ARC
  5
14588
  8
0
 10
8689.8020878748793621
 20
2171.8295573452360259
 30
0.0
 40
0.1618227046405434
 50
348.1154773363792856
 51
351.6170139460335804
  0
ARC
  5
14589
  8
0
 10
8689.9336139940824069
 20
2171.8010829536028723
 30
0.0
 40
0.0272629722764115
 50
335.4539288952452125
 51
349.7498240427078144
  0
ARC
  5
1458A
  8
0
 10
8689.9575289856438758
 20
2171.7902457418631457
 30
0.0
 40
0.0010101343563646
 50
281.5890327133431015
 51
331.0790729529504119
  0
ARC
  5
1458B
  8
0
 10
8690.086249870395477
 20
2171.8195601764678031
 30
0.0
 40
0.1271961937992413
 50
165.1980888541316119
 51
184.7986292159048958
  0
ARC
  5
1458C
  8
0
 10
8689.8414611060234165
 20
2171.8409834827989471
 30
0.0
 40
0.1223157890504523
 50
344.8029605781458145
 51
5.1937574918646412
  0
LINE
  5
1458D
  8
0
 10
8690.0077424615556083
 20
2171.7456429166882117
 30
0.0
 11
8690.0644463873941277
 21
2171.7517734593598107
 31
0.0
  0
LINE
  5
1458E
  8
0
 10
8690.0005617275328405
 20
2171.6634568793938342
 30
0.0
 11
8690.0640207861051749
 21
2171.6450556686140771
 31
0.0
  0
ARC
  5
1458F
  8
0
 10
8690.0122823325018544
 20
2171.7391657845691952
 30
0.0
 40
0.0079097198870455
 50
125.0269046647400017
 51
161.8777712680316085
  0
ARC
  5
14590
  8
0
 10
8690.0967105854160764
 20
2171.7073234339241026
 30
0.0
 40
0.098135957114537
 50
159.5407005617682898
 51
172.3508274527322897
  0
ARC
  5
14591
  8
0
 10
8690.2184939961462078
 20
2171.6860151536170633
 30
0.0
 40
0.2217263174092978
 50
171.0823441176997903
 51
181.0966008715950863
  0
ARC
  5
14592
  8
0
 10
8690.1006707630658639
 20
2171.6856985245431133
 30
0.0
 40
0.1039366799997546
 50
182.165188242824911
 51
189.3817166668040102
  0
ARC
  5
14593
  8
0
 10
8690.0111806858039927
 20
2171.6709128760840031
 30
0.0
 40
0.0132333761536773
 50
189.3817166668297034
 51
207.4432974370535874
  0
ARC
  5
14594
  8
0
 10
8690.0031323306902777
 20
2171.6667332858601185
 30
0.0
 40
0.0041644735456623
 50
207.4432974371478053
 51
231.8829766648671011
  0
ARC
  5
14595
  8
0
 10
8690.0006150433982839
 20
2171.6661317845919257
 30
0.0
 40
0.0029254500565212
 50
281.7915792711377776
 51
326.9812149400661951
  0
ARC
  5
14596
  8
0
 10
8689.9704474811405817
 20
2171.6836994620061887
 30
0.0
 40
0.0378321729898433
 50
329.5693741496089046
 51
348.3046759373153236
  0
ARC
  5
14597
  8
0
 10
8689.8018986203296663
 20
2171.7226015844162248
 30
0.0
 40
0.2108042048445119
 50
347.2368923212933964
 51
359.0439789038632057
  0
ARC
  5
14598
  8
0
 10
8689.9149847858716385
 20
2171.7232295688681916
 30
0.0
 40
0.0977766029299182
 50
357.5702164859395111
 51
10.5812491192237292
  0
ARC
  5
14599
  8
0
 10
8690.003137494348266
 20
2171.7398545109108454
 30
0.0
 40
0.0080715393401374
 50
9.4823971435131842
 51
46.8373353318239509
  0
ARC
  5
1459A
  8
0
 10
8690.0514045916697796
 20
2171.7347820287182003
 30
0.0
 40
0.0281834242360516
 50
121.101052346480202
 51
152.8272552589002089
  0
ARC
  5
1459B
  8
0
 10
8690.0461895379266934
 20
2171.7434267631128932
 30
0.0
 40
0.0180874736458402
 50
96.0521869160070025
 51
121.101052346480202
  0
ARC
  5
1459C
  8
0
 10
8690.0462255303555139
 20
2171.7430872926511256
 30
0.0
 40
0.0184288468279212
 50
67.3377600996077348
 51
96.0521869160070025
  0
ARC
  5
1459D
  8
0
 10
8690.0342978609805868
 20
2171.7230685961339987
 30
0.0
 40
0.0416281493445408
 50
33.051034644293118
 51
62.7998051837318201
  0
ARC
  5
1459E
  8
0
 10
8690.0048103214667208
 20
2171.7011601518101997
 30
0.0
 40
0.078325949045587
 50
11.1224357349961807
 51
34.72001174257597
  0
ARC
  5
1459F
  8
0
 10
8689.9958642915189557
 20
2171.6986085497201202
 30
0.0
 40
0.0875996216767173
 50
343.8255515780389828
 51
11.6312593887989593
  0
ARC
  5
145A0
  8
0
 10
8690.006170057975396
 20
2171.6952536493959087
 30
0.0
 40
0.0767680312739871
 50
325.3540348476586246
 51
344.0877474909788134
  0
ARC
  5
145A1
  8
0
 10
8690.0324402273017768
 20
2171.6760370729389251
 30
0.0
 40
0.0442400170467837
 50
299.9182616981073011
 51
326.4865670103390016
  0
ARC
  5
145A2
  8
0
 10
8690.0460577283629391
 20
2171.6557345529790837
 30
0.0
 40
0.0199218145104279
 50
256.698717833797275
 51
295.0904895874870135
  0
ARC
  5
145A3
  8
0
 10
8690.0512122848631407
 20
2171.6633660284128382
 30
0.0
 40
0.0287201586320659
 50
193.0463506587634868
 51
250.1800852696351001
  0
ARC
  5
145A4
  8
0
 10
8690.0235806027412764
 20
2171.7153279824169658
 30
0.0
 40
0.0207029914077528
 50
152.809805445951099
 51
167.7867429122713929
  0
ARC
  5
145A5
  8
0
 10
8690.0083336302923271
 20
2171.7231605636679888
 30
0.0
 40
0.0035618275618712
 50
130.2796889013791883
 51
152.8098054458571937
  0
ARC
  5
145A6
  8
0
 10
8690.0065936014980252
 20
2171.725213810295827
 30
0.0
 40
0.0008704483776159
 50
9.7949086692464356
 51
130.2796889012491874
  0
ARC
  5
145A7
  8
0
 10
8689.956472739122546
 20
2171.7127513580521736
 30
0.0
 40
0.052515193124652
 50
353.6617861201999062
 51
13.8942820658835409
  0
ARC
  5
145A8
  8
0
 10
8689.9078833876374119
 20
2171.7126614909620912
 30
0.0
 40
0.1009450393026873
 50
346.2932129493423759
 51
356.7586365091012794
  0
ARC
  5
145A9
  8
0
 10
8689.987422234051337
 20
2171.6931248914238495
 30
0.0
 40
0.0190425807738631
 50
330.6946217774723209
 51
346.6940856137186984
  0
ARC
  5
145AA
  8
0
 10
8690.0029666076916328
 20
2171.6843661518569206
 30
0.0
 40
0.0012007940738292
 50
208.4122028179706092
 51
332.0980174495663846
  0
ARC
  5
145AB
  8
0
 10
8690.0628953312279918
 20
2171.6969252234739542
 30
0.0
 40
0.0623823968947787
 50
173.3311592460121062
 51
192.1506486773184008
  0
ARC
  5
145AC
  8
0
 10
8690.0996788361208019
 20
2171.6968028622750353
 30
0.0
 40
0.0990182438227867
 50
166.6252272298769981
 51
175.7333041724500049
  0
LINE
  5
145AD
  8
0
 10
8689.9794798338916735
 20
2171.7488572954162009
 30
0.0
 11
8689.9492706767432537
 21
2171.7456821850519191
 31
0.0
  0
LINE
  5
145AE
  8
0
 10
8689.9492706767432537
 20
2171.7456821850519191
 30
0.0
 11
8689.9420648869436263
 21
2171.6633196312509426
 31
0.0
  0
LINE
  5
145AF
  8
0
 10
8689.9420648869436263
 20
2171.6633196312509426
 30
0.0
 11
8689.9798005510856456
 21
2171.6524991036958454
 31
0.0
  0
ARC
  5
145B0
  8
0
 10
8689.4400892086632666
 20
2171.6988823659680747
 30
0.0
 40
0.5417007847106562
 50
352.5066288528927885
 51
7.4933711471072533
  0
LINE
  5
145B1
  8
0
 10
8689.9648704960145551
 20
2171.6183830413101532
 30
0.0
 11
8690.0055870425803732
 21
2171.6226928617279555
 31
0.0
  0
LINE
  5
145B2
  8
0
 10
8689.9576368277485017
 20
2171.5360098049682165
 30
0.0
 11
8690.0062850254471414
 21
2171.5221096015461626
 31
0.0
  0
ARC
  5
145B3
  8
0
 10
8690.0219594420650537
 20
2171.6158208954611837
 30
0.0
 40
0.0310054594744363
 50
151.8165268936074881
 51
170.0212535294730003
  0
ARC
  5
145B4
  8
0
 10
8690.0016741016297601
 20
2171.6266902671791286
 30
0.0
 40
0.0079915880453366
 50
109.824918920912495
 51
151.816526893630396
  0
ARC
  5
145B5
  8
0
 10
8689.9480148711318179
 20
2171.5972416208310278
 30
0.0
 40
0.0629469664767695
 50
9.3516135564823824
 51
35.9632192638431221
  0
ARC
  5
145B6
  8
0
 10
8689.8459788642703643
 20
2171.5712275887358373
 30
0.0
 40
0.1680998323065644
 50
348.4392037639149748
 51
12.4507769140832192
  0
ARC
  5
145B7
  8
0
 10
8689.9294271497310547
 20
2171.5522815228810032
 30
0.0
 40
0.0825680198182445
 50
329.1820831109562846
 51
349.7147572913884801
  0
ARC
  5
145B8
  8
0
 10
8689.998298758011515
 20
2171.5117278308780442
 30
0.0
 40
0.0026840364570035
 50
222.7819730131768949
 51
319.3958461813867871
  0
ARC
  5
145B9
  8
0
 10
8690.0182821394355415
 20
2171.5264735828859557
 30
0.0
 40
0.0275040421028039
 50
179.8608949624220941
 51
217.042873111299599
  0
ARC
  5
145BA
  8
0
 10
8689.9619012233888498
 20
2171.5387198522471408
 30
0.0
 40
0.00505266527856
 50
186.0779558376308103
 51
212.4361867217481858
  0
ARC
  5
145BB
  8
0
 10
8690.0519435487130977
 20
2171.548307563473827
 30
0.0
 40
0.0956040018592193
 50
179.7031877269573101
 51
186.0779558376308103
  0
ARC
  5
145BC
  8
0
 10
8690.226850392169581
 20
2171.5474014764531603
 30
0.0
 40
0.2705131922460366
 50
176.112436158658312
 51
179.7031877269573101
  0
ARC
  5
145BD
  8
0
 10
8690.6888313481013029
 20
2171.5160075128987955
 30
0.0
 40
0.7335596095639341
 50
174.925275067179598
 51
176.112436158658312
  0
ARC
  5
145BE
  8
0
 10
8690.2759135220112512
 20
2171.5526758517239614
 30
0.0
 40
0.3190168516064773
 50
169.5899573250653134
 51
174.925275067179598
  0
ARC
  5
145BF
  8
0
 10
8690.0049978927254415
 20
2171.6024472607850839
 30
0.0
 40
0.0435672711916421
 50
160.6954316295656895
 51
169.5899573250653134
  0
ARC
  5
145C0
  8
0
 10
8689.9685226131314266
 20
2171.6152239870780249
 30
0.0
 40
0.0049189755453497
 50
145.1655729909242041
 51
160.6954316295656895
  0
ARC
  5
145C1
  8
0
 10
8689.9654355515322095
 20
2171.6173723028500717
 30
0.0
 40
0.0011579637185596
 50
119.2074673002958036
 51
145.1655729909454919
  0
ARC
  5
145C2
  8
0
 10
8689.9643916471086413
 20
2171.6173289984621988
 30
0.0
 40
0.0012664249951981
 50
11.5561552039133009
 51
58.0294696261177165
  0
ARC
  5
145C3
  8
0
 10
8689.9072949882938701
 20
2171.6072939619880344
 30
0.0
 40
0.0592377560371611
 50
357.7597421874859833
 51
10.0021693540836303
  0
ARC
  5
145C4
  8
0
 10
8689.5462964959151577
 20
2171.6132609440651322
 30
0.0
 40
0.4202725958197119
 50
351.7137468509832274
 51
358.8707623269489204
  0
ARC
  5
145C5
  8
0
 10
8689.8020878748793621
 20
2171.5762837814982049
 30
0.0
 40
0.1618227046405434
 50
348.1154773363792856
 51
351.6170139460335804
  0
ARC
  5
145C6
  8
0
 10
8689.9336139940824069
 20
2171.5478093898650513
 30
0.0
 40
0.0272629722764115
 50
335.4539288952452125
 51
349.7498240427078144
  0
ARC
  5
145C7
  8
0
 10
8689.9575289856438758
 20
2171.5369721781257795
 30
0.0
 40
0.0010101343563646
 50
281.5890327133431015
 51
331.0790729529504119
  0
ARC
  5
145C8
  8
0
 10
8690.086249870395477
 20
2171.5662866127299822
 30
0.0
 40
0.1271961937992413
 50
165.1980888541316119
 51
184.7986292159048958
  0
ARC
  5
145C9
  8
0
 10
8689.8414611060234165
 20
2171.5877099190611261
 30
0.0
 40
0.1223157890504523
 50
344.8029605781458145
 51
5.1937574918646412
  0
LINE
  5
145CA
  8
0
 10
8690.0077424615556083
 20
2171.492369352949936
 30
0.0
 11
8690.0644463873941277
 21
2171.4984998956228992
 31
0.0
  0
LINE
  5
145CB
  8
0
 10
8690.0005617275328405
 20
2171.4101833156560133
 30
0.0
 11
8690.0640207861051749
 21
2171.3917821048758015
 31
0.0
  0
ARC
  5
145CC
  8
0
 10
8690.0122823325018544
 20
2171.4858922208309195
 30
0.0
 40
0.0079097198870455
 50
125.0269046647400017
 51
161.8777712680316085
  0
ARC
  5
145CD
  8
0
 10
8690.0967105854160764
 20
2171.4540498701858269
 30
0.0
 40
0.098135957114537
 50
159.5407005617682898
 51
172.3508274527322897
  0
ARC
  5
145CE
  8
0
 10
8690.2184939961462078
 20
2171.4327415898787876
 30
0.0
 40
0.2217263174092978
 50
171.0823441176997903
 51
181.0966008715950863
  0
ARC
  5
145CF
  8
0
 10
8690.1006707630658639
 20
2171.4324249608048376
 30
0.0
 40
0.1039366799997546
 50
182.165188242824911
 51
189.3817166668040102
  0
ARC
  5
145D0
  8
0
 10
8690.0111806858039927
 20
2171.4176393123461821
 30
0.0
 40
0.0132333761536773
 50
189.3817166668297034
 51
207.4432974370535874
  0
ARC
  5
145D1
  8
0
 10
8690.0031323306902777
 20
2171.4134597221209333
 30
0.0
 40
0.0041644735456623
 50
207.4432974371478053
 51
231.8829766648671011
  0
ARC
  5
145D2
  8
0
 10
8690.0006150433982839
 20
2171.4128582208541047
 30
0.0
 40
0.0029254500565212
 50
281.7915792711377776
 51
326.9812149400661951
  0
ARC
  5
145D3
  8
0
 10
8689.9704474811405817
 20
2171.430425898267913
 30
0.0
 40
0.0378321729898433
 50
329.5693741496089046
 51
348.3046759373153236
  0
ARC
  5
145D4
  8
0
 10
8689.8018986203296663
 20
2171.4693280206779491
 30
0.0
 40
0.2108042048445119
 50
347.2368923212933964
 51
359.0439789038632057
  0
ARC
  5
145D5
  8
0
 10
8689.9149847858716385
 20
2171.4699560051299159
 30
0.0
 40
0.0977766029299182
 50
357.5702164859395111
 51
10.5812491192237292
  0
ARC
  5
145D6
  8
0
 10
8690.003137494348266
 20
2171.4865809471730245
 30
0.0
 40
0.0080715393401374
 50
9.4823971435131842
 51
46.8373353318239509
  0
ARC
  5
145D7
  8
0
 10
8690.0514045916697796
 20
2171.4815084649799246
 30
0.0
 40
0.0281834242360516
 50
121.101052346480202
 51
152.8272552589002089
  0
ARC
  5
145D8
  8
0
 10
8690.0461895379266934
 20
2171.4901531993750723
 30
0.0
 40
0.0180874736458402
 50
96.0521869160070025
 51
121.101052346480202
  0
ARC
  5
145D9
  8
0
 10
8690.0462255303555139
 20
2171.4898137289128499
 30
0.0
 40
0.0184288468279212
 50
67.3377600996077348
 51
96.0521869160070025
  0
ARC
  5
145DA
  8
0
 10
8690.0342978609805868
 20
2171.4697950323961777
 30
0.0
 40
0.0416281493445408
 50
33.051034644293118
 51
62.7998051837318201
  0
ARC
  5
145DB
  8
0
 10
8690.0048103214667208
 20
2171.4478865880719241
 30
0.0
 40
0.078325949045587
 50
11.1224357349961807
 51
34.72001174257597
  0
ARC
  5
145DC
  8
0
 10
8689.9958642915189557
 20
2171.4453349859818445
 30
0.0
 40
0.0875996216767173
 50
343.8255515780389828
 51
11.6312593887989593
  0
ARC
  5
145DD
  8
0
 10
8690.006170057975396
 20
2171.4419800856580878
 30
0.0
 40
0.0767680312739871
 50
325.3540348476586246
 51
344.0877474909788134
  0
ARC
  5
145DE
  8
0
 10
8690.0324402273017768
 20
2171.4227635092020137
 30
0.0
 40
0.0442400170467837
 50
299.9182616981073011
 51
326.4865670103390016
  0
ARC
  5
145DF
  8
0
 10
8690.0460577283629391
 20
2171.402460989240808
 30
0.0
 40
0.0199218145104279
 50
256.698717833797275
 51
295.0904895874870135
  0
ARC
  5
145E0
  8
0
 10
8690.0512122848631407
 20
2171.4100924646750173
 30
0.0
 40
0.0287201586320659
 50
193.0463506587634868
 51
250.1800852696351001
  0
ARC
  5
145E1
  8
0
 10
8690.0235806027412764
 20
2171.4620544186791449
 30
0.0
 40
0.0207029914077528
 50
152.809805445951099
 51
167.7867429122713929
  0
ARC
  5
145E2
  8
0
 10
8690.0083336302923271
 20
2171.4698869999288036
 30
0.0
 40
0.0035618275618712
 50
130.2796889013791883
 51
152.8098054458571937
  0
ARC
  5
145E3
  8
0
 10
8690.0065936014980252
 20
2171.471940246558006
 30
0.0
 40
0.0008704483776159
 50
9.7949086692464356
 51
130.2796889012491874
  0
ARC
  5
145E4
  8
0
 10
8689.956472739122546
 20
2171.4594777943148074
 30
0.0
 40
0.052515193124652
 50
353.6617861201999062
 51
13.8942820658835409
  0
ARC
  5
145E5
  8
0
 10
8689.9078833876374119
 20
2171.4593879272238155
 30
0.0
 40
0.1009450393026873
 50
346.2932129493423759
 51
356.7586365091012794
  0
ARC
  5
145E6
  8
0
 10
8689.987422234051337
 20
2171.4398513276860285
 30
0.0
 40
0.0190425807738631
 50
330.6946217774723209
 51
346.6940856137186984
  0
ARC
  5
145E7
  8
0
 10
8690.0029666076916328
 20
2171.4310925881190997
 30
0.0
 40
0.0012007940738292
 50
208.4122028179706092
 51
332.0980174495663846
  0
ARC
  5
145E8
  8
0
 10
8690.0628953312279918
 20
2171.4436516597361333
 30
0.0
 40
0.0623823968947787
 50
173.3311592460121062
 51
192.1506486773184008
  0
ARC
  5
145E9
  8
0
 10
8690.0996788361208019
 20
2171.4435292985372143
 30
0.0
 40
0.0990182438227867
 50
166.6252272298769981
 51
175.7333041724500049
  0
LINE
  5
145EA
  8
0
 10
8689.9794798338916735
 20
2171.4955837316779252
 30
0.0
 11
8689.9492706767432537
 21
2171.4924086213140981
 31
0.0
  0
LINE
  5
145EB
  8
0
 10
8689.9492706767432537
 20
2171.4924086213140981
 30
0.0
 11
8689.9420648869436263
 21
2171.4100460675140312
 31
0.0
  0
LINE
  5
145EC
  8
0
 10
8689.9420648869436263
 20
2171.4100460675140312
 30
0.0
 11
8689.9798005510856456
 21
2171.399225539957115
 31
0.0
  0
ARC
  5
145ED
  8
0
 10
8689.4400892086632666
 20
2171.445608802229799
 30
0.0
 40
0.5417007847106562
 50
352.5066288528927885
 51
7.4933711471072533
  0
LINE
  5
145EE
  8
0
 10
8689.9648704960145551
 20
2171.3651229788911223
 30
0.0
 11
8690.0055870425803732
 21
2171.3694327993089246
 31
0.0
  0
LINE
  5
145EF
  8
0
 10
8689.9576368277485017
 20
2171.2827497425500951
 30
0.0
 11
8690.0062850254471414
 21
2171.2688495391280412
 31
0.0
  0
ARC
  5
145F0
  8
0
 10
8690.0219594420650537
 20
2171.3625608330421528
 30
0.0
 40
0.0310054594744363
 50
151.8165268936074881
 51
170.0212535294730003
  0
ARC
  5
145F1
  8
0
 10
8690.0016741016297601
 20
2171.3734302047600977
 30
0.0
 40
0.0079915880453366
 50
109.824918920912495
 51
151.816526893630396
  0
ARC
  5
145F2
  8
0
 10
8689.9480148711318179
 20
2171.343981558411997
 30
0.0
 40
0.0629469664767695
 50
9.3516135564823824
 51
35.9632192638431221
  0
ARC
  5
145F3
  8
0
 10
8689.8459788642703643
 20
2171.3179675263181707
 30
0.0
 40
0.1680998323065644
 50
348.4392037639149748
 51
12.4507769140832192
  0
ARC
  5
145F4
  8
0
 10
8689.9294271497310547
 20
2171.2990214604619723
 30
0.0
 40
0.0825680198182445
 50
329.1820831109562846
 51
349.7147572913884801
  0
ARC
  5
145F5
  8
0
 10
8689.998298758011515
 20
2171.2584677684581038
 30
0.0
 40
0.0026840364570035
 50
222.7819730131768949
 51
319.3958461813867871
  0
ARC
  5
145F6
  8
0
 10
8690.0182821394355415
 20
2171.2732135204678343
 30
0.0
 40
0.0275040421028039
 50
179.8608949624220941
 51
217.042873111299599
  0
ARC
  5
145F7
  8
0
 10
8689.9619012233888498
 20
2171.2854597898290194
 30
0.0
 40
0.00505266527856
 50
186.0779558376308103
 51
212.4361867217481858
  0
ARC
  5
145F8
  8
0
 10
8690.0519435487130977
 20
2171.2950475010561604
 30
0.0
 40
0.0956040018592193
 50
179.7031877269573101
 51
186.0779558376308103
  0
ARC
  5
145F9
  8
0
 10
8690.226850392169581
 20
2171.2941414140341294
 30
0.0
 40
0.2705131922460366
 50
176.112436158658312
 51
179.7031877269573101
  0
ARC
  5
145FA
  8
0
 10
8690.6888313481013029
 20
2171.2627474504802194
 30
0.0
 40
0.7335596095639341
 50
174.925275067179598
 51
176.112436158658312
  0
ARC
  5
145FB
  8
0
 10
8690.2759135220112512
 20
2171.2994157893049305
 30
0.0
 40
0.3190168516064773
 50
169.5899573250653134
 51
174.925275067179598
  0
ARC
  5
145FC
  8
0
 10
8690.0049978927254415
 20
2171.3491871983660531
 30
0.0
 40
0.0435672711916421
 50
160.6954316295656895
 51
169.5899573250653134
  0
ARC
  5
145FD
  8
0
 10
8689.9685226131314266
 20
2171.3619639246589941
 30
0.0
 40
0.0049189755453497
 50
145.1655729909242041
 51
160.6954316295656895
  0
ARC
  5
145FE
  8
0
 10
8689.9654355515322095
 20
2171.3641122404310408
 30
0.0
 40
0.0011579637185596
 50
119.2074673002958036
 51
145.1655729909454919
  0
ARC
  5
145FF
  8
0
 10
8689.9643916471086413
 20
2171.3640689360431679
 30
0.0
 40
0.0012664249951981
 50
11.5561552039133009
 51
58.0294696261177165
  0
ARC
  5
14600
  8
0
 10
8689.9072949882938701
 20
2171.3540338995680941
 30
0.0
 40
0.0592377560371611
 50
357.7597421874859833
 51
10.0021693540836303
  0
ARC
  5
14601
  8
0
 10
8689.5462964959151577
 20
2171.3600008816461013
 30
0.0
 40
0.4202725958197119
 50
351.7137468509832274
 51
358.8707623269489204
  0
ARC
  5
14602
  8
0
 10
8689.8020878748793621
 20
2171.323023719079174
 30
0.0
 40
0.1618227046405434
 50
348.1154773363792856
 51
351.6170139460335804
  0
ARC
  5
14603
  8
0
 10
8689.9336139940824069
 20
2171.2945493274460205
 30
0.0
 40
0.0272629722764115
 50
335.4539288952452125
 51
349.7498240427078144
  0
ARC
  5
14604
  8
0
 10
8689.9575289856438758
 20
2171.2837121157058391
 30
0.0
 40
0.0010101343563646
 50
281.5890327133431015
 51
331.0790729529504119
  0
ARC
  5
14605
  8
0
 10
8690.086249870395477
 20
2171.3130265503109513
 30
0.0
 40
0.1271961937992413
 50
165.1980888541316119
 51
184.7986292159048958
  0
ARC
  5
14606
  8
0
 10
8689.8414611060234165
 20
2171.3344498566420953
 30
0.0
 40
0.1223157890504523
 50
344.8029605781458145
 51
5.1937574918646412
  0
LINE
  5
14607
  8
0
 10
8690.0077424615556083
 20
2171.2391092905318146
 30
0.0
 11
8690.0644463873941277
 21
2171.2452398332029588
 31
0.0
  0
LINE
  5
14608
  8
0
 10
8690.0005617275328405
 20
2171.1569232532369824
 30
0.0
 11
8690.0640207861051749
 21
2171.1385220424581348
 31
0.0
  0
ARC
  5
14609
  8
0
 10
8690.0122823325018544
 20
2171.2326321584118887
 30
0.0
 40
0.0079097198870455
 50
125.0269046647400017
 51
161.8777712680316085
  0
ARC
  5
1460A
  8
0
 10
8690.0967105854160764
 20
2171.200789807766796
 30
0.0
 40
0.098135957114537
 50
159.5407005617682898
 51
172.3508274527322897
  0
ARC
  5
1460B
  8
0
 10
8690.2184939961462078
 20
2171.1794815274602115
 30
0.0
 40
0.2217263174092978
 50
171.0823441176997903
 51
181.0966008715950863
  0
ARC
  5
1460C
  8
0
 10
8690.1006707630658639
 20
2171.1791648983858067
 30
0.0
 40
0.1039366799997546
 50
182.165188242824911
 51
189.3817166668040102
  0
ARC
  5
1460D
  8
0
 10
8690.0111806858039927
 20
2171.1643792499280607
 30
0.0
 40
0.0132333761536773
 50
189.3817166668297034
 51
207.4432974370535874
  0
ARC
  5
1460E
  8
0
 10
8690.0031323306902777
 20
2171.1601996597028119
 30
0.0
 40
0.0041644735456623
 50
207.4432974371478053
 51
231.8829766648671011
  0
ARC
  5
1460F
  8
0
 10
8690.0006150433982839
 20
2171.1595981584350739
 30
0.0
 40
0.0029254500565212
 50
281.7915792711377776
 51
326.9812149400661951
  0
ARC
  5
14610
  8
0
 10
8689.9704474811405817
 20
2171.1771658358488821
 30
0.0
 40
0.0378321729898433
 50
329.5693741496089046
 51
348.3046759373153236
  0
ARC
  5
14611
  8
0
 10
8689.8018986203296663
 20
2171.2160679582589182
 30
0.0
 40
0.2108042048445119
 50
347.2368923212933964
 51
359.0439789038632057
  0
ARC
  5
14612
  8
0
 10
8689.9149847858716385
 20
2171.216695942710885
 30
0.0
 40
0.0977766029299182
 50
357.5702164859395111
 51
10.5812491192237292
  0
ARC
  5
14613
  8
0
 10
8690.003137494348266
 20
2171.2333208847549031
 30
0.0
 40
0.0080715393401374
 50
9.4823971435131842
 51
46.8373353318239509
  0
ARC
  5
14614
  8
0
 10
8690.0514045916697796
 20
2171.2282484025608937
 30
0.0
 40
0.0281834242360516
 50
121.101052346480202
 51
152.8272552589002089
  0
ARC
  5
14615
  8
0
 10
8690.0461895379266934
 20
2171.2368931369560414
 30
0.0
 40
0.0180874736458402
 50
96.0521869160070025
 51
121.101052346480202
  0
ARC
  5
14616
  8
0
 10
8690.0462255303555139
 20
2171.2365536664951833
 30
0.0
 40
0.0184288468279212
 50
67.3377600996077348
 51
96.0521869160070025
  0
ARC
  5
14617
  8
0
 10
8690.0342978609805868
 20
2171.2165349699771468
 30
0.0
 40
0.0416281493445408
 50
33.051034644293118
 51
62.7998051837318201
  0
ARC
  5
14618
  8
0
 10
8690.0048103214667208
 20
2171.1946265256528932
 30
0.0
 40
0.078325949045587
 50
11.1224357349961807
 51
34.72001174257597
  0
ARC
  5
14619
  8
0
 10
8689.9958642915189557
 20
2171.1920749235628136
 30
0.0
 40
0.0875996216767173
 50
343.8255515780389828
 51
11.6312593887989593
  0
ARC
  5
1461A
  8
0
 10
8690.006170057975396
 20
2171.1887200232399664
 30
0.0
 40
0.0767680312739871
 50
325.3540348476586246
 51
344.0877474909788134
  0
ARC
  5
1461B
  8
0
 10
8690.0324402273017768
 20
2171.1695034467829828
 30
0.0
 40
0.0442400170467837
 50
299.9182616981073011
 51
326.4865670103390016
  0
ARC
  5
1461C
  8
0
 10
8690.0460577283629391
 20
2171.1492009268217771
 30
0.0
 40
0.0199218145104279
 50
256.698717833797275
 51
295.0904895874870135
  0
ARC
  5
1461D
  8
0
 10
8690.0512122848631407
 20
2171.1568324022568959
 30
0.0
 40
0.0287201586320659
 50
193.0463506587634868
 51
250.1800852696351001
  0
ARC
  5
1461E
  8
0
 10
8690.0235806027412764
 20
2171.208794356260114
 30
0.0
 40
0.0207029914077528
 50
152.809805445951099
 51
167.7867429122713929
  0
ARC
  5
1461F
  8
0
 10
8690.0083336302923271
 20
2171.2166269375111369
 30
0.0
 40
0.0035618275618712
 50
130.2796889013791883
 51
152.8098054458571937
  0
ARC
  5
14620
  8
0
 10
8690.0065936014980252
 20
2171.2186801841389752
 30
0.0
 40
0.0008704483776159
 50
9.7949086692464356
 51
130.2796889012491874
  0
ARC
  5
14621
  8
0
 10
8689.956472739122546
 20
2171.2062177318957765
 30
0.0
 40
0.052515193124652
 50
353.6617861201999062
 51
13.8942820658835409
  0
ARC
  5
14622
  8
0
 10
8689.9078833876374119
 20
2171.2061278648047846
 30
0.0
 40
0.1009450393026873
 50
346.2932129493423759
 51
356.7586365091012794
  0
ARC
  5
14623
  8
0
 10
8689.987422234051337
 20
2171.1865912652669977
 30
0.0
 40
0.0190425807738631
 50
330.6946217774723209
 51
346.6940856137186984
  0
ARC
  5
14624
  8
0
 10
8690.0029666076916328
 20
2171.1778325257000688
 30
0.0
 40
0.0012007940738292
 50
208.4122028179706092
 51
332.0980174495663846
  0
ARC
  5
14625
  8
0
 10
8690.0628953312279918
 20
2171.1903915973171024
 30
0.0
 40
0.0623823968947787
 50
173.3311592460121062
 51
192.1506486773184008
  0
ARC
  5
14626
  8
0
 10
8690.0996788361208019
 20
2171.1902692361181835
 30
0.0
 40
0.0990182438227867
 50
166.6252272298769981
 51
175.7333041724500049
  0
LINE
  5
14627
  8
0
 10
8689.9794798338916735
 20
2171.2423236692588944
 30
0.0
 11
8689.9492706767432537
 21
2171.2391485588941578
 31
0.0
  0
LINE
  5
14628
  8
0
 10
8689.9492706767432537
 20
2171.2391485588941578
 30
0.0
 11
8689.9420648869436263
 21
2171.1567860050950003
 31
0.0
  0
LINE
  5
14629
  8
0
 10
8689.9420648869436263
 20
2171.1567860050950003
 30
0.0
 11
8689.9798005510856456
 21
2171.1459654775380841
 31
0.0
  0
ARC
  5
1462A
  8
0
 10
8689.4400892086632666
 20
2171.1923487398112229
 30
0.0
 40
0.5417007847106562
 50
352.5066288528927885
 51
7.4933711471072533
  0
LINE
  5
1462B
  8
0
 10
8689.9603601987291768
 20
2171.1123969762138586
 30
0.0
 11
8690.006081094064939
 21
2171.1214977461168019
 31
0.0
  0
LINE
  5
1462C
  8
0
 10
8689.9604856659607321
 20
2171.0301609026778351
 30
0.0
 11
8690.0059905352700298
 21
2171.0212805805440439
 31
0.0
  0
ARC
  5
1462D
  8
0
 10
8690.2830125907839829
 20
2171.0717711131301257
 30
0.0
 40
0.3251999797802187
 50
172.8235299611880862
 51
187.3513017623604924
  0
ARC
  5
1462E
  8
0
 10
8689.6237207454887539
 20
2171.071291514413133
 30
0.0
 40
0.3412979642953963
 50
353.0123851862721267
 51
6.988872218106267
  0
ARC
  5
1462F
  8
0
 10
8690.086578371881842
 20
2171.0713236841579601
 30
0.0
 40
0.1270497892367372
 50
170.1882530265912123
 51
189.8114968887585974
  0
ARC
  5
14630
  8
0
 10
8689.8400311197765404
 20
2171.0713242222232111
 30
0.0
 40
0.1232719241667984
 50
349.8844453246863964
 51
10.1153045906555406
  0
ARC
  5
14631
  8
0
 10
8690.0214501980008208
 20
2171.1151992430927749
 30
0.0
 40
0.030706215215302
 50
145.9466938773819038
 51
173.8668615156678072
  0
ARC
  5
14632
  8
0
 10
8689.9993686901143519
 20
2171.1301233176131973
 30
0.0
 40
0.0040543674210908
 50
94.7324485410823769
 51
145.9466938773819038
  0
ARC
  5
14633
  8
0
 10
8689.955203231127598
 20
2171.1014847771589302
 30
0.0
 40
0.0546724415369389
 50
13.5773572603198698
 51
36.7071368543771968
  0
ARC
  5
14634
  8
0
 10
8689.8481093370974122
 20
2171.0710273209510888
 30
0.0
 40
0.1659836740884198
 50
349.6818115686148758
 51
15.1188618138118809
  0
ARC
  5
14635
  8
0
 10
8689.9143628791389347
 20
2171.0568245418357947
 30
0.0
 40
0.0982802144500788
 50
330.4348524709083108
 51
350.9097409501790139
  0
ARC
  5
14636
  8
0
 10
8690.0167494550642004
 20
2171.0277833013828968
 30
0.0
 40
0.0257695299243297
 50
188.0828998814513113
 51
229.0100700959249878
  0
LINE
  5
14637
  8
0
 10
8689.9648704960145551
 20
2169.5124359647797974
 30
0.0
 11
8690.0055870425803732
 21
2169.5081261443619951
 31
0.0
  0
LINE
  5
14638
  8
0
 10
8689.9576368277485017
 20
2169.5948092011208246
 30
0.0
 11
8690.0062850254471414
 21
2169.6087094045428785
 31
0.0
  0
ARC
  5
14639
  8
0
 10
8690.0219594420650537
 20
2169.5149981106301311
 30
0.0
 40
0.0310054594744363
 50
189.978746470526886
 51
208.1834731063925119
  0
ARC
  5
1463A
  8
0
 10
8690.0016741016297601
 20
2169.504128738910822
 30
0.0
 40
0.0079915880453366
 50
208.1834731063694903
 51
250.1750810790873913
  0
ARC
  5
1463B
  8
0
 10
8689.9480148711318179
 20
2169.5335773852589227
 30
0.0
 40
0.0629469664767695
 50
324.0367807361569135
 51
350.6483864435176088
  0
ARC
  5
1463C
  8
0
 10
8689.8459788642703643
 20
2169.5595914173532037
 30
0.0
 40
0.1680998323065644
 50
347.5492230859168217
 51
11.5607962360849594
  0
ARC
  5
1463D
  8
0
 10
8689.9294271497310547
 20
2169.5785374832089474
 30
0.0
 40
0.0825680198182445
 50
10.2852427086115608
 51
30.8179168890437296
  0
ARC
  5
1463E
  8
0
 10
8689.998298758011515
 20
2169.6190911752119064
 30
0.0
 40
0.0026840364570035
 50
40.6041538186131703
 51
137.2180269868231051
  0
ARC
  5
1463F
  8
0
 10
8690.0182821394355415
 20
2169.6043454232030854
 30
0.0
 40
0.0275040421028039
 50
142.957126888700401
 51
180.1391050375777922
  0
ARC
  5
14640
  8
0
 10
8689.9619012233888498
 20
2169.5920991538428098
 30
0.0
 40
0.00505266527856
 50
147.5638132782518142
 51
173.9220441623691045
  0
ARC
  5
14641
  8
0
 10
8690.0519435487130977
 20
2169.582511442615214
 30
0.0
 40
0.0956040018592193
 50
173.9220441623691045
 51
180.2968122730426899
  0
ARC
  5
14642
  8
0
 10
8690.226850392169581
 20
2169.5834175296358808
 30
0.0
 40
0.2705131922460366
 50
180.2968122730426899
 51
183.887563841341688
  0
ARC
  5
14643
  8
0
 10
8690.6888313481013029
 20
2169.614811493191155
 30
0.0
 40
0.7335596095639341
 50
183.887563841341688
 51
185.074724932820402
  0
ARC
  5
14644
  8
0
 10
8690.2759135220112512
 20
2169.5781431543650797
 30
0.0
 40
0.3190168516064773
 50
185.074724932820402
 51
190.4100426749346013
  0
ARC
  5
14645
  8
0
 10
8690.0049978927254415
 20
2169.5283717453039571
 30
0.0
 40
0.0435672711916421
 50
190.4100426749346013
 51
199.3045683704343105
  0
ARC
  5
14646
  8
0
 10
8689.9685226131314266
 20
2169.5155950190119256
 30
0.0
 40
0.0049189755453497
 50
199.3045683704343105
 51
214.8344270090757959
  0
ARC
  5
14647
  8
0
 10
8689.9654355515322095
 20
2169.5134467032398788
 30
0.0
 40
0.0011579637185596
 50
214.8344270090543944
 51
240.7925326997041964
  0
ARC
  5
14648
  8
0
 10
8689.9643916471086413
 20
2169.5134900076282065
 30
0.0
 40
0.0012664249951981
 50
301.9705303738822977
 51
348.4438447960866938
  0
ARC
  5
14649
  8
0
 10
8689.9072949882938701
 20
2169.5235250441019161
 30
0.0
 40
0.0592377560371611
 50
349.9978306459163946
 51
2.2402578125139971
  0
ARC
  5
1464A
  8
0
 10
8689.5462964959151577
 20
2169.5175580620248184
 30
0.0
 40
0.4202725958197119
 50
1.1292376730510869
 51
8.2862531490167974
  0
ARC
  5
1464B
  8
0
 10
8689.8020878748793621
 20
2169.5545352245908362
 30
0.0
 40
0.1618227046405434
 50
8.3829860539663414
 51
11.8845226636206593
  0
ARC
  5
1464C
  8
0
 10
8689.9336139940824069
 20
2169.5830096162239897
 30
0.0
 40
0.0272629722764115
 50
10.2501759572922495
 51
24.5460711047548017
  0
ARC
  5
1464D
  8
0
 10
8689.9575289856438758
 20
2169.5938468279641711
 30
0.0
 40
0.0010101343563646
 50
28.92092704704962
 51
78.4109672866568701
  0
ARC
  5
1464E
  8
0
 10
8690.086249870395477
 20
2169.5645323933599684
 30
0.0
 40
0.1271961937992413
 50
175.2013707840951042
 51
194.8019111458683028
  0
ARC
  5
1464F
  8
0
 10
8689.8414611060234165
 20
2169.5431090870288244
 30
0.0
 40
0.1223157890504523
 50
354.8062425081354263
 51
15.1970394218541696
  0
LINE
  5
14650
  8
0
 10
8690.0077424615556083
 20
2169.6384496531391051
 30
0.0
 11
8690.0644463873941277
 21
2169.6323191104670514
 31
0.0
  0
LINE
  5
14651
  8
0
 10
8690.0005617275328405
 20
2169.7206356904330278
 30
0.0
 11
8690.0640207861051749
 21
2169.7390369012127849
 31
0.0
  0
ARC
  5
14652
  8
0
 10
8690.0122823325018544
 20
2169.644926785259031
 30
0.0
 40
0.0079097198870455
 50
198.1222287319683915
 51
234.9730953352600125
  0
ARC
  5
14653
  8
0
 10
8690.0967105854160764
 20
2169.6767691359041237
 30
0.0
 40
0.098135957114537
 50
187.6491725472677103
 51
200.4592994382317102
  0
ARC
  5
14654
  8
0
 10
8690.2184939961462078
 20
2169.6980774162097987
 30
0.0
 40
0.2217263174092978
 50
178.9033991284049137
 51
188.9176558823002097
  0
ARC
  5
14655
  8
0
 10
8690.1006707630658639
 20
2169.698394045285113
 30
0.0
 40
0.1039366799997546
 50
170.6182833331959898
 51
177.834811757175089
  0
ARC
  5
14656
  8
0
 10
8690.0111806858039927
 20
2169.7131796937428589
 30
0.0
 40
0.0132333761536773
 50
152.5567025629464126
 51
170.6182833331702966
  0
ARC
  5
14657
  8
0
 10
8690.0031323306902777
 20
2169.7173592839681078
 30
0.0
 40
0.0041644735456623
 50
128.1170233351328136
 51
152.5567025628521094
  0
ARC
  5
14658
  8
0
 10
8690.0006150433982839
 20
2169.7179607852358458
 30
0.0
 40
0.0029254500565212
 50
33.018785059933812
 51
78.2084207288622224
  0
ARC
  5
14659
  8
0
 10
8689.9704474811405817
 20
2169.7003931078220376
 30
0.0
 40
0.0378321729898433
 50
11.6953240626847208
 51
30.4306258503911202
  0
ARC
  5
1465A
  8
0
 10
8689.8018986203296663
 20
2169.661490985411092
 30
0.0
 40
0.2108042048445119
 50
0.9560210961367859
 51
12.7631076787065503
  0
ARC
  5
1465B
  8
0
 10
8689.9149847858716385
 20
2169.6608630009591252
 30
0.0
 40
0.0977766029299182
 50
349.4187508807763152
 51
2.42978351406046
  0
ARC
  5
1465C
  8
0
 10
8690.003137494348266
 20
2169.6442380589160166
 30
0.0
 40
0.0080715393401374
 50
313.162664668175978
 51
350.5176028564868034
  0
ARC
  5
1465D
  8
0
 10
8690.0514045916697796
 20
2169.649310541110026
 30
0.0
 40
0.0281834242360516
 50
207.1727447410997911
 51
238.8989476535197127
  0
ARC
  5
1465E
  8
0
 10
8690.0461895379266934
 20
2169.6406658067139688
 30
0.0
 40
0.0180874736458402
 50
238.8989476535197127
 51
263.9478130839930259
  0
ARC
  5
1465F
  8
0
 10
8690.0462255303555139
 20
2169.6410052771761912
 30
0.0
 40
0.0184288468279212
 50
263.9478130839930259
 51
292.6622399003921942
  0
ARC
  5
14660
  8
0
 10
8690.0342978609805868
 20
2169.6610239736928634
 30
0.0
 40
0.0416281493445408
 50
297.2001948162680947
 51
326.9489653557068891
  0
ARC
  5
14661
  8
0
 10
8690.0048103214667208
 20
2169.6829324180180265
 30
0.0
 40
0.078325949045587
 50
325.2799882574241224
 51
348.877564265003798
  0
ARC
  5
14662
  8
0
 10
8689.9958642915189557
 20
2169.6854840201081061
 30
0.0
 40
0.0875996216767173
 50
348.3687406112010763
 51
16.1744484219610207
  0
ARC
  5
14663
  8
0
 10
8690.006170057975396
 20
2169.6888389204318628
 30
0.0
 40
0.0767680312739871
 50
15.91225250902116
 51
34.6459651523414465
  0
ARC
  5
14664
  8
0
 10
8690.0324402273017768
 20
2169.7080554968879369
 30
0.0
 40
0.0442400170467837
 50
33.5134329896610765
 51
60.0817383018926421
  0
ARC
  5
14665
  8
0
 10
8690.0460577283629391
 20
2169.7283580168491426
 30
0.0
 40
0.0199218145104279
 50
64.9095104125129723
 51
103.3012821662026965
  0
ARC
  5
14666
  8
0
 10
8690.0512122848631407
 20
2169.7207265414149333
 30
0.0
 40
0.0287201586320659
 50
109.8199147303648004
 51
166.9536493412365132
  0
ARC
  5
14667
  8
0
 10
8690.0235806027412764
 20
2169.6687645874098962
 30
0.0
 40
0.0207029914077528
 50
192.2132570877286071
 51
207.190194554048901
  0
ARC
  5
14668
  8
0
 10
8690.0083336302923271
 20
2169.660932006161147
 30
0.0
 40
0.0035618275618712
 50
207.1901945541428063
 51
229.720311098620698
  0
ARC
  5
14669
  8
0
 10
8690.0065936014980252
 20
2169.658878759531035
 30
0.0
 40
0.0008704483776159
 50
229.7203110987508126
 51
350.2050913307535893
  0
ARC
  5
1466A
  8
0
 10
8689.956472739122546
 20
2169.6713412117751432
 30
0.0
 40
0.052515193124652
 50
346.1057179341163987
 51
6.3382138798000991
  0
ARC
  5
1466B
  8
0
 10
8689.9078833876374119
 20
2169.6714310788661351
 30
0.0
 40
0.1009450393026873
 50
3.2413634908986451
 51
13.7067870506576508
  0
ARC
  5
1466C
  8
0
 10
8689.987422234051337
 20
2169.690967678403922
 30
0.0
 40
0.0190425807738631
 50
13.3059143862813496
 51
29.3053782225277111
  0
ARC
  5
1466D
  8
0
 10
8690.0029666076916328
 20
2169.6997264179699414
 30
0.0
 40
0.0012007940738292
 50
27.9019825504336012
 51
151.5877971820293908
  0
ARC
  5
1466E
  8
0
 10
8690.0628953312279918
 20
2169.6871673463529078
 30
0.0
 40
0.0623823968947787
 50
167.8493513226815139
 51
186.6688407539878938
  0
ARC
  5
1466F
  8
0
 10
8690.0996788361208019
 20
2169.6872897075518267
 30
0.0
 40
0.0990182438227867
 50
184.2666958275499098
 51
193.3747727701228882
  0
LINE
  5
14670
  8
0
 10
8689.9794798338916735
 20
2169.6352352744120253
 30
0.0
 11
8689.9492706767432537
 21
2169.6384103847758524
 31
0.0
  0
LINE
  5
14671
  8
0
 10
8689.9492706767432537
 20
2169.6384103847758524
 30
0.0
 11
8689.9420648869436263
 21
2169.7207729385759194
 31
0.0
  0
LINE
  5
14672
  8
0
 10
8689.9420648869436263
 20
2169.7207729385759194
 30
0.0
 11
8689.9798005510856456
 21
2169.7315934661328356
 31
0.0
  0
ARC
  5
14673
  8
0
 10
8689.4400892086632666
 20
2169.6852102038587873
 30
0.0
 40
0.5417007847106562
 50
352.5066288528927885
 51
7.4933711471072533
  0
LINE
  5
14674
  8
0
 10
8689.9648704960145551
 20
2169.7657359254221774
 30
0.0
 11
8690.0055870425803732
 21
2169.7614261050039204
 31
0.0
  0
LINE
  5
14675
  8
0
 10
8689.9576368277485017
 20
2169.8481091617632046
 30
0.0
 11
8690.0062850254471414
 21
2169.8620093651848038
 31
0.0
  0
ARC
  5
14676
  8
0
 10
8690.0219594420650537
 20
2169.7682980712720564
 30
0.0
 40
0.0310054594744363
 50
189.978746470526886
 51
208.1834731063925119
  0
ARC
  5
14677
  8
0
 10
8690.0016741016297601
 20
2169.757428699553202
 30
0.0
 40
0.0079915880453366
 50
208.1834731063694903
 51
250.1750810790873913
  0
ARC
  5
14678
  8
0
 10
8689.9480148711318179
 20
2169.786877345900848
 30
0.0
 40
0.0629469664767695
 50
324.0367807361569135
 51
350.6483864435176088
  0
ARC
  5
14679
  8
0
 10
8689.8459788642703643
 20
2169.812891377995129
 30
0.0
 40
0.1680998323065644
 50
347.5492230859168217
 51
11.5607962360849594
  0
ARC
  5
1467A
  8
0
 10
8689.9294271497310547
 20
2169.8318374438508727
 30
0.0
 40
0.0825680198182445
 50
10.2852427086115608
 51
30.8179168890437296
  0
ARC
  5
1467B
  8
0
 10
8689.998298758011515
 20
2169.8723911358538317
 30
0.0
 40
0.0026840364570035
 50
40.6041538186131703
 51
137.2180269868231051
  0
ARC
  5
1467C
  8
0
 10
8690.0182821394355415
 20
2169.8576453838450107
 30
0.0
 40
0.0275040421028039
 50
142.957126888700401
 51
180.1391050375777922
  0
ARC
  5
1467D
  8
0
 10
8689.9619012233888498
 20
2169.8453991144838255
 30
0.0
 40
0.00505266527856
 50
147.5638132782518142
 51
173.9220441623691045
  0
ARC
  5
1467E
  8
0
 10
8690.0519435487130977
 20
2169.8358114032571393
 30
0.0
 40
0.0956040018592193
 50
173.9220441623691045
 51
180.2968122730426899
  0
ARC
  5
1467F
  8
0
 10
8690.226850392169581
 20
2169.8367174902778061
 30
0.0
 40
0.2705131922460366
 50
180.2968122730426899
 51
183.887563841341688
  0
ARC
  5
14680
  8
0
 10
8690.6888313481013029
 20
2169.8681114538330803
 30
0.0
 40
0.7335596095639341
 50
183.887563841341688
 51
185.074724932820402
  0
ARC
  5
14681
  8
0
 10
8690.2759135220112512
 20
2169.831443115007005
 30
0.0
 40
0.3190168516064773
 50
185.074724932820402
 51
190.4100426749346013
  0
ARC
  5
14682
  8
0
 10
8690.0049978927254415
 20
2169.7816717059458824
 30
0.0
 40
0.0435672711916421
 50
190.4100426749346013
 51
199.3045683704343105
  0
ARC
  5
14683
  8
0
 10
8689.9685226131314266
 20
2169.7688949796538509
 30
0.0
 40
0.0049189755453497
 50
199.3045683704343105
 51
214.8344270090757959
  0
ARC
  5
14684
  8
0
 10
8689.9654355515322095
 20
2169.7667466638818041
 30
0.0
 40
0.0011579637185596
 50
214.8344270090543944
 51
240.7925326997041964
  0
ARC
  5
14685
  8
0
 10
8689.9643916471086413
 20
2169.7667899682692223
 30
0.0
 40
0.0012664249951981
 50
301.9705303738822977
 51
348.4438447960866938
  0
ARC
  5
14686
  8
0
 10
8689.9072949882938701
 20
2169.7768250047438414
 30
0.0
 40
0.0592377560371611
 50
349.9978306459163946
 51
2.2402578125139971
  0
ARC
  5
14687
  8
0
 10
8689.5462964959151577
 20
2169.7708580226671984
 30
0.0
 40
0.4202725958197119
 50
1.1292376730510869
 51
8.2862531490167974
  0
ARC
  5
14688
  8
0
 10
8689.8020878748793621
 20
2169.8078351852332162
 30
0.0
 40
0.1618227046405434
 50
8.3829860539663414
 51
11.8845226636206593
  0
ARC
  5
14689
  8
0
 10
8689.9336139940824069
 20
2169.836309576865915
 30
0.0
 40
0.0272629722764115
 50
10.2501759572922495
 51
24.5460711047548017
  0
ARC
  5
1468A
  8
0
 10
8689.9575289856438758
 20
2169.8471467886060964
 30
0.0
 40
0.0010101343563646
 50
28.92092704704962
 51
78.4109672866568701
  0
ARC
  5
1468B
  8
0
 10
8690.086249870395477
 20
2169.8178323540018937
 30
0.0
 40
0.1271961937992413
 50
175.2013707840951042
 51
194.8019111458683028
  0
ARC
  5
1468C
  8
0
 10
8689.8414611060234165
 20
2169.7964090476712045
 30
0.0
 40
0.1223157890504523
 50
354.8062425081354263
 51
15.1970394218541696
  0
LINE
  5
1468D
  8
0
 10
8690.0077424615556083
 20
2169.8917496137810303
 30
0.0
 11
8690.0644463873941277
 21
2169.8856190711089766
 31
0.0
  0
LINE
  5
1468E
  8
0
 10
8690.0005617275328405
 20
2169.9739356510749531
 30
0.0
 11
8690.0640207861051749
 21
2169.9923368618551649
 31
0.0
  0
ARC
  5
1468F
  8
0
 10
8690.0122823325018544
 20
2169.8982267459009563
 30
0.0
 40
0.0079097198870455
 50
198.1222287319683915
 51
234.9730953352600125
  0
ARC
  5
14690
  8
0
 10
8690.0967105854160764
 20
2169.930069096546049
 30
0.0
 40
0.098135957114537
 50
187.6491725472677103
 51
200.4592994382317102
  0
ARC
  5
14691
  8
0
 10
8690.2184939961462078
 20
2169.9513773768521787
 30
0.0
 40
0.2217263174092978
 50
178.9033991284049137
 51
188.9176558823002097
  0
ARC
  5
14692
  8
0
 10
8690.1006707630658639
 20
2169.9516940059270382
 30
0.0
 40
0.1039366799997546
 50
170.6182833331959898
 51
177.834811757175089
  0
ARC
  5
14693
  8
0
 10
8690.0111806858039927
 20
2169.9664796543847842
 30
0.0
 40
0.0132333761536773
 50
152.5567025629464126
 51
170.6182833331702966
  0
ARC
  5
14694
  8
0
 10
8690.0031323306902777
 20
2169.9706592446100331
 30
0.0
 40
0.0041644735456623
 50
128.1170233351328136
 51
152.5567025628521094
  0
ARC
  5
14695
  8
0
 10
8690.0006150433982839
 20
2169.9712607458782259
 30
0.0
 40
0.0029254500565212
 50
33.018785059933812
 51
78.2084207288622224
  0
ARC
  5
14696
  8
0
 10
8689.9704474811405817
 20
2169.9536930684639628
 30
0.0
 40
0.0378321729898433
 50
11.6953240626847208
 51
30.4306258503911202
  0
ARC
  5
14697
  8
0
 10
8689.8018986203296663
 20
2169.9147909460530173
 30
0.0
 40
0.2108042048445119
 50
0.9560210961367859
 51
12.7631076787065503
  0
ARC
  5
14698
  8
0
 10
8689.9149847858716385
 20
2169.9141629616010505
 30
0.0
 40
0.0977766029299182
 50
349.4187508807763152
 51
2.42978351406046
  0
ARC
  5
14699
  8
0
 10
8690.003137494348266
 20
2169.8975380195579419
 30
0.0
 40
0.0080715393401374
 50
313.162664668175978
 51
350.5176028564868034
  0
ARC
  5
1469A
  8
0
 10
8690.0514045916697796
 20
2169.9026105017519512
 30
0.0
 40
0.0281834242360516
 50
207.1727447410997911
 51
238.8989476535197127
  0
ARC
  5
1469B
  8
0
 10
8690.0461895379266934
 20
2169.8939657673558941
 30
0.0
 40
0.0180874736458402
 50
238.8989476535197127
 51
263.9478130839930259
  0
ARC
  5
1469C
  8
0
 10
8690.0462255303555139
 20
2169.8943052378181164
 30
0.0
 40
0.0184288468279212
 50
263.9478130839930259
 51
292.6622399003921942
  0
ARC
  5
1469D
  8
0
 10
8690.0342978609805868
 20
2169.9143239343347886
 30
0.0
 40
0.0416281493445408
 50
297.2001948162680947
 51
326.9489653557068891
  0
ARC
  5
1469E
  8
0
 10
8690.0048103214667208
 20
2169.9362323786599518
 30
0.0
 40
0.078325949045587
 50
325.2799882574241224
 51
348.877564265003798
  0
ARC
  5
1469F
  8
0
 10
8689.9958642915189557
 20
2169.9387839807500313
 30
0.0
 40
0.0875996216767173
 50
348.3687406112010763
 51
16.1744484219610207
  0
ARC
  5
146A0
  8
0
 10
8690.006170057975396
 20
2169.9421388810737881
 30
0.0
 40
0.0767680312739871
 50
15.91225250902116
 51
34.6459651523414465
  0
ARC
  5
146A1
  8
0
 10
8690.0324402273017768
 20
2169.9613554575298622
 30
0.0
 40
0.0442400170467837
 50
33.5134329896610765
 51
60.0817383018926421
  0
ARC
  5
146A2
  8
0
 10
8690.0460577283629391
 20
2169.9816579774910679
 30
0.0
 40
0.0199218145104279
 50
64.9095104125129723
 51
103.3012821662026965
  0
ARC
  5
146A3
  8
0
 10
8690.0512122848631407
 20
2169.9740265020568586
 30
0.0
 40
0.0287201586320659
 50
109.8199147303648004
 51
166.9536493412365132
  0
ARC
  5
146A4
  8
0
 10
8690.0235806027412764
 20
2169.9220645480518215
 30
0.0
 40
0.0207029914077528
 50
192.2132570877286071
 51
207.190194554048901
  0
ARC
  5
146A5
  8
0
 10
8690.0083336302923271
 20
2169.9142319668021628
 30
0.0
 40
0.0035618275618712
 50
207.1901945541428063
 51
229.720311098620698
  0
ARC
  5
146A6
  8
0
 10
8690.0065936014980252
 20
2169.9121787201729603
 30
0.0
 40
0.0008704483776159
 50
229.7203110987508126
 51
350.2050913307535893
  0
ARC
  5
146A7
  8
0
 10
8689.956472739122546
 20
2169.9246411724170684
 30
0.0
 40
0.052515193124652
 50
346.1057179341163987
 51
6.3382138798000991
  0
ARC
  5
146A8
  8
0
 10
8689.9078833876374119
 20
2169.9247310395080603
 30
0.0
 40
0.1009450393026873
 50
3.2413634908986451
 51
13.7067870506576508
  0
ARC
  5
146A9
  8
0
 10
8689.987422234051337
 20
2169.9442676390458473
 30
0.0
 40
0.0190425807738631
 50
13.3059143862813496
 51
29.3053782225277111
  0
ARC
  5
146AA
  8
0
 10
8690.0029666076916328
 20
2169.9530263786118667
 30
0.0
 40
0.0012007940738292
 50
27.9019825504336012
 51
151.5877971820293908
  0
ARC
  5
146AB
  8
0
 10
8690.0628953312279918
 20
2169.9404673069948331
 30
0.0
 40
0.0623823968947787
 50
167.8493513226815139
 51
186.6688407539878938
  0
ARC
  5
146AC
  8
0
 10
8690.0996788361208019
 20
2169.9405896681942068
 30
0.0
 40
0.0990182438227867
 50
184.2666958275499098
 51
193.3747727701228882
  0
LINE
  5
146AD
  8
0
 10
8689.9794798338916735
 20
2169.8885352350539506
 30
0.0
 11
8689.9492706767432537
 21
2169.8917103454177777
 31
0.0
  0
LINE
  5
146AE
  8
0
 10
8689.9492706767432537
 20
2169.8917103454177777
 30
0.0
 11
8689.9420648869436263
 21
2169.9740728992178447
 31
0.0
  0
LINE
  5
146AF
  8
0
 10
8689.9420648869436263
 20
2169.9740728992178447
 30
0.0
 11
8689.9798005510856456
 21
2169.9848934267752156
 31
0.0
  0
ARC
  5
146B0
  8
0
 10
8689.4400892086632666
 20
2169.9385101645011673
 30
0.0
 40
0.5417007847106562
 50
352.5066288528927885
 51
7.4933711471072533
  0
LINE
  5
146B1
  8
0
 10
8689.9648704960145551
 20
2170.0190227813050114
 30
0.0
 11
8690.0055870425803732
 21
2170.0147129608872092
 31
0.0
  0
LINE
  5
146B2
  8
0
 10
8689.9576368277485017
 20
2170.1013960176451292
 30
0.0
 11
8690.0062850254471414
 21
2170.1152962210671831
 31
0.0
  0
ARC
  5
146B3
  8
0
 10
8690.0219594420650537
 20
2170.021584927153981
 30
0.0
 40
0.0310054594744363
 50
189.978746470526886
 51
208.1834731063925119
  0
ARC
  5
146B4
  8
0
 10
8690.0016741016297601
 20
2170.0107155554351266
 30
0.0
 40
0.0079915880453366
 50
208.1834731063694903
 51
250.1750810790873913
  0
ARC
  5
146B5
  8
0
 10
8689.9480148711318179
 20
2170.0401642017832273
 30
0.0
 40
0.0629469664767695
 50
324.0367807361569135
 51
350.6483864435176088
  0
ARC
  5
146B6
  8
0
 10
8689.8459788642703643
 20
2170.0661782338779631
 30
0.0
 40
0.1680998323065644
 50
347.5492230859168217
 51
11.5607962360849594
  0
ARC
  5
146B7
  8
0
 10
8689.9294271497310547
 20
2170.0851242997327972
 30
0.0
 40
0.0825680198182445
 50
10.2852427086115608
 51
30.8179168890437296
  0
ARC
  5
146B8
  8
0
 10
8689.998298758011515
 20
2170.125677991736211
 30
0.0
 40
0.0026840364570035
 50
40.6041538186131703
 51
137.2180269868231051
  0
ARC
  5
146B9
  8
0
 10
8690.0182821394355415
 20
2170.1109322397278447
 30
0.0
 40
0.0275040421028039
 50
142.957126888700401
 51
180.1391050375777922
  0
ARC
  5
146BA
  8
0
 10
8689.9619012233888498
 20
2170.0986859703671144
 30
0.0
 40
0.00505266527856
 50
147.5638132782518142
 51
173.9220441623691045
  0
ARC
  5
146BB
  8
0
 10
8690.0519435487130977
 20
2170.0890982591399734
 30
0.0
 40
0.0956040018592193
 50
173.9220441623691045
 51
180.2968122730426899
  0
ARC
  5
146BC
  8
0
 10
8690.226850392169581
 20
2170.0900043461610949
 30
0.0
 40
0.2705131922460366
 50
180.2968122730426899
 51
183.887563841341688
  0
ARC
  5
146BD
  8
0
 10
8690.6888313481013029
 20
2170.1213983097150049
 30
0.0
 40
0.7335596095639341
 50
183.887563841341688
 51
185.074724932820402
  0
ARC
  5
146BE
  8
0
 10
8690.2759135220112512
 20
2170.084729970889839
 30
0.0
 40
0.3190168516064773
 50
185.074724932820402
 51
190.4100426749346013
  0
ARC
  5
146BF
  8
0
 10
8690.0049978927254415
 20
2170.0349585618291712
 30
0.0
 40
0.0435672711916421
 50
190.4100426749346013
 51
199.3045683704343105
  0
ARC
  5
146C0
  8
0
 10
8689.9685226131314266
 20
2170.0221818355357755
 30
0.0
 40
0.0049189755453497
 50
199.3045683704343105
 51
214.8344270090757959
  0
ARC
  5
146C1
  8
0
 10
8689.9654355515322095
 20
2170.0200335197641834
 30
0.0
 40
0.0011579637185596
 50
214.8344270090543944
 51
240.7925326997041964
  0
ARC
  5
146C2
  8
0
 10
8689.9643916471086413
 20
2170.0200768241520564
 30
0.0
 40
0.0012664249951981
 50
301.9705303738822977
 51
348.4438447960866938
  0
ARC
  5
146C3
  8
0
 10
8689.9072949882938701
 20
2170.0301118606271302
 30
0.0
 40
0.0592377560371611
 50
349.9978306459163946
 51
2.2402578125139971
  0
ARC
  5
146C4
  8
0
 10
8689.5462964959151577
 20
2170.024144878549123
 30
0.0
 40
0.4202725958197119
 50
1.1292376730510869
 51
8.2862531490167974
  0
ARC
  5
146C5
  8
0
 10
8689.8020878748793621
 20
2170.0611220411160502
 30
0.0
 40
0.1618227046405434
 50
8.3829860539663414
 51
11.8845226636206593
  0
ARC
  5
146C6
  8
0
 10
8689.9336139940824069
 20
2170.0895964327492038
 30
0.0
 40
0.0272629722764115
 50
10.2501759572922495
 51
24.5460711047548017
  0
ARC
  5
146C7
  8
0
 10
8689.9575289856438758
 20
2170.1004336444880209
 30
0.0
 40
0.0010101343563646
 50
28.92092704704962
 51
78.4109672866568701
  0
ARC
  5
146C8
  8
0
 10
8690.086249870395477
 20
2170.0711192098838183
 30
0.0
 40
0.1271961937992413
 50
175.2013707840951042
 51
194.8019111458683028
  0
ARC
  5
146C9
  8
0
 10
8689.8414611060234165
 20
2170.0496959035540385
 30
0.0
 40
0.1223157890504523
 50
354.8062425081354263
 51
15.1970394218541696
  0
LINE
  5
146CA
  8
0
 10
8690.0077424615556083
 20
2170.1450364696629549
 30
0.0
 11
8690.0644463873941277
 21
2170.1389059269909012
 31
0.0
  0
LINE
  5
146CB
  8
0
 10
8690.0005617275328405
 20
2170.2272225069577871
 30
0.0
 11
8690.0640207861051749
 21
2170.245623717737999
 31
0.0
  0
ARC
  5
146CC
  8
0
 10
8690.0122823325018544
 20
2170.1515136017828809
 30
0.0
 40
0.0079097198870455
 50
198.1222287319683915
 51
234.9730953352600125
  0
ARC
  5
146CD
  8
0
 10
8690.0967105854160764
 20
2170.1833559524279735
 30
0.0
 40
0.098135957114537
 50
187.6491725472677103
 51
200.4592994382317102
  0
ARC
  5
146CE
  8
0
 10
8690.2184939961462078
 20
2170.2046642327350128
 30
0.0
 40
0.2217263174092978
 50
178.9033991284049137
 51
188.9176558823002097
  0
ARC
  5
146CF
  8
0
 10
8690.1006707630658639
 20
2170.2049808618089628
 30
0.0
 40
0.1039366799997546
 50
170.6182833331959898
 51
177.834811757175089
  0
ARC
  5
146D0
  8
0
 10
8690.0111806858039927
 20
2170.219766510268073
 30
0.0
 40
0.0132333761536773
 50
152.5567025629464126
 51
170.6182833331702966
  0
ARC
  5
146D1
  8
0
 10
8690.0031323306902777
 20
2170.2239461004928671
 30
0.0
 40
0.0041644735456623
 50
128.1170233351328136
 51
152.5567025628521094
  0
ARC
  5
146D2
  8
0
 10
8690.0006150433982839
 20
2170.2245476017601504
 30
0.0
 40
0.0029254500565212
 50
33.018785059933812
 51
78.2084207288622224
  0
ARC
  5
146D3
  8
0
 10
8689.9704474811405817
 20
2170.2069799243458874
 30
0.0
 40
0.0378321729898433
 50
11.6953240626847208
 51
30.4306258503911202
  0
ARC
  5
146D4
  8
0
 10
8689.8018986203296663
 20
2170.1680778019358513
 30
0.0
 40
0.2108042048445119
 50
0.9560210961367859
 51
12.7631076787065503
  0
ARC
  5
146D5
  8
0
 10
8689.9149847858716385
 20
2170.1674498174838845
 30
0.0
 40
0.0977766029299182
 50
349.4187508807763152
 51
2.42978351406046
  0
ARC
  5
146D6
  8
0
 10
8690.003137494348266
 20
2170.1508248754407759
 30
0.0
 40
0.0080715393401374
 50
313.162664668175978
 51
350.5176028564868034
  0
ARC
  5
146D7
  8
0
 10
8690.0514045916697796
 20
2170.1558973576338758
 30
0.0
 40
0.0281834242360516
 50
207.1727447410997911
 51
238.8989476535197127
  0
ARC
  5
146D8
  8
0
 10
8690.0461895379266934
 20
2170.1472526232391829
 30
0.0
 40
0.0180874736458402
 50
238.8989476535197127
 51
263.9478130839930259
  0
ARC
  5
146D9
  8
0
 10
8690.0462255303555139
 20
2170.1475920937009505
 30
0.0
 40
0.0184288468279212
 50
263.9478130839930259
 51
292.6622399003921942
  0
ARC
  5
146DA
  8
0
 10
8690.0342978609805868
 20
2170.1676107902180775
 30
0.0
 40
0.0416281493445408
 50
297.2001948162680947
 51
326.9489653557068891
  0
ARC
  5
146DB
  8
0
 10
8690.0048103214667208
 20
2170.1895192345427859
 30
0.0
 40
0.078325949045587
 50
325.2799882574241224
 51
348.877564265003798
  0
ARC
  5
146DC
  8
0
 10
8689.9958642915189557
 20
2170.1920708366319559
 30
0.0
 40
0.0875996216767173
 50
348.3687406112010763
 51
16.1744484219610207
  0
ARC
  5
146DD
  8
0
 10
8690.006170057975396
 20
2170.1954257369561674
 30
0.0
 40
0.0767680312739871
 50
15.91225250902116
 51
34.6459651523414465
  0
ARC
  5
146DE
  8
0
 10
8690.0324402273017768
 20
2170.214642313413151
 30
0.0
 40
0.0442400170467837
 50
33.5134329896610765
 51
60.0817383018926421
  0
ARC
  5
146DF
  8
0
 10
8690.0460577283629391
 20
2170.2349448333729924
 30
0.0
 40
0.0199218145104279
 50
64.9095104125129723
 51
103.3012821662026965
  0
ARC
  5
146E0
  8
0
 10
8690.0512122848631407
 20
2170.2273133579387832
 30
0.0
 40
0.0287201586320659
 50
109.8199147303648004
 51
166.9536493412365132
  0
ARC
  5
146E1
  8
0
 10
8690.0235806027412764
 20
2170.1753514039351103
 30
0.0
 40
0.0207029914077528
 50
192.2132570877286071
 51
207.190194554048901
  0
ARC
  5
146E2
  8
0
 10
8690.0083336302923271
 20
2170.1675188226849968
 30
0.0
 40
0.0035618275618712
 50
207.1901945541428063
 51
229.720311098620698
  0
ARC
  5
146E3
  8
0
 10
8690.0065936014980252
 20
2170.1654655760557944
 30
0.0
 40
0.0008704483776159
 50
229.7203110987508126
 51
350.2050913307535893
  0
ARC
  5
146E4
  8
0
 10
8689.956472739122546
 20
2170.177928028298993
 30
0.0
 40
0.052515193124652
 50
346.1057179341163987
 51
6.3382138798000991
  0
ARC
  5
146E5
  8
0
 10
8689.9078833876374119
 20
2170.1780178953899849
 30
0.0
 40
0.1009450393026873
 50
3.2413634908986451
 51
13.7067870506576508
  0
ARC
  5
146E6
  8
0
 10
8689.987422234051337
 20
2170.1975544949282266
 30
0.0
 40
0.0190425807738631
 50
13.3059143862813496
 51
29.3053782225277111
  0
ARC
  5
146E7
  8
0
 10
8690.0029666076916328
 20
2170.2063132344951555
 30
0.0
 40
0.0012007940738292
 50
27.9019825504336012
 51
151.5877971820293908
  0
ARC
  5
146E8
  8
0
 10
8690.0628953312279918
 20
2170.1937541628781219
 30
0.0
 40
0.0623823968947787
 50
167.8493513226815139
 51
186.6688407539878938
  0
ARC
  5
146E9
  8
0
 10
8690.0996788361208019
 20
2170.1938765240770408
 30
0.0
 40
0.0990182438227867
 50
184.2666958275499098
 51
193.3747727701228882
  0
LINE
  5
146EA
  8
0
 10
8689.9794798338916735
 20
2170.1418220909358752
 30
0.0
 11
8689.9492706767432537
 21
2170.144997201300157
 31
0.0
  0
LINE
  5
146EB
  8
0
 10
8689.9492706767432537
 20
2170.144997201300157
 30
0.0
 11
8689.9420648869436263
 21
2170.227359755100224
 31
0.0
  0
LINE
  5
146EC
  8
0
 10
8689.9420648869436263
 20
2170.227359755100224
 30
0.0
 11
8689.9798005510856456
 21
2170.2381802826571402
 31
0.0
  0
ARC
  5
146ED
  8
0
 10
8689.4400892086632666
 20
2170.1917970203840014
 30
0.0
 40
0.5417007847106562
 50
352.5066288528927885
 51
7.4933711471072533
  0
LINE
  5
146EE
  8
0
 10
8689.9648704960145551
 20
2170.2722963450419229
 30
0.0
 11
8690.0055870425803732
 21
2170.2679865246250301
 31
0.0
  0
LINE
  5
146EF
  8
0
 10
8689.9576368277485017
 20
2170.3546695813829501
 30
0.0
 11
8690.0062850254471414
 21
2170.368569784805004
 31
0.0
  0
ARC
  5
146F0
  8
0
 10
8690.0219594420650537
 20
2170.2748584908918019
 30
0.0
 40
0.0310054594744363
 50
189.978746470526886
 51
208.1834731063925119
  0
ARC
  5
146F1
  8
0
 10
8690.0016741016297601
 20
2170.2639891191729475
 30
0.0
 40
0.0079915880453366
 50
208.1834731063694903
 51
250.1750810790873913
  0
ARC
  5
146F2
  8
0
 10
8689.9480148711318179
 20
2170.2934377655210483
 30
0.0
 40
0.0629469664767695
 50
324.0367807361569135
 51
350.6483864435176088
  0
ARC
  5
146F3
  8
0
 10
8689.8459788642703643
 20
2170.3194517976148745
 30
0.0
 40
0.1680998323065644
 50
347.5492230859168217
 51
11.5607962360849594
  0
ARC
  5
146F4
  8
0
 10
8689.9294271497310547
 20
2170.3383978634710729
 30
0.0
 40
0.0825680198182445
 50
10.2852427086115608
 51
30.8179168890437296
  0
ARC
  5
146F5
  8
0
 10
8689.998298758011515
 20
2170.3789515554749414
 30
0.0
 40
0.0026840364570035
 50
40.6041538186131703
 51
137.2180269868231051
  0
ARC
  5
146F6
  8
0
 10
8690.0182821394355415
 20
2170.3642058034661204
 30
0.0
 40
0.0275040421028039
 50
142.957126888700401
 51
180.1391050375777922
  0
ARC
  5
146F7
  8
0
 10
8689.9619012233888498
 20
2170.3519595341049353
 30
0.0
 40
0.00505266527856
 50
147.5638132782518142
 51
173.9220441623691045
  0
ARC
  5
146F8
  8
0
 10
8690.0519435487130977
 20
2170.3423718228777943
 30
0.0
 40
0.0956040018592193
 50
173.9220441623691045
 51
180.2968122730426899
  0
ARC
  5
146F9
  8
0
 10
8690.226850392169581
 20
2170.3432779098989158
 30
0.0
 40
0.2705131922460366
 50
180.2968122730426899
 51
183.887563841341688
  0
ARC
  5
146FA
  8
0
 10
8690.6888313481013029
 20
2170.3746718734528258
 30
0.0
 40
0.7335596095639341
 50
183.887563841341688
 51
185.074724932820402
  0
ARC
  5
146FB
  8
0
 10
8690.2759135220112512
 20
2170.3380035346281147
 30
0.0
 40
0.3190168516064773
 50
185.074724932820402
 51
190.4100426749346013
  0
ARC
  5
146FC
  8
0
 10
8690.0049978927254415
 20
2170.2882321255669922
 30
0.0
 40
0.0435672711916421
 50
190.4100426749346013
 51
199.3045683704343105
  0
ARC
  5
146FD
  8
0
 10
8689.9685226131314266
 20
2170.2754553992740512
 30
0.0
 40
0.0049189755453497
 50
199.3045683704343105
 51
214.8344270090757959
  0
ARC
  5
146FE
  8
0
 10
8689.9654355515322095
 20
2170.2733070835020044
 30
0.0
 40
0.0011579637185596
 50
214.8344270090543944
 51
240.7925326997041964
  0
ARC
  5
146FF
  8
0
 10
8689.9643916471086413
 20
2170.2733503878898773
 30
0.0
 40
0.0012664249951981
 50
301.9705303738822977
 51
348.4438447960866938
  0
ARC
  5
14700
  8
0
 10
8689.9072949882938701
 20
2170.2833854243649512
 30
0.0
 40
0.0592377560371611
 50
349.9978306459163946
 51
2.2402578125139971
  0
ARC
  5
14701
  8
0
 10
8689.5462964959151577
 20
2170.2774184422869439
 30
0.0
 40
0.4202725958197119
 50
1.1292376730510869
 51
8.2862531490167974
  0
ARC
  5
14702
  8
0
 10
8689.8020878748793621
 20
2170.3143956048538712
 30
0.0
 40
0.1618227046405434
 50
8.3829860539663414
 51
11.8845226636206593
  0
ARC
  5
14703
  8
0
 10
8689.9336139940824069
 20
2170.3428699964870248
 30
0.0
 40
0.0272629722764115
 50
10.2501759572922495
 51
24.5460711047548017
  0
ARC
  5
14704
  8
0
 10
8689.9575289856438758
 20
2170.3537072082272061
 30
0.0
 40
0.0010101343563646
 50
28.92092704704962
 51
78.4109672866568701
  0
ARC
  5
14705
  8
0
 10
8690.086249870395477
 20
2170.324392773622094
 30
0.0
 40
0.1271961937992413
 50
175.2013707840951042
 51
194.8019111458683028
  0
ARC
  5
14706
  8
0
 10
8689.8414611060234165
 20
2170.30296946729095
 30
0.0
 40
0.1223157890504523
 50
354.8062425081354263
 51
15.1970394218541696
  0
LINE
  5
14707
  8
0
 10
8690.0077424615556083
 20
2170.3983100334021401
 30
0.0
 11
8690.0644463873941277
 21
2170.3921794907291769
 31
0.0
  0
LINE
  5
14708
  8
0
 10
8690.0005617275328405
 20
2170.4804960706960628
 30
0.0
 11
8690.0640207861051749
 21
2170.4988972814758199
 31
0.0
  0
ARC
  5
14709
  8
0
 10
8690.0122823325018544
 20
2170.4047871655211566
 30
0.0
 40
0.0079097198870455
 50
198.1222287319683915
 51
234.9730953352600125
  0
ARC
  5
1470A
  8
0
 10
8690.0967105854160764
 20
2170.4366295161657945
 30
0.0
 40
0.098135957114537
 50
187.6491725472677103
 51
200.4592994382317102
  0
ARC
  5
1470B
  8
0
 10
8690.2184939961462078
 20
2170.4579377964728337
 30
0.0
 40
0.2217263174092978
 50
178.9033991284049137
 51
188.9176558823002097
  0
ARC
  5
1470C
  8
0
 10
8690.1006707630658639
 20
2170.4582544255467838
 30
0.0
 40
0.1039366799997546
 50
170.6182833331959898
 51
177.834811757175089
  0
ARC
  5
1470D
  8
0
 10
8690.0111806858039927
 20
2170.4730400740049845
 30
0.0
 40
0.0132333761536773
 50
152.5567025629464126
 51
170.6182833331702966
  0
ARC
  5
1470E
  8
0
 10
8690.0031323306902777
 20
2170.4772196642297786
 30
0.0
 40
0.0041644735456623
 50
128.1170233351328136
 51
152.5567025628521094
  0
ARC
  5
1470F
  8
0
 10
8690.0006150433982839
 20
2170.4778211654979714
 30
0.0
 40
0.0029254500565212
 50
33.018785059933812
 51
78.2084207288622224
  0
ARC
  5
14710
  8
0
 10
8689.9704474811405817
 20
2170.4602534880841631
 30
0.0
 40
0.0378321729898433
 50
11.6953240626847208
 51
30.4306258503911202
  0
ARC
  5
14711
  8
0
 10
8689.8018986203296663
 20
2170.421351365674127
 30
0.0
 40
0.2108042048445119
 50
0.9560210961367859
 51
12.7631076787065503
  0
ARC
  5
14712
  8
0
 10
8689.9149847858716385
 20
2170.4207233812221602
 30
0.0
 40
0.0977766029299182
 50
349.4187508807763152
 51
2.42978351406046
  0
ARC
  5
14713
  8
0
 10
8690.003137494348266
 20
2170.4040984391790516
 30
0.0
 40
0.0080715393401374
 50
313.162664668175978
 51
350.5176028564868034
  0
ARC
  5
14714
  8
0
 10
8690.0514045916697796
 20
2170.4091709213721515
 30
0.0
 40
0.0281834242360516
 50
207.1727447410997911
 51
238.8989476535197127
  0
ARC
  5
14715
  8
0
 10
8690.0461895379266934
 20
2170.4005261869770038
 30
0.0
 40
0.0180874736458402
 50
238.8989476535197127
 51
263.9478130839930259
  0
ARC
  5
14716
  8
0
 10
8690.0462255303555139
 20
2170.400865657437862
 30
0.0
 40
0.0184288468279212
 50
263.9478130839930259
 51
292.6622399003921942
  0
ARC
  5
14717
  8
0
 10
8690.0342978609805868
 20
2170.4208843539558984
 30
0.0
 40
0.0416281493445408
 50
297.2001948162680947
 51
326.9489653557068891
  0
ARC
  5
14718
  8
0
 10
8690.0048103214667208
 20
2170.4427927982801521
 30
0.0
 40
0.078325949045587
 50
325.2799882574241224
 51
348.877564265003798
  0
ARC
  5
14719
  8
0
 10
8689.9958642915189557
 20
2170.4453444003697768
 30
0.0
 40
0.0875996216767173
 50
348.3687406112010763
 51
16.1744484219610207
  0
ARC
  5
1471A
  8
0
 10
8690.006170057975396
 20
2170.4486993006939883
 30
0.0
 40
0.0767680312739871
 50
15.91225250902116
 51
34.6459651523414465
  0
ARC
  5
1471B
  8
0
 10
8690.0324402273017768
 20
2170.4679158771500624
 30
0.0
 40
0.0442400170467837
 50
33.5134329896610765
 51
60.0817383018926421
  0
ARC
  5
1471C
  8
0
 10
8690.0460577283629391
 20
2170.4882183971108134
 30
0.0
 40
0.0199218145104279
 50
64.9095104125129723
 51
103.3012821662026965
  0
ARC
  5
1471D
  8
0
 10
8690.0512122848631407
 20
2170.4805869216770589
 30
0.0
 40
0.0287201586320659
 50
109.8199147303648004
 51
166.9536493412365132
  0
ARC
  5
1471E
  8
0
 10
8690.0235806027412764
 20
2170.4286249676720217
 30
0.0
 40
0.0207029914077528
 50
192.2132570877286071
 51
207.190194554048901
  0
ARC
  5
1471F
  8
0
 10
8690.0083336302923271
 20
2170.4207923864228178
 30
0.0
 40
0.0035618275618712
 50
207.1901945541428063
 51
229.720311098620698
  0
ARC
  5
14720
  8
0
 10
8690.0065936014980252
 20
2170.4187391397940701
 30
0.0
 40
0.0008704483776159
 50
229.7203110987508126
 51
350.2050913307535893
  0
ARC
  5
14721
  8
0
 10
8689.956472739122546
 20
2170.431201592036814
 30
0.0
 40
0.052515193124652
 50
346.1057179341163987
 51
6.3382138798000991
  0
ARC
  5
14722
  8
0
 10
8689.9078833876374119
 20
2170.4312914591291701
 30
0.0
 40
0.1009450393026873
 50
3.2413634908986451
 51
13.7067870506576508
  0
ARC
  5
14723
  8
0
 10
8689.987422234051337
 20
2170.4508280586660476
 30
0.0
 40
0.0190425807738631
 50
13.3059143862813496
 51
29.3053782225277111
  0
ARC
  5
14724
  8
0
 10
8690.0029666076916328
 20
2170.4595867982329764
 30
0.0
 40
0.0012007940738292
 50
27.9019825504336012
 51
151.5877971820293908
  0
ARC
  5
14725
  8
0
 10
8690.0628953312279918
 20
2170.4470277266159428
 30
0.0
 40
0.0623823968947787
 50
167.8493513226815139
 51
186.6688407539878938
  0
ARC
  5
14726
  8
0
 10
8690.0996788361208019
 20
2170.4471500878148618
 30
0.0
 40
0.0990182438227867
 50
184.2666958275499098
 51
193.3747727701228882
  0
LINE
  5
14727
  8
0
 10
8689.9794798338916735
 20
2170.3950956546741509
 30
0.0
 11
8689.9492706767432537
 21
2170.3982707650388875
 31
0.0
  0
LINE
  5
14728
  8
0
 10
8689.9492706767432537
 20
2170.3982707650388875
 30
0.0
 11
8689.9420648869436263
 21
2170.4806333188380449
 31
0.0
  0
LINE
  5
14729
  8
0
 10
8689.9420648869436263
 20
2170.4806333188380449
 30
0.0
 11
8689.9798005510856456
 21
2170.4914538463949611
 31
0.0
  0
ARC
  5
1472A
  8
0
 10
8689.4400892086632666
 20
2170.4450705841218223
 30
0.0
 40
0.5417007847106562
 50
352.5066288528927885
 51
7.4933711471072533
  0
LINE
  5
1472B
  8
0
 10
8689.9648704960145551
 20
2170.5255564074609538
 30
0.0
 11
8690.0055870425803732
 21
2170.521246587044061
 31
0.0
  0
LINE
  5
1472C
  8
0
 10
8689.9576368277485017
 20
2170.607929643801981
 30
0.0
 11
8690.0062850254471414
 21
2170.6218298472240349
 31
0.0
  0
ARC
  5
1472D
  8
0
 10
8690.0219594420650537
 20
2170.5281185533099233
 30
0.0
 40
0.0310054594744363
 50
189.978746470526886
 51
208.1834731063925119
  0
ARC
  5
1472E
  8
0
 10
8690.0016741016297601
 20
2170.5172491815919784
 30
0.0
 40
0.0079915880453366
 50
208.1834731063694903
 51
250.1750810790873913
  0
ARC
  5
1472F
  8
0
 10
8689.9480148711318179
 20
2170.5466978279400792
 30
0.0
 40
0.0629469664767695
 50
324.0367807361569135
 51
350.6483864435176088
  0
ARC
  5
14730
  8
0
 10
8689.8459788642703643
 20
2170.5727118600339054
 30
0.0
 40
0.1680998323065644
 50
347.5492230859168217
 51
11.5607962360849594
  0
ARC
  5
14731
  8
0
 10
8689.9294271497310547
 20
2170.5916579258901038
 30
0.0
 40
0.0825680198182445
 50
10.2852427086115608
 51
30.8179168890437296
  0
ARC
  5
14732
  8
0
 10
8689.998298758011515
 20
2170.6322116178930628
 30
0.0
 40
0.0026840364570035
 50
40.6041538186131703
 51
137.2180269868231051
  0
ARC
  5
14733
  8
0
 10
8690.0182821394355415
 20
2170.617465865883787
 30
0.0
 40
0.0275040421028039
 50
142.957126888700401
 51
180.1391050375777922
  0
ARC
  5
14734
  8
0
 10
8689.9619012233888498
 20
2170.6052195965239662
 30
0.0
 40
0.00505266527856
 50
147.5638132782518142
 51
173.9220441623691045
  0
ARC
  5
14735
  8
0
 10
8690.0519435487130977
 20
2170.5956318852968252
 30
0.0
 40
0.0956040018592193
 50
173.9220441623691045
 51
180.2968122730426899
  0
ARC
  5
14736
  8
0
 10
8690.226850392169581
 20
2170.5965379723170372
 30
0.0
 40
0.2705131922460366
 50
180.2968122730426899
 51
183.887563841341688
  0
ARC
  5
14737
  8
0
 10
8690.6888313481013029
 20
2170.6279319358732209
 30
0.0
 40
0.7335596095639341
 50
183.887563841341688
 51
185.074724932820402
  0
ARC
  5
14738
  8
0
 10
8690.2759135220112512
 20
2170.5912635970457814
 30
0.0
 40
0.3190168516064773
 50
185.074724932820402
 51
190.4100426749346013
  0
ARC
  5
14739
  8
0
 10
8690.0049978927254415
 20
2170.5414921879860231
 30
0.0
 40
0.0435672711916421
 50
190.4100426749346013
 51
199.3045683704343105
  0
ARC
  5
1473A
  8
0
 10
8689.9685226131314266
 20
2170.528715461693082
 30
0.0
 40
0.0049189755453497
 50
199.3045683704343105
 51
214.8344270090757959
  0
ARC
  5
1473B
  8
0
 10
8689.9654355515322095
 20
2170.5265671459210353
 30
0.0
 40
0.0011579637185596
 50
214.8344270090543944
 51
240.7925326997041964
  0
ARC
  5
1473C
  8
0
 10
8689.9643916471086413
 20
2170.5266104503089082
 30
0.0
 40
0.0012664249951981
 50
301.9705303738822977
 51
348.4438447960866938
  0
ARC
  5
1473D
  8
0
 10
8689.9072949882938701
 20
2170.5366454867839821
 30
0.0
 40
0.0592377560371611
 50
349.9978306459163946
 51
2.2402578125139971
  0
ARC
  5
1473E
  8
0
 10
8689.5462964959151577
 20
2170.5306785047059748
 30
0.0
 40
0.4202725958197119
 50
1.1292376730510869
 51
8.2862531490167974
  0
ARC
  5
1473F
  8
0
 10
8689.8020878748793621
 20
2170.5676556672729021
 30
0.0
 40
0.1618227046405434
 50
8.3829860539663414
 51
11.8845226636206593
  0
ARC
  5
14740
  8
0
 10
8689.9336139940824069
 20
2170.5961300589060556
 30
0.0
 40
0.0272629722764115
 50
10.2501759572922495
 51
24.5460711047548017
  0
ARC
  5
14741
  8
0
 10
8689.9575289856438758
 20
2170.6069672706457823
 30
0.0
 40
0.0010101343563646
 50
28.92092704704962
 51
78.4109672866568701
  0
ARC
  5
14742
  8
0
 10
8690.086249870395477
 20
2170.5776528360402153
 30
0.0
 40
0.1271961937992413
 50
175.2013707840951042
 51
194.8019111458683028
  0
ARC
  5
14743
  8
0
 10
8689.8414611060234165
 20
2170.5562295297099809
 30
0.0
 40
0.1223157890504523
 50
354.8062425081354263
 51
15.1970394218541696
  0
LINE
  5
14744
  8
0
 10
8690.0077424615556083
 20
2170.6515700958198067
 30
0.0
 11
8690.0644463873941277
 21
2170.6454395531482078
 31
0.0
  0
LINE
  5
14745
  8
0
 10
8690.0005617275328405
 20
2170.7337561331150937
 30
0.0
 11
8690.0640207861051749
 21
2170.7521573438948508
 31
0.0
  0
ARC
  5
14746
  8
0
 10
8690.0122823325018544
 20
2170.6580472279401874
 30
0.0
 40
0.0079097198870455
 50
198.1222287319683915
 51
234.9730953352600125
  0
ARC
  5
14747
  8
0
 10
8690.0967105854160764
 20
2170.6898895785848254
 30
0.0
 40
0.098135957114537
 50
187.6491725472677103
 51
200.4592994382317102
  0
ARC
  5
14748
  8
0
 10
8690.2184939961462078
 20
2170.7111978588918646
 30
0.0
 40
0.2217263174092978
 50
178.9033991284049137
 51
188.9176558823002097
  0
ARC
  5
14749
  8
0
 10
8690.1006707630658639
 20
2170.7115144879658146
 30
0.0
 40
0.1039366799997546
 50
170.6182833331959898
 51
177.834811757175089
  0
ARC
  5
1474A
  8
0
 10
8690.0111806858039927
 20
2170.7263001364240154
 30
0.0
 40
0.0132333761536773
 50
152.5567025629464126
 51
170.6182833331702966
  0
ARC
  5
1474B
  8
0
 10
8690.0031323306902777
 20
2170.7304797266488094
 30
0.0
 40
0.0041644735456623
 50
128.1170233351328136
 51
152.5567025628521094
  0
ARC
  5
1474C
  8
0
 10
8690.0006150433982839
 20
2170.7310812279160928
 30
0.0
 40
0.0029254500565212
 50
33.018785059933812
 51
78.2084207288622224
  0
ARC
  5
1474D
  8
0
 10
8689.9704474811405817
 20
2170.7135135505041035
 30
0.0
 40
0.0378321729898433
 50
11.6953240626847208
 51
30.4306258503911202
  0
ARC
  5
1474E
  8
0
 10
8689.8018986203296663
 20
2170.6746114280931579
 30
0.0
 40
0.2108042048445119
 50
0.9560210961367859
 51
12.7631076787065503
  0
ARC
  5
1474F
  8
0
 10
8689.9149847858716385
 20
2170.6739834436411911
 30
0.0
 40
0.0977766029299182
 50
349.4187508807763152
 51
2.42978351406046
  0
ARC
  5
14750
  8
0
 10
8690.003137494348266
 20
2170.6573585015980825
 30
0.0
 40
0.0080715393401374
 50
313.162664668175978
 51
350.5176028564868034
  0
ARC
  5
14751
  8
0
 10
8690.0514045916697796
 20
2170.6624309837898181
 30
0.0
 40
0.0281834242360516
 50
207.1727447410997911
 51
238.8989476535197127
  0
ARC
  5
14752
  8
0
 10
8690.0461895379266934
 20
2170.6537862493951252
 30
0.0
 40
0.0180874736458402
 50
238.8989476535197127
 51
263.9478130839930259
  0
ARC
  5
14753
  8
0
 10
8690.0462255303555139
 20
2170.6541257198568928
 30
0.0
 40
0.0184288468279212
 50
263.9478130839930259
 51
292.6622399003921942
  0
ARC
  5
14754
  8
0
 10
8690.0342978609805868
 20
2170.6741444163749293
 30
0.0
 40
0.0416281493445408
 50
297.2001948162680947
 51
326.9489653557068891
  0
ARC
  5
14755
  8
0
 10
8690.0048103214667208
 20
2170.6960528606991829
 30
0.0
 40
0.078325949045587
 50
325.2799882574241224
 51
348.877564265003798
  0
ARC
  5
14756
  8
0
 10
8689.9958642915189557
 20
2170.6986044627888077
 30
0.0
 40
0.0875996216767173
 50
348.3687406112010763
 51
16.1744484219610207
  0
ARC
  5
14757
  8
0
 10
8690.006170057975396
 20
2170.7019593631130192
 30
0.0
 40
0.0767680312739871
 50
15.91225250902116
 51
34.6459651523414465
  0
ARC
  5
14758
  8
0
 10
8690.0324402273017768
 20
2170.7211759395700028
 30
0.0
 40
0.0442400170467837
 50
33.5134329896610765
 51
60.0817383018926421
  0
ARC
  5
14759
  8
0
 10
8690.0460577283629391
 20
2170.7414784595312085
 30
0.0
 40
0.0199218145104279
 50
64.9095104125129723
 51
103.3012821662026965
  0
ARC
  5
1475A
  8
0
 10
8690.0512122848631407
 20
2170.7338469840951802
 30
0.0
 40
0.0287201586320659
 50
109.8199147303648004
 51
166.9536493412365132
  0
ARC
  5
1475B
  8
0
 10
8690.0235806027412764
 20
2170.6818850300910526
 30
0.0
 40
0.0207029914077528
 50
192.2132570877286071
 51
207.190194554048901
  0
ARC
  5
1475C
  8
0
 10
8690.0083336302923271
 20
2170.6740524488409392
 30
0.0
 40
0.0035618275618712
 50
207.1901945541428063
 51
229.720311098620698
  0
ARC
  5
1475D
  8
0
 10
8690.0065936014980252
 20
2170.6719992022121914
 30
0.0
 40
0.0008704483776159
 50
229.7203110987508126
 51
350.2050913307535893
  0
ARC
  5
1475E
  8
0
 10
8689.956472739122546
 20
2170.6844616544558448
 30
0.0
 40
0.052515193124652
 50
346.1057179341163987
 51
6.3382138798000991
  0
ARC
  5
1475F
  8
0
 10
8689.9078833876374119
 20
2170.684551521548201
 30
0.0
 40
0.1009450393026873
 50
3.2413634908986451
 51
13.7067870506576508
  0
ARC
  5
14760
  8
0
 10
8689.987422234051337
 20
2170.7040881210850785
 30
0.0
 40
0.0190425807738631
 50
13.3059143862813496
 51
29.3053782225277111
  0
ARC
  5
14761
  8
0
 10
8690.0029666076916328
 20
2170.7128468606520073
 30
0.0
 40
0.0012007940738292
 50
27.9019825504336012
 51
151.5877971820293908
  0
ARC
  5
14762
  8
0
 10
8690.0628953312279918
 20
2170.7002877890349737
 30
0.0
 40
0.0623823968947787
 50
167.8493513226815139
 51
186.6688407539878938
  0
ARC
  5
14763
  8
0
 10
8690.0996788361208019
 20
2170.7004101502329831
 30
0.0
 40
0.0990182438227867
 50
184.2666958275499098
 51
193.3747727701228882
  0
LINE
  5
14764
  8
0
 10
8689.9794798338916735
 20
2170.6483557170931817
 30
0.0
 11
8689.9492706767432537
 21
2170.6515308274570089
 31
0.0
  0
LINE
  5
14765
  8
0
 10
8689.9492706767432537
 20
2170.6515308274570089
 30
0.0
 11
8689.9420648869436263
 21
2170.7338933812570758
 31
0.0
  0
LINE
  5
14766
  8
0
 10
8689.9420648869436263
 20
2170.7338933812570758
 30
0.0
 11
8689.9798005510856456
 21
2170.7447139088130825
 31
0.0
  0
ARC
  5
14767
  8
0
 10
8689.4400892086632666
 20
2170.6983306465408532
 30
0.0
 40
0.5417007847106562
 50
352.5066288528927885
 51
7.4933711471072533
  0
LINE
  5
14768
  8
0
 10
8689.9603601987291768
 20
2170.7782824101382175
 30
0.0
 11
8690.006081094064939
 21
2170.7691816402348195
 31
0.0
  0
LINE
  5
14769
  8
0
 10
8689.9604856659607321
 20
2170.8605184836737862
 30
0.0
 11
8690.0059905352700298
 21
2170.8693988058080322
 31
0.0
  0
ARC
  5
1476A
  8
0
 10
8690.2830125907839829
 20
2170.8189082732219504
 30
0.0
 40
0.3251999797802187
 50
172.6486982376395076
 51
187.1764700388118001
  0
ARC
  5
1476B
  8
0
 10
8689.6237207454887539
 20
2170.8193878719389431
 30
0.0
 40
0.3412979642953963
 50
353.0111277818937765
 51
6.9876148137278529
  0
ARC
  5
1476C
  8
0
 10
8690.086578371881842
 20
2170.819355702194116
 30
0.0
 40
0.1270497892367372
 50
170.1885031112412889
 51
189.8117469734087877
  0
ARC
  5
1476D
  8
0
 10
8689.8400311197765404
 20
2170.819355164128865
 30
0.0
 40
0.1232719241667984
 50
349.8846954093444879
 51
10.1155546753136107
  0
ARC
  5
1476E
  8
0
 10
8690.0214501980008208
 20
2170.7754801432588465
 30
0.0
 40
0.030706215215302
 50
186.1331384843321928
 51
214.0533061226180962
  0
ARC
  5
1476F
  8
0
 10
8689.9993686901143519
 20
2170.7605560687388788
 30
0.0
 40
0.0040543674210908
 50
214.0533061226180962
 51
265.2675514589175805
  0
ARC
  5
14770
  8
0
 10
8689.955203231127598
 20
2170.7891946091940554
 30
0.0
 40
0.0546724415369389
 50
323.292863145622789
 51
346.4226427396801
  0
ARC
  5
14771
  8
0
 10
8689.8481093370974122
 20
2170.8196520654009873
 30
0.0
 40
0.1659836740884198
 50
344.8811381861880818
 51
10.3181884313850603
  0
ARC
  5
14772
  8
0
 10
8689.9143628791389347
 20
2170.8338548445158267
 30
0.0
 40
0.0982802144500788
 50
9.0902590498210003
 51
29.5651475290916999
  0
ARC
  5
14773
  8
0
 10
8690.0167494550642004
 20
2170.8628960849700889
 30
0.0
 40
0.0257695299243297
 50
130.9899299040750122
 51
171.9171001185486034
  0
LINE
  5
14774
  8
0
 10
8690.0040141238823708
 20
2170.9865625986408304
 30
0.0
 11
8690.064323476233767
 21
2170.9984733926748959
 31
0.0
  0
ARC
  5
14775
  8
0
 10
8690.170880679945185
 20
2170.947777407382091
 30
0.0
 40
0.173320516348323
 50
171.1767766198460947
 51
180.8058788647387019
  0
ARC
  5
14776
  8
0
 10
8690.047213793890478
 20
2170.9669733825439835
 30
0.0
 40
0.0481726671102295
 50
159.8941809426011105
 51
171.1767766198717879
  0
ARC
  5
14777
  8
0
 10
8690.0091562620982586
 20
2170.9809048444230939
 30
0.0
 40
0.00764537561068
 50
132.2666204349856969
 51
159.8941809426011105
  0
ARC
  5
14778
  8
0
 10
8690.0011380820542399
 20
2170.9813473259091552
 30
0.0
 40
0.0066964367267747
 50
19.2026902076341806
 51
54.0812152937457782
  0
ARC
  5
14779
  8
0
 10
8689.9422924650662026
 20
2170.9608520158731153
 30
0.0
 40
0.0690090708573426
 50
0.9596745299077548
 51
19.2026902076341806
  0
ARC
  5
1477A
  8
0
 10
8687.1153324065726338
 20
2170.8477817440598301
 30
0.0
 40
2.8982112986065278
 50
1.929022526171903
 51
2.2587614880545841
  0
ARC
  5
1477B
  8
0
 10
8690.1033024770113116
 20
2170.9460219946818142
 30
0.0
 40
0.1023331975792448
 50
173.2491637134392022
 51
180.3820195910610096
  0
ARC
  5
1477C
  8
0
 10
8690.0420357033126493
 20
2170.9532743019840382
 30
0.0
 40
0.0406386798285433
 50
163.7441723981989981
 51
173.2491637134392022
  0
ARC
  5
1477D
  8
0
 10
8690.0086726463778177
 20
2170.9630024280609177
 30
0.0
 40
0.0058862697681626
 50
141.9800288131571904
 51
163.7441723982240092
  0
ARC
  5
1477E
  8
0
 10
8690.0047298678437073
 20
2170.9660850780542205
 30
0.0
 40
0.0008814487376217
 50
32.1134243138099293
 51
141.9800288130956858
  0
ARC
  5
1477F
  8
0
 10
8689.9922232586650352
 20
2170.9590666826720735
 30
0.0
 40
0.0152217569224041
 50
7.1491870851872328
 51
29.4628969334822308
  0
ARC
  5
14780
  8
0
 10
8689.9166981806774857
 20
2170.9464775565961645
 30
0.0
 40
0.0917785170102711
 50
359.2896328680142801
 51
9.0797761223068232
  0
LINE
  5
14781
  8
0
 10
8690.0040141238823708
 20
2170.9041167877098815
 30
0.0
 11
8690.064323476233767
 21
2170.8922059936771802
 31
0.0
  0
ARC
  5
14782
  8
0
 10
8690.170880679945185
 20
2170.9429019789708946
 30
0.0
 40
0.173320516348323
 50
179.1941211352612981
 51
188.8232233801539053
  0
ARC
  5
14783
  8
0
 10
8690.047213793890478
 20
2170.9237060038080926
 30
0.0
 40
0.0481726671102295
 50
188.8232233801280984
 51
200.1058190573988895
  0
ARC
  5
14784
  8
0
 10
8690.0091562620982586
 20
2170.9097745419289822
 30
0.0
 40
0.00764537561068
 50
200.1058190573988895
 51
227.7333795650143031
  0
ARC
  5
14785
  8
0
 10
8690.0011380820542399
 20
2170.9093320604438304
 30
0.0
 40
0.0066964367267747
 50
305.9187847062542005
 51
340.7973097923658088
  0
ARC
  5
14786
  8
0
 10
8689.9422924650662026
 20
2170.9298273704789608
 30
0.0
 40
0.0690090708573426
 50
340.7973097923658088
 51
359.0403254700922275
  0
ARC
  5
14787
  8
0
 10
8687.1153324065726338
 20
2171.0428976422917913
 30
0.0
 40
2.8982112986065278
 50
357.7412385119454257
 51
358.0709774738281226
  0
ARC
  5
14788
  8
0
 10
8690.1033024770113116
 20
2170.9446573916698071
 30
0.0
 40
0.1023331975792448
 50
179.6179804089389052
 51
186.7508362865607126
  0
ARC
  5
14789
  8
0
 10
8690.0420357033126493
 20
2170.9374050843689474
 30
0.0
 40
0.0406386798285433
 50
186.7508362865607126
 51
196.2558276018010019
  0
ARC
  5
1478A
  8
0
 10
8690.0086726463778177
 20
2170.9276769582911584
 30
0.0
 40
0.0058862697681626
 50
196.2558276017759908
 51
218.0199711868428096
  0
ARC
  5
1478B
  8
0
 10
8690.0047298678437073
 20
2170.9245943082978556
 30
0.0
 40
0.0008814487376217
 50
218.0199711869043142
 51
327.8865756861900991
  0
ARC
  5
1478C
  8
0
 10
8689.9922232586650352
 20
2170.9316127036800026
 30
0.0
 40
0.0152217569224041
 50
330.5371030665177727
 51
352.8508129148128205
  0
ARC
  5
1478D
  8
0
 10
8689.9166981806774857
 20
2170.9442018297559116
 30
0.0
 40
0.0917785170102711
 50
350.9202238776932177
 51
0.7103671319857189
  0
ARC
  5
1478E
  8
0
 10
8690.0554827769938129
 20
2170.9779582468718218
 30
0.0
 40
0.0335807616404724
 50
131.904698313875997
 51
157.9190423406114121
  0
ARC
  5
1478F
  8
0
 10
8690.0472467980853253
 20
2170.9871358812488324
 30
0.0
 40
0.0212494875231539
 50
104.5021267847644992
 51
131.904698313875997
  0
ARC
  5
14790
  8
0
 10
8690.0463520515095297
 20
2170.9905950798370213
 30
0.0
 40
0.0176764459198114
 50
66.762672500590341
 51
104.5021267847644992
  0
ARC
  5
14791
  8
0
 10
8690.038294436835713
 20
2170.9757652781408979
 30
0.0
 40
0.0345172425980859
 50
44.4866791810094
 51
64.1839340781874625
  0
ARC
  5
14792
  8
0
 10
8690.0165815081782057
 20
2170.9545779567110912
 30
0.0
 40
0.0648544895300289
 50
23.2363673735824712
 51
44.3984460681144171
  0
ARC
  5
14793
  8
0
 10
8689.9773100977199647
 20
2170.9412566793598671
 30
0.0
 40
0.1062457902026919
 50
2.2024127234761282
 51
21.48191597553242
  0
ARC
  5
14794
  8
0
 10
8690.0554827769938129
 20
2170.9127211394797996
 30
0.0
 40
0.0335807616404724
 50
202.0809576593885879
 51
228.095301686124003
  0
ARC
  5
14795
  8
0
 10
8690.0472467980853253
 20
2170.9035435051027889
 30
0.0
 40
0.0212494875231539
 50
228.095301686124003
 51
255.4978732152355008
  0
ARC
  5
14796
  8
0
 10
8690.0463520515095297
 20
2170.9000843065150548
 30
0.0
 40
0.0176764459198114
 50
255.4978732152355008
 51
293.2373274994096732
  0
ARC
  5
14797
  8
0
 10
8690.038294436835713
 20
2170.9149141082111782
 30
0.0
 40
0.0345172425980859
 50
295.8160659218124806
 51
315.5133208189906213
  0
ARC
  5
14798
  8
0
 10
8690.0165815081782057
 20
2170.9361014296418944
 30
0.0
 40
0.0648544895300289
 50
315.6015539318855758
 51
336.763632626417575
  0
ARC
  5
14799
  8
0
 10
8689.9773100977199647
 20
2170.949422706992209
 30
0.0
 40
0.1062457902026919
 50
338.5180840244676119
 51
357.7975872765239274
  0
LINE
  5
1479A
  8
0
 10
8689.94566778184344
 20
2170.9040011104762016
 30
0.0
 11
8689.94566778184344
 21
2170.9866782758758745
 31
0.0
  0
LINE
  5
1479B
  8
0
 10
8689.9797146368127869
 20
2170.9932963140431639
 30
0.0
 11
8689.94566778184344
 21
2170.9866782758758745
 31
0.0
  0
LINE
  5
1479C
  8
0
 10
8689.979717550049827
 20
2170.8973825060329546
 30
0.0
 11
8689.94566778184344
 21
2170.9040011104762016
 31
0.0
  0
ARC
  5
1479D
  8
0
 10
8689.4468583504221897
 20
2170.9453232252922135
 30
0.0
 40
0.5350114383714172
 50
352.3950156764043982
 51
7.6049843235955921
  0
LINE
  5
1479E
  8
0
 10
8693.0702120793957874
 20
2164.2772617013179115
 30
0.0
 11
8693.1008313358233863
 21
2164.2780168585609317
 31
0.0
  0
LINE
  5
1479F
  8
0
 10
8693.1622032149443839
 20
2164.2368395794151184
 30
0.0
 11
8693.1622032149443839
 21
2161.701489381995998
 31
0.0
  0
ARC
  5
147A0
  8
0
 10
8693.1702032149441948
 20
2164.2141619499789158
 30
0.0
 40
0.008
 50
30.5161726600340089
 51
180.0
  0
ARC
  5
147A1
  8
0
 10
8693.1008313358233863
 20
2164.207150716482829
 30
0.0
 40
0.0708661420434587
 50
35.4677281396598971
 51
90.0
  0
ARC
  5
147A2
  8
0
 10
8693.1425032149436447
 20
2164.2368395794151184
 30
0.0
 40
0.0197
 50
0.000000000260551
 51
35.4677281389299495
  0
LINE
  5
147A3
  8
0
 10
8693.1008313358233863
 20
2164.2780168585609317
 30
0.0
 11
8693.1008313358233863
 21
2161.6638436302609989
 31
0.0
  0
ARC
  5
147A4
  8
0
 10
8693.0690591251986916
 20
2164.2497334576009962
 30
0.0
 40
0.0275523774937488
 50
87.6017059191236029
 51
127.9534024155623939
  0
ARC
  5
147A5
  8
0
 10
8693.0653693698805
 20
2164.2547840280840319
 30
0.0
 40
0.0213015803488804
 50
128.4827257750324065
 51
174.0307350474232919
  0
ARC
  5
147A6
  8
0
 10
8693.0894505174401274
 20
2164.2473801925498265
 30
0.0
 40
0.0462779513455263
 50
168.0033346961116933
 51
177.6930997226232023
  0
ARC
  5
147A7
  8
0
 10
8693.0700663530005841
 20
2164.2517702204568195
 30
0.0
 40
0.0269749288997174
 50
185.3758424321569009
 51
220.4560096446641921
  0
ARC
  5
147A8
  8
0
 10
8693.0689648482439225
 20
2164.2298937406158075
 30
0.0
 40
0.018774671681553
 50
89.9653307904827386
 51
143.3963424104329079
  0
ARC
  5
147A9
  8
0
 10
8693.1000044325865019
 20
2164.2068717746587936
 30
0.0
 40
0.0574200657315561
 50
143.4228875444676135
 51
161.7339548137798033
  0
ARC
  5
147AA
  8
0
 10
8693.1002760345745628
 20
2164.2067821294158421
 30
0.0
 40
0.0577060795618888
 50
161.7339548137798033
 51
175.7577765957734925
  0
ARC
  5
147AB
  8
0
 10
8693.1046493377361912
 20
2164.2064577337009723
 30
0.0
 40
0.0620913974632059
 50
175.7577765957734925
 51
194.9911114752468961
  0
ARC
  5
147AC
  8
0
 10
8693.1315729754514905
 20
2164.2136674242187837
 30
0.0
 40
0.0899636400215923
 50
194.9911114752468961
 51
206.7897073805904995
  0
ARC
  5
147AD
  8
0
 10
8693.0680562374709552
 20
2164.1665778546080219
 30
0.0
 40
0.018239093994883
 50
87.1813444378981188
 51
142.1337932278937899
  0
ARC
  5
147AE
  8
0
 10
8693.1253734186866495
 20
2164.1379723385261968
 30
0.0
 40
0.0820201304943706
 50
150.9705375848577944
 51
165.2710098791224027
  0
ARC
  5
147AF
  8
0
 10
8693.1504147960240516
 20
2164.1293781710542135
 30
0.0
 40
0.108441118197921
 50
164.2432694054666058
 51
176.0025480338049988
  0
ARC
  5
147B0
  8
0
 10
8693.1631459302916483
 20
2164.1291806463041212
 30
0.0
 40
0.1211570169103422
 50
176.3290766494125137
 51
193.9776770550006972
  0
ARC
  5
147B1
  8
0
 10
8693.5581200614888076
 20
2164.237021090179951
 30
0.0
 40
0.5305646525526728
 50
194.9759575357078916
 51
197.3373120965175929
  0
ARC
  5
147B2
  8
0
 10
8693.0673282209063473
 20
2164.0698563705568631
 30
0.0
 40
0.019001732572867
 50
85.1421206448515164
 51
128.2813215910472877
  0
ARC
  5
147B3
  8
0
 10
8693.0829412506755034
 20
2164.0623357867948471
 30
0.0
 40
0.0354025225479546
 50
140.6722785950983905
 51
167.5784879149074129
  0
ARC
  5
147B4
  8
0
 10
8693.2138996106587001
 20
2164.0221402092979588
 30
0.0
 40
0.1722984732275741
 50
163.8896717623387929
 51
173.3730825080949103
  0
ARC
  5
147B5
  8
0
 10
8693.2354708431812469
 20
2164.0198702866409803
 30
0.0
 40
0.193987680651155
 50
173.442387108966102
 51
179.9607954042228073
  0
ARC
  5
147B6
  8
0
 10
8693.2413352916810254
 20
2164.0234220260831535
 30
0.0
 40
0.1998813271903607
 50
180.9801016864660994
 51
199.0004076491954095
  0
ARC
  5
147B7
  8
0
 10
8693.0663621106577921
 20
2163.9446555960957994
 30
0.0
 40
0.0199695508154272
 50
82.6385495606284053
 51
122.9507587344581054
  0
ARC
  5
147B8
  8
0
 10
8693.0617859838475852
 20
2163.951787515668002
 30
0.0
 40
0.0114959124424025
 50
123.1460150387072048
 51
169.6993603792718943
  0
ARC
  5
147B9
  8
0
 10
8693.3187704273932468
 20
2163.8770428726647879
 30
0.0
 40
0.2790708311406741
 50
164.0260729535870894
 51
168.5502052903173933
  0
ARC
  5
147BA
  8
0
 10
8693.2772365067394276
 20
2163.8886809570180958
 30
0.0
 40
0.236074380979163
 50
169.3175579655072056
 51
176.8552533240695084
  0
ARC
  5
147BB
  8
0
 10
8693.2718678472028841
 20
2163.8872079008920082
 30
0.0
 40
0.2308013673099293
 50
176.4170046681915949
 51
187.9868593177747016
  0
ARC
  5
147BC
  8
0
 10
8693.3367038030137337
 20
2163.896304837012849
 30
0.0
 40
0.2962723945861566
 50
187.9868593177747016
 51
194.9529697608543017
  0
ARC
  5
147BD
  8
0
 10
8693.0263136317789758
 20
2163.8134090519160964
 30
0.0
 40
0.0249966042067125
 50
349.0424196415061147
 51
14.9529697608542893
  0
ARC
  5
147BE
  8
0
 10
8693.0651411661783641
 20
2163.795693022047999
 30
0.0
 40
0.0203453000859431
 50
79.3169907119315525
 51
124.7100892622318042
  0
ARC
  5
147BF
  8
0
 10
8693.0589673644335562
 20
2163.8056792842508003
 30
0.0
 40
0.0086422884287359
 50
128.7661115420623048
 51
169.5781096359206117
  0
ARC
  5
147C0
  8
0
 10
8693.3673897765256697
 20
2163.7260915154979557
 30
0.0
 40
0.3271469638537119
 50
165.6374311263539028
 51
173.1633545927919045
  0
ARC
  5
147C1
  8
0
 10
8693.397173738658239
 20
2163.7289472064121583
 30
0.0
 40
0.3564363294382474
 50
174.1891050030868939
 51
177.8975516836964061
  0
ARC
  5
147C2
  8
0
 10
8693.336089494281623
 20
2163.7311764868659338
 30
0.0
 40
0.2953114213169117
 50
177.894994147777993
 51
189.1110131993673917
  0
ARC
  5
147C3
  8
0
 10
8693.3799051293244702
 20
2163.7371898784272162
 30
0.0
 40
0.3395279335560334
 50
188.9421622314009142
 51
193.9959760862386133
  0
ARC
  5
147C4
  8
0
 10
8693.0636400902312744
 20
2163.6182050440670537
 30
0.0
 40
0.0288264495407585
 50
79.4795673408553114
 51
102.8466497018286958
  0
ARC
  5
147C5
  8
0
 10
8693.0594324872781726
 20
2163.6367995521391094
 30
0.0
 40
0.0097619113441265
 50
103.0348571311662056
 51
156.7659309904207987
  0
ARC
  5
147C6
  8
0
 10
8693.432885196274583
 20
2163.5497216944909269
 30
0.0
 40
0.3930844105431983
 50
166.6251221254061079
 51
173.3773528469087921
  0
ARC
  5
147C7
  8
0
 10
8693.4404043244558125
 20
2163.5581617812467812
 30
0.0
 40
0.3996870452319036
 50
174.7036094822028929
 51
185.6085666298830859
  0
ARC
  5
147C8
  8
0
 10
8693.4210035398264154
 20
2163.5614520943881871
 30
0.0
 40
0.3807358158212846
 50
186.3867035113804036
 51
193.2822437544529919
  0
ARC
  5
147C9
  8
0
 10
8693.0143584430807095
 20
2163.4657008757071708
 30
0.0
 40
0.0370309894153288
 50
348.2771615118849127
 51
12.9169895647056094
  0
ARC
  5
147CA
  8
0
 10
8693.0605743843952951
 20
2163.419658036275905
 30
0.0
 40
0.0425028674305219
 50
78.7051791725298386
 51
92.0295258481724545
  0
ARC
  5
147CB
  8
0
 10
8693.0597273643052176
 20
2163.4446852375481285
 30
0.0
 40
0.0174614141250691
 50
92.1602425905021647
 51
117.0912764541424025
  0
ARC
  5
147CC
  8
0
 10
8693.0626018792481773
 20
2163.4527717266350919
 30
0.0
 40
0.013147377077235
 50
145.4347212804077003
 51
175.5673213518394107
  0
ARC
  5
147CD
  8
0
 10
8693.4537236330979795
 20
2163.3658794475368268
 30
0.0
 40
0.4136781643297106
 50
167.7308459403294876
 51
172.8431027111955984
  0
ARC
  5
147CE
  8
0
 10
8693.4270825201001571
 20
2163.3697043569409288
 30
0.0
 40
0.386768379535476
 50
172.9136137306319085
 51
178.6711651937852139
  0
ARC
  5
147CF
  8
0
 10
8693.4248501527872577
 20
2163.3693541635570909
 30
0.0
 40
0.3845449437177829
 50
178.6112882069359955
 51
189.6825131973010059
  0
ARC
  5
147D0
  8
0
 10
8693.506275868989178
 20
2163.3832469400272203
 30
0.0
 40
0.4671473437834825
 50
189.6825131973010059
 51
192.6394536283117134
  0
ARC
  5
147D1
  8
0
 10
8693.0133947137619543
 20
2163.2727185405428827
 30
0.0
 40
0.0379747803298798
 50
347.360546371688315
 51
12.6394536283117098
  0
ARC
  5
147D2
  8
0
 10
8693.463224933238962
 20
2163.1718442959668209
 30
0.0
 40
0.4230272148659999
 50
167.3605463716882866
 51
174.8483848993697904
  0
ARC
  5
147D3
  8
0
 10
8693.4409695222911978
 20
2163.1738507486647904
 30
0.0
 40
0.4006815403660297
 50
174.8483848993697904
 51
193.3287846721019037
  0
ARC
  5
147D4
  8
0
 10
8693.0185711581834767
 20
2163.0737759141420611
 30
0.0
 40
0.0334098676421431
 50
342.5733048190070917
 51
13.3287846721019303
  0
ARC
  5
147D5
  8
0
 10
8693.6073452246328088
 20
2162.954744990026029
 30
0.0
 40
0.5674693939279654
 50
168.9231668352450129
 51
178.3655990008153083
  0
ARC
  5
147D6
  8
0
 10
8693.1552665454728412
 20
2164.0995077285510888
 30
0.0
 40
0.1970551624149325
 50
115.5709023554781965
 51
116.9038009539235929
  0
ARC
  5
147D7
  8
0
 10
8693.0713953211416083
 20
2164.2664068173171472
 30
0.0
 40
0.0102944776234709
 50
120.9544335392333068
 51
145.8985136346261982
  0
ARC
  5
147D8
  8
0
 10
8693.0702684713705821
 20
2164.2687528377541639
 30
0.0
 40
0.0081521518350755
 50
155.151607081083597
 51
202.1403015552835996
  0
ARC
  5
147D9
  8
0
 10
8693.0934550287984166
 20
2164.2778871266391434
 30
0.0
 40
0.033072678926795
 50
201.6592140074590986
 51
222.2665469030721113
  0
ARC
  5
147DA
  8
0
 10
8693.065130573726492
 20
2164.2521580902111964
 30
0.0
 40
0.0051929552132154
 50
317.7781558026646849
 51
42.1520723775051493
  0
ARC
  5
147DB
  8
0
 10
8693.1006525530392537
 20
2164.2255809084581415
 30
0.0
 40
0.0391972380306744
 50
143.9133309243092924
 51
180.7369912788076078
  0
ARC
  5
147DC
  8
0
 10
8693.1286423135697987
 20
2164.227530420947005
 30
0.0
 40
0.0672285478978193
 50
182.0916306971419942
 51
207.4009259782087895
  0
ARC
  5
147DD
  8
0
 10
8693.0568808023854217
 20
2164.1906960914470801
 30
0.0
 40
0.0134374741493501
 50
333.949665161269877
 51
26.0199296341690598
  0
ARC
  5
147DE
  8
0
 10
8693.1652726193387934
 20
2164.1446039640381969
 30
0.0
 40
0.1043683436519424
 50
157.3508429973072964
 51
202.626661297121899
  0
ARC
  5
147DF
  8
0
 10
8693.0473452077549155
 20
2164.0966203557300105
 30
0.0
 40
0.0229682051790793
 50
340.0665612200389205
 51
19.9334387799610901
  0
ARC
  5
147E0
  8
0
 10
8693.2279303198956768
 20
2164.0359894339749189
 30
0.0
 40
0.167531014811074
 50
161.6290451126482139
 51
198.354860788245702
  0
ARC
  5
147E1
  8
0
 10
8693.0378715797014593
 20
2163.9738500458188355
 30
0.0
 40
0.0324378675074784
 50
343.174313148301394
 51
16.8148790769810788
  0
ARC
  5
147E2
  8
0
 10
8693.2917468304221984
 20
2163.9006848184289993
 30
0.0
 40
0.2317731526379931
 50
164.0281856442084063
 51
195.9629169360713945
  0
ARC
  5
147E3
  8
0
 10
8693.0291030884654901
 20
2163.826311311273912
 30
0.0
 40
0.041203244789554
 50
345.0555142233149013
 51
14.9542172741330006
  0
ARC
  5
147E4
  8
0
 10
8693.3514139564467769
 20
2163.7426880084631193
 30
0.0
 40
0.2917801104598402
 50
165.5118082909490909
 51
194.4797947589607929
  0
ARC
  5
147E5
  8
0
 10
8693.0216410239754623
 20
2163.6581364361518354
 30
0.0
 40
0.0486626061174642
 50
346.2219924894388896
 51
13.78500316412652
  0
ARC
  5
147E6
  8
0
 10
8693.4023859213066316
 20
2163.5662257374838191
 30
0.0
 40
0.3430190712520713
 50
166.4579157477091087
 51
193.5364001685279902
  0
ARC
  5
147E7
  8
0
 10
8693.0157131459000084
 20
2163.4736302119949869
 30
0.0
 40
0.0545878065679237
 50
346.986099645966874
 51
13.02999726075093
  0
ARC
  5
147E8
  8
0
 10
8693.441238249601156
 20
2163.375703545279066
 30
0.0
 40
0.3820599577936117
 50
167.0478017083985094
 51
192.9498652175450957
  0
ARC
  5
147E9
  8
0
 10
8693.0116086815178278
 20
2163.2773188902201582
 30
0.0
 40
0.0586918222103496
 50
347.4380557481712799
 51
12.5624052066635503
  0
ARC
  5
147EA
  8
0
 10
8693.4655845922970911
 20
2163.1756941659959921
 30
0.0
 40
0.4065196801874301
 50
167.3739992494168973
 51
192.6248937267401971
  0
ARC
  5
147EB
  8
0
 10
8693.0095270060173789
 20
2163.0738459914759915
 30
0.0
 40
0.0607726792039448
 50
347.651879089147883
 51
12.3481209108775705
  0
ARC
  5
147EC
  8
0
 10
8693.4054960766916338
 20
2162.9783984669561505
 30
0.0
 40
0.346553467393069
 50
166.2363213041068093
 51
181.2348188630101049
  0
ARC
  5
147ED
  8
0
 10
8693.0703565649237134
 20
2164.2356142129651744
 30
0.0
 40
0.020076091030727
 50
93.9304037168230792
 51
137.680618241329114
  0
ARC
  5
147EE
  8
0
 10
8693.0703509403992939
 20
2164.2356145220719554
 30
0.0
 40
0.0200717244412394
 50
137.6704610933012134
 51
180.0832990476860118
  0
ARC
  5
147EF
  8
0
 10
8693.0709655912432936
 20
2164.175668512420998
 30
0.0
 40
0.0210186432878565
 50
95.485675101046084
 51
147.6167985004153991
  0
ARC
  5
147F0
  8
0
 10
8693.0689445310363226
 20
2164.1769500190221152
 30
0.0
 40
0.0186255399706312
 50
147.6161070568890921
 51
186.6701366627931122
  0
ARC
  5
147F1
  8
0
 10
8693.0715603864118748
 20
2164.0824167301220768
 30
0.0
 40
0.0221897126285431
 50
96.788725764069568
 51
145.8322441890070138
  0
ARC
  5
147F2
  8
0
 10
8693.0669063987024856
 20
2164.0855885160249272
 30
0.0
 40
0.0165576900890679
 50
145.8687957437502973
 51
194.3449012125618083
  0
ARC
  5
147F3
  8
0
 10
8693.0720474255213048
 20
2163.959867243050212
 30
0.0
 40
0.0235744664625666
 50
97.6171756604373115
 51
141.4552270354444943
  0
ARC
  5
147F4
  8
0
 10
8693.0654578262219729
 20
2163.9651794997898833
 30
0.0
 40
0.0151104725141525
 50
141.6398092819783869
 51
182.9661940260398865
  0
ARC
  5
147F5
  8
0
 10
8693.0735138309864851
 20
2163.8094462455028406
 30
0.0
 40
0.0278800407887464
 50
99.5029622636872944
 51
127.6720920034508993
  0
ARC
  5
147F6
  8
0
 10
8693.0653276108696446
 20
2163.8195702486591472
 30
0.0
 40
0.014866612303339
 50
126.5452343209566948
 51
178.8877478565636068
  0
ARC
  5
147F7
  8
0
 10
8693.0711615871732647
 20
2163.647953937767852
 30
0.0
 40
0.0218946993149361
 50
95.9236513851849679
 51
161.0231924039975127
  0
ARC
  5
147F8
  8
0
 10
8693.022894087844179
 20
2163.6478518244748557
 30
0.0
 40
0.028493207768139
 50
345.3604171487870076
 51
14.6824795874863305
  0
ARC
  5
147F9
  8
0
 10
8693.0769997492570837
 20
2163.4451453435931398
 30
0.0
 40
0.041589560324816
 50
101.2367886965838011
 51
120.7420339085109049
  0
ARC
  5
147FA
  8
0
 10
8693.0608366968299379
 20
2163.4715129497299131
 30
0.0
 40
0.0106730781641708
 50
118.5224807531074021
 51
166.6422776098513907
  0
ARC
  5
147FB
  8
0
 10
8693.0738657293368306
 20
2163.2566473667770879
 30
0.0
 40
0.0338045547808607
 50
98.4549225506582957
 51
133.8444280279557859
  0
ARC
  5
147FC
  8
0
 10
8693.0599071855667717
 20
2163.2345324995771989
 30
0.0
 40
0.0313378867895782
 50
73.3323541936494649
 51
107.5661040987276067
  0
ARC
  5
147FD
  8
0
 10
8693.086458736743225
 20
2162.9962562882801649
 30
0.0
 40
0.0922732352680769
 50
100.9736768830118052
 51
112.5445189393078067
  0
ARC
  5
147FE
  8
0
 10
8693.0433294896974985
 20
2162.9590951801601477
 30
0.0
 40
0.1049167077484058
 50
75.8971765445056121
 51
86.1097909618320472
  0
LINE
  5
147FF
  8
0
 10
8693.0432100718444417
 20
2164.2492429785611421
 30
0.0
 11
8693.0434442190162372
 21
2164.2167889450161056
 31
0.0
  0
LINE
  5
14800
  8
0
 10
8693.0428527704207227
 20
2164.2004140670101151
 30
0.0
 11
8693.0430387116157362
 21
2164.1445390619560385
 31
0.0
  0
LINE
  5
14801
  8
0
 10
8693.0426027741705184
 20
2164.1169999131948316
 30
0.0
 11
8693.0427523223461321
 21
2164.0420241118381455
 31
0.0
  0
LINE
  5
14802
  8
0
 10
8693.0420045278897305
 20
2164.008596657086855
 30
0.0
 11
8693.0425843007706135
 21
2163.9145547968728351
 31
0.0
  0
LINE
  5
14803
  8
0
 10
8693.0410981764707685
 20
2163.8833829535951736
 30
0.0
 11
8693.0425689663461526
 21
2163.7650347720609716
 31
0.0
  0
LINE
  5
14804
  8
0
 10
8693.0421926755752793
 20
2163.7023061644949848
 30
0.0
 11
8693.0427567116203136
 21
2163.5978373808497963
 31
0.0
  0
LINE
  5
14805
  8
0
 10
8693.0417686836153734
 20
2163.5291900712868483
 30
0.0
 11
8693.0432685566411237
 21
2163.4174183052609806
 31
0.0
  0
LINE
  5
14806
  8
0
 10
8693.0423276749224897
 20
2163.3299667586061332
 30
0.0
 11
8693.0443809403022897
 21
2163.2311884961718533
 31
0.0
  0
LINE
  5
14807
  8
0
 10
8693.0434956050303299
 20
2163.1232525087179965
 30
0.0
 11
8693.0474654004301556
 21
2163.0472441548618008
 31
0.0
  0
LINE
  5
14808
  8
0
 10
8693.0702120793957874
 20
2161.6645987875031096
 30
0.0
 11
8693.1008313358233863
 21
2161.6638436302609989
 31
0.0
  0
ARC
  5
14809
  8
0
 10
8693.1008313358233863
 20
2161.7347097723391016
 30
0.0
 40
0.0708661420434587
 50
270.0
 51
328.1005250255669807
  0
ARC
  5
1480A
  8
0
 10
8693.1542032149445731
 20
2161.701489381995998
 30
0.0
 40
0.008
 50
328.1005250255669807
 51
0.0
  0
ARC
  5
1480B
  8
0
 10
8693.0690591251986916
 20
2161.6921270312209344
 30
0.0
 40
0.0275523774937488
 50
232.0465975844375919
 51
272.3982940808763828
  0
ARC
  5
1480C
  8
0
 10
8693.0653693698805
 20
2161.6870764607378987
 30
0.0
 40
0.0213015803488804
 50
185.9692649525765944
 51
231.5172742249675082
  0
ARC
  5
1480D
  8
0
 10
8693.0894505174401274
 20
2161.6944802962721042
 30
0.0
 40
0.0462779513455263
 50
182.3069002773767977
 51
191.996665303888193
  0
ARC
  5
1480E
  8
0
 10
8693.0700663530005841
 20
2161.6900902683651111
 30
0.0
 40
0.0269749288997174
 50
139.5439903553358079
 51
174.6241575678430138
  0
ARC
  5
1480F
  8
0
 10
8693.0689648482439225
 20
2161.7119667482052137
 30
0.0
 40
0.018774671681553
 50
216.6036575895670069
 51
270.0346692095171761
  0
ARC
  5
14810
  8
0
 10
8693.1000044325865019
 20
2161.734988714163137
 30
0.0
 40
0.0574200657315561
 50
198.2660451862201114
 51
216.5771124555323013
  0
ARC
  5
14811
  8
0
 10
8693.1002760345745628
 20
2161.7350783594060886
 30
0.0
 40
0.0577060795618888
 50
184.2422234042263938
 51
198.2660451862201114
  0
ARC
  5
14812
  8
0
 10
8693.1046493377361912
 20
2161.7354027551209583
 30
0.0
 40
0.0620913974632059
 50
165.0088885247531039
 51
184.2422234042263938
  0
ARC
  5
14813
  8
0
 10
8693.1315729754514905
 20
2161.7281930646031469
 30
0.0
 40
0.0899636400215923
 50
153.2102926194095005
 51
165.0088885247531039
  0
ARC
  5
14814
  8
0
 10
8693.0680562374709552
 20
2161.7752826342148182
 30
0.0
 40
0.018239093994883
 50
217.8662067721060964
 51
272.8186555621018101
  0
ARC
  5
14815
  8
0
 10
8693.1253734186866495
 20
2161.8038881502961885
 30
0.0
 40
0.0820201304943706
 50
194.7289901208775973
 51
209.0294624151422056
  0
ARC
  5
14816
  8
0
 10
8693.1504147960240516
 20
2161.8124823177668077
 30
0.0
 40
0.108441118197921
 50
183.9974519661948875
 51
195.7567305945333942
  0
ARC
  5
14817
  8
0
 10
8693.1631459302916483
 20
2161.8126798425191737
 30
0.0
 40
0.1211570169103422
 50
166.0223229449993028
 51
183.670923350587401
  0
ARC
  5
14818
  8
0
 10
8693.5581200614888076
 20
2161.7048393986419796
 30
0.0
 40
0.5305646525526728
 50
162.6626879034822934
 51
165.0240424642919947
  0
ARC
  5
14819
  8
0
 10
8693.0673282209063473
 20
2161.8720041182650675
 30
0.0
 40
0.019001732572867
 50
231.7186784089527123
 51
274.8578793551483841
  0
ARC
  5
1481A
  8
0
 10
8693.0829412506755034
 20
2161.8795247020270835
 30
0.0
 40
0.0354025225479546
 50
192.4215120850925871
 51
219.3277214049016095
  0
ARC
  5
1481B
  8
0
 10
8693.2138996106587001
 20
2161.9197202795239718
 30
0.0
 40
0.1722984732275741
 50
186.6269174919050897
 51
196.1103282376612071
  0
ARC
  5
1481C
  8
0
 10
8693.2354708431812469
 20
2161.9219902021809503
 30
0.0
 40
0.193987680651155
 50
180.0392045957771927
 51
186.5576128910338127
  0
ARC
  5
1481D
  8
0
 10
8693.2413352916810254
 20
2161.9184384627387772
 30
0.0
 40
0.1998813271903607
 50
160.9995923508045905
 51
179.0198983135339006
  0
ARC
  5
1481E
  8
0
 10
8693.0663621106577921
 20
2161.9972048927261312
 30
0.0
 40
0.0199695508154272
 50
237.0492412655418946
 51
277.3614504393715947
  0
ARC
  5
1481F
  8
0
 10
8693.0617859838475852
 20
2161.9900729731539286
 30
0.0
 40
0.0114959124424025
 50
190.300639620727992
 51
236.8539849612928947
  0
ARC
  5
14820
  8
0
 10
8693.3187704273932468
 20
2162.0648176161571428
 30
0.0
 40
0.2790708311406741
 50
191.449794709682493
 51
195.9739270464129106
  0
ARC
  5
14821
  8
0
 10
8693.2772365067394276
 20
2162.0531795318029253
 30
0.0
 40
0.236074380979163
 50
183.1447466759304064
 51
190.6824420344927091
  0
ARC
  5
14822
  8
0
 10
8693.2718678472028841
 20
2162.054652587929013
 30
0.0
 40
0.2308013673099293
 50
172.0131406822252131
 51
183.5829953318084051
  0
ARC
  5
14823
  8
0
 10
8693.3367038030137337
 20
2162.0455556518090816
 30
0.0
 40
0.2962723945861566
 50
165.0470302391456983
 51
172.0131406822252131
  0
ARC
  5
14824
  8
0
 10
8693.0263136317789758
 20
2162.1284514369058343
 30
0.0
 40
0.0249966042067125
 50
345.0470302391457267
 51
10.9575803584939493
  0
ARC
  5
14825
  8
0
 10
8693.0651411661783641
 20
2162.1461674667739317
 30
0.0
 40
0.0203453000859431
 50
235.2899107377681958
 51
280.6830092880683765
  0
ARC
  5
14826
  8
0
 10
8693.0589673644335562
 20
2162.1361812045711304
 30
0.0
 40
0.0086422884287359
 50
190.4218903640793883
 51
231.2338884579376952
  0
ARC
  5
14827
  8
0
 10
8693.3673897765256697
 20
2162.2157689733230654
 30
0.0
 40
0.3271469638537119
 50
186.8366454072080955
 51
194.362568873646012
  0
ARC
  5
14828
  8
0
 10
8693.397173738658239
 20
2162.2129132824102271
 30
0.0
 40
0.3564363294382474
 50
182.1024483163035939
 51
185.8108949969129924
  0
ARC
  5
14829
  8
0
 10
8693.336089494281623
 20
2162.2106840019550873
 30
0.0
 40
0.2953114213169117
 50
170.8889868006326083
 51
182.105005852222007
  0
ARC
  5
1482A
  8
0
 10
8693.3799051293244702
 20
2162.204670610393805
 30
0.0
 40
0.3395279335560334
 50
166.0040239137613867
 51
171.0578377685990858
  0
ARC
  5
1482B
  8
0
 10
8693.0636400902312744
 20
2162.323655444754877
 30
0.0
 40
0.0288264495407585
 50
257.1533502981711763
 51
280.520432659144717
  0
ARC
  5
1482C
  8
0
 10
8693.0594324872781726
 20
2162.3050609366828212
 30
0.0
 40
0.0097619113441265
 50
203.2340690095792013
 51
256.9651428688338228
  0
ARC
  5
1482D
  8
0
 10
8693.432885196274583
 20
2162.3921387943310037
 30
0.0
 40
0.3930844105431983
 50
186.6226471530910942
 51
193.3748778745938921
  0
ARC
  5
1482E
  8
0
 10
8693.4404043244558125
 20
2162.3836987075751495
 30
0.0
 40
0.3996870452319036
 50
174.3914333701168005
 51
185.2963905177971071
  0
ARC
  5
1482F
  8
0
 10
8693.4210035398264154
 20
2162.3804083944341983
 30
0.0
 40
0.3807358158212846
 50
166.7177562455468944
 51
173.6132964886195111
  0
ARC
  5
14830
  8
0
 10
8693.0143584430807095
 20
2162.4761596131152146
 30
0.0
 40
0.0370309894153288
 50
347.0830104352943977
 51
11.7228384881150998
  0
ARC
  5
14831
  8
0
 10
8693.0605743843952951
 20
2162.5222024525460256
 30
0.0
 40
0.0425028674305219
 50
267.9704741518274886
 51
281.2948208274701756
  0
ARC
  5
14832
  8
0
 10
8693.0597273643052176
 20
2162.4971752512738021
 30
0.0
 40
0.0174614141250691
 50
242.9087235458576117
 51
267.8397574094979063
  0
ARC
  5
14833
  8
0
 10
8693.0626018792481773
 20
2162.4890887621868387
 30
0.0
 40
0.013147377077235
 50
184.4326786481605041
 51
214.5652787195922997
  0
ARC
  5
14834
  8
0
 10
8693.4537236330979795
 20
2162.5759810412841944
 30
0.0
 40
0.4136781643297106
 50
187.1568972888044016
 51
192.2691540596705124
  0
ARC
  5
14835
  8
0
 10
8693.4270825201001571
 20
2162.5721561318810018
 30
0.0
 40
0.386768379535476
 50
181.3288348062147861
 51
187.0863862693680062
  0
ARC
  5
14836
  8
0
 10
8693.4248501527872577
 20
2162.5725063252648397
 30
0.0
 40
0.3845449437177829
 50
170.3174868026989088
 51
181.3887117930638908
  0
ARC
  5
14837
  8
0
 10
8693.506275868989178
 20
2162.5586135487951651
 30
0.0
 40
0.4671473437834825
 50
167.3605463716882866
 51
170.3174868026989088
  0
ARC
  5
14838
  8
0
 10
8693.0133947137619543
 20
2162.6691419482790479
 30
0.0
 40
0.0379747803298798
 50
347.360546371688315
 51
12.6394536283117098
  0
ARC
  5
14839
  8
0
 10
8693.463224933238962
 20
2162.7700161928551097
 30
0.0
 40
0.4230272148659999
 50
185.1516151006302096
 51
192.6394536283117134
  0
ARC
  5
1483A
  8
0
 10
8693.4409695222911978
 20
2162.7680097401557759
 30
0.0
 40
0.4006815403660297
 50
166.6712153278980963
 51
185.1516151006302096
  0
ARC
  5
1483B
  8
0
 10
8693.0185711581834767
 20
2162.8680845746798695
 30
0.0
 40
0.0334098676421431
 50
346.6712153278979827
 51
17.4266951809929083
  0
ARC
  5
1483C
  8
0
 10
8693.6073452246328088
 20
2162.9871154987959017
 30
0.0
 40
0.5674693939279654
 50
181.6344009991846917
 51
191.0768331647549871
  0
ARC
  5
1483D
  8
0
 10
8693.1552665454728412
 20
2161.8423527602708418
 30
0.0
 40
0.1970551624149325
 50
243.0961990460764071
 51
244.4290976445217893
  0
ARC
  5
1483E
  8
0
 10
8693.0713953211416083
 20
2161.6754536715038739
 30
0.0
 40
0.0102944776234709
 50
214.1014863653738018
 51
239.0455664607667075
  0
ARC
  5
1483F
  8
0
 10
8693.0702684713705821
 20
2161.6731076510682215
 30
0.0
 40
0.0081521518350755
 50
157.8596984447164004
 51
204.8483929189162893
  0
ARC
  5
14840
  8
0
 10
8693.0934550287984166
 20
2161.6639733621841515
 30
0.0
 40
0.033072678926795
 50
137.7334530969278887
 51
158.3407859925409014
  0
ARC
  5
14841
  8
0
 10
8693.065130573726492
 20
2161.689702398611189
 30
0.0
 40
0.0051929552132154
 50
317.847927622494808
 51
42.2218441973353222
  0
ARC
  5
14842
  8
0
 10
8693.1006525530392537
 20
2161.7162795803637891
 30
0.0
 40
0.0391972380306744
 50
179.2630087211923922
 51
216.0866690756907076
  0
ARC
  5
14843
  8
0
 10
8693.1286423135697987
 20
2161.7143300678749256
 30
0.0
 40
0.0672285478978193
 50
152.5990740217912105
 51
177.9083693028580058
  0
ARC
  5
14844
  8
0
 10
8693.0568808023854217
 20
2161.7511643973748505
 30
0.0
 40
0.0134374741493501
 50
333.9800703658308976
 51
26.0503348387301195
  0
ARC
  5
14845
  8
0
 10
8693.1652726193387934
 20
2161.7972565247841885
 30
0.0
 40
0.1043683436519424
 50
157.373338702878101
 51
202.6491570026927036
  0
ARC
  5
14846
  8
0
 10
8693.0473452077549155
 20
2161.8452401330919201
 30
0.0
 40
0.0229682051790793
 50
340.0665612200389205
 51
19.9334387799610901
  0
ARC
  5
14847
  8
0
 10
8693.2279303198956768
 20
2161.9058710548461022
 30
0.0
 40
0.167531014811074
 50
161.6451392117542127
 51
198.3709548873517861
  0
ARC
  5
14848
  8
0
 10
8693.0378715797014593
 20
2161.9680104430030951
 30
0.0
 40
0.0324378675074784
 50
343.1851209230189284
 51
16.8256868516986309
  0
ARC
  5
14849
  8
0
 10
8693.2917468304221984
 20
2162.0411756703929314
 30
0.0
 40
0.2317731526379931
 50
164.0370830639284918
 51
195.9718143557915937
  0
ARC
  5
1484A
  8
0
 10
8693.0291030884654901
 20
2162.1155491775471091
 30
0.0
 40
0.041203244789554
 50
345.0457827258670136
 51
14.9444857766850898
  0
ARC
  5
1484B
  8
0
 10
8693.3514139564467769
 20
2162.1991724803588113
 30
0.0
 40
0.2917801104598402
 50
165.5202052410390934
 51
194.4881917090509091
  0
ARC
  5
1484C
  8
0
 10
8693.0216410239754623
 20
2162.2837240526691858
 30
0.0
 40
0.0486626061174642
 50
346.2149968358734782
 51
13.7780075105611104
  0
ARC
  5
1484D
  8
0
 10
8693.4023859213066316
 20
2162.3756347513381115
 30
0.0
 40
0.3430190712520713
 50
166.4635998314720098
 51
193.542084252290806
  0
ARC
  5
1484E
  8
0
 10
8693.0157131459000084
 20
2162.4682302768260342
 30
0.0
 40
0.0545878065679237
 50
346.9700027392490256
 51
13.01390035403303
  0
ARC
  5
1484F
  8
0
 10
8693.441238249601156
 20
2162.5661569435428646
 30
0.0
 40
0.3820599577936117
 50
167.0501347824547906
 51
192.9521982916014053
  0
ARC
  5
14850
  8
0
 10
8693.0116086815178278
 20
2162.6645415986022272
 30
0.0
 40
0.0586918222103496
 50
347.4375947933364728
 51
12.5619442518286508
  0
ARC
  5
14851
  8
0
 10
8693.4655845922970911
 20
2162.7661663228259386
 30
0.0
 40
0.4065196801874301
 50
167.3751062732596893
 51
192.626000750582989
  0
ARC
  5
14852
  8
0
 10
8693.0095270060173789
 20
2162.8680144973459392
 30
0.0
 40
0.0607726792039448
 50
347.6518790891224171
 51
12.3481209108521206
  0
ARC
  5
14853
  8
0
 10
8693.4054960766916338
 20
2162.9634620218671444
 30
0.0
 40
0.346553467393069
 50
178.7651811369898098
 51
193.7636786958931054
  0
ARC
  5
14854
  8
0
 10
8693.0703565649237134
 20
2161.706246275857211
 30
0.0
 40
0.020076091030727
 50
222.319381758670886
 51
266.0695962831769066
  0
ARC
  5
14855
  8
0
 10
8693.0703509403992939
 20
2161.7062459667490657
 30
0.0
 40
0.0200717244412394
 50
179.9167009523139882
 51
222.3295389066987866
  0
ARC
  5
14856
  8
0
 10
8693.0709655912432936
 20
2161.7661919764009326
 30
0.0
 40
0.0210186432878565
 50
212.3832014995846009
 51
264.5143248989538733
  0
ARC
  5
14857
  8
0
 10
8693.0689445310363226
 20
2161.764910469798906
 30
0.0
 40
0.0186255399706312
 50
173.3298633372068025
 51
212.3838929431109079
  0
ARC
  5
14858
  8
0
 10
8693.0715603864118748
 20
2161.8594437586998538
 30
0.0
 40
0.0221897126285431
 50
214.1677558109929009
 51
263.2112742359303752
  0
ARC
  5
14859
  8
0
 10
8693.0669063987024856
 20
2161.8562719727979129
 30
0.0
 40
0.0165576900890679
 50
165.6550987874381917
 51
214.1312042562497027
  0
ARC
  5
1485A
  8
0
 10
8693.0720474255213048
 20
2161.9819932457708092
 30
0.0
 40
0.0235744664625666
 50
218.544772964555392
 51
262.3828243395627169
  0
ARC
  5
1485B
  8
0
 10
8693.0654578262219729
 20
2161.9766809890311379
 30
0.0
 40
0.0151104725141525
 50
177.0338059739601135
 51
218.3601907180216131
  0
ARC
  5
1485C
  8
0
 10
8693.0735138309864851
 20
2162.13241424331909
 30
0.0
 40
0.0278800407887464
 50
232.3279079965489871
 51
260.4970377363126772
  0
ARC
  5
1485D
  8
0
 10
8693.0653276108696446
 20
2162.1222902401641477
 30
0.0
 40
0.014866612303339
 50
181.112252143436308
 51
233.4547656790277017
  0
ARC
  5
1485E
  8
0
 10
8693.0711615871732647
 20
2162.2939065510540786
 30
0.0
 40
0.0218946993149361
 50
198.9768075960024873
 51
264.0763486148151173
  0
ARC
  5
1485F
  8
0
 10
8693.022894087844179
 20
2162.2940086643479844
 30
0.0
 40
0.028493207768139
 50
345.3175204125137157
 51
14.6395828512130208
  0
ARC
  5
14860
  8
0
 10
8693.0769997492570837
 20
2162.4967151452287908
 30
0.0
 40
0.041589560324816
 50
239.2579660914890951
 51
258.7632113034160852
  0
ARC
  5
14861
  8
0
 10
8693.0608366968299379
 20
2162.4703475390920175
 30
0.0
 40
0.0106730781641708
 50
193.3577223901484956
 51
241.4775192468925127
  0
ARC
  5
14862
  8
0
 10
8693.0738657293368306
 20
2162.6852131220448427
 30
0.0
 40
0.0338045547808607
 50
226.1555719720441004
 51
261.5450774493417043
  0
ARC
  5
14863
  8
0
 10
8693.0599071855667717
 20
2162.7073279892438222
 30
0.0
 40
0.0313378867895782
 50
252.4338959012723933
 51
286.6676458063504924
  0
ARC
  5
14864
  8
0
 10
8693.086458736743225
 20
2162.9456042005422205
 30
0.0
 40
0.0922732352680769
 50
247.455481060692108
 51
259.0263231169881806
  0
ARC
  5
14865
  8
0
 10
8693.0433294896974985
 20
2162.9827653086617829
 30
0.0
 40
0.1049167077484058
 50
273.8902090381678818
 51
284.1028234554943879
  0
LINE
  5
14866
  8
0
 10
8693.0432100718444417
 20
2161.6926175102607885
 30
0.0
 11
8693.0434442190162372
 21
2161.7250715438058251
 31
0.0
  0
LINE
  5
14867
  8
0
 10
8693.0428527704207227
 20
2161.7414464218118155
 30
0.0
 11
8693.0430387116157362
 21
2161.7973214268658921
 31
0.0
  0
LINE
  5
14868
  8
0
 10
8693.0426027741705184
 20
2161.824860575627099
 30
0.0
 11
8693.0427523223461321
 21
2161.8998363769851494
 31
0.0
  0
LINE
  5
14869
  8
0
 10
8693.0420045278897305
 20
2161.9332638317341662
 30
0.0
 11
8693.0425843007706135
 21
2162.0273056919490955
 31
0.0
  0
LINE
  5
1486A
  8
0
 10
8693.0410981764707685
 20
2162.0584775352272118
 30
0.0
 11
8693.0425689663461526
 21
2162.176825716760959
 31
0.0
  0
LINE
  5
1486B
  8
0
 10
8693.0421926755752793
 20
2162.2395543243260363
 30
0.0
 11
8693.0427567116203136
 21
2162.3440231079721343
 31
0.0
  0
LINE
  5
1486C
  8
0
 10
8693.0417686836153734
 20
2162.4126704175350824
 30
0.0
 11
8693.0432685566411237
 21
2162.5244421835609501
 31
0.0
  0
LINE
  5
1486D
  8
0
 10
8693.0423276749224897
 20
2162.6118937302157974
 30
0.0
 11
8693.0443809403022897
 21
2162.7106719926500773
 31
0.0
  0
LINE
  5
1486E
  8
0
 10
8693.0434956050303299
 20
2162.8186079801039341
 30
0.0
 11
8693.0474654004301556
 21
2162.8946163339610393
 31
0.0
  0
ENDSEC
  0
EOF
