  0
SECTION
  2
HEADER
  9
$ACADVER
  1
AC1009
  9
$INSBASE
 10
8602.5268171283369156
 20
2088.6070368541190874
 30
0.0
  9
$EXTMIN
 10
8596.505532146555197
 20
2077.9389337343632178
 30
-0.0000000000112498
  9
$EXTMAX
 10
8608.9845958781734225
 20
2088.6157855187379937
 30
0.0000000000002956
  9
$LIMMIN
 10
0.0
 20
0.0
  9
$LIMMAX
 10
11.6929133858000007
 20
8.2677165353999982
  9
$ORTHOMODE
 70
     0
  9
$REGENMODE
 70
     1
  9
$FILLMODE
 70
     1
  9
$QTEXTMODE
 70
     0
  9
$MIRRTEXT
 70
     0
  9
$DRAGMODE
 70
     2
  9
$LTSCALE
 40
0.6431102362
  9
$OSMODE
 70
  4095
  9
$ATTMODE
 70
     1
  9
$TEXTSIZE
 40
0.2
  9
$TRACEWID
 40
0.05
  9
$TEXTSTYLE
  7
STANDARD
  9
$CLAYER
  8
0
  9
$CELTYPE
  6
BYLAYER
  9
$CECOLOR
 62
   256
  9
$DIMSCALE
 40
1.0
  9
$DIMASZ
 40
0.1875
  9
$DIMEXO
 40
0.0625
  9
$DIMDLI
 40
0.4443307087
  9
$DIMRND
 40
0.0
  9
$DIMDLE
 40
0.0
  9
$DIMEXE
 40
0.125
  9
$DIMTP
 40
0.01
  9
$DIMTM
 40
0.01
  9
$DIMTXT
 40
2.0
  9
$DIMCEN
 40
0.1052362205
  9
$DIMTSZ
 40
0.0
  9
$DIMTOL
 70
     1
  9
$DIMLIM
 70
     0
  9
$DIMTIH
 70
     1
  9
$DIMTOH
 70
     1
  9
$DIMSE1
 70
     0
  9
$DIMSE2
 70
     0
  9
$DIMTAD
 70
     0
  9
$DIMZIN
 70
     0
  9
$DIMBLK
  1

  9
$DIMASO
 70
     1
  9
$DIMSHO
 70
     1
  9
$DIMPOST
  1
\X
  9
$DIMAPOST
  1

  9
$DIMALT
 70
     1
  9
$DIMALTD
 70
     2
  9
$DIMALTF
 40
25.3999999999999986
  9
$DIMLFAC
 40
1.0
  9
$DIMTOFL
 70
     0
  9
$DIMTVP
 40
0.0
  9
$DIMTIX
 70
     0
  9
$DIMSOXD
 70
     0
  9
$DIMSAH
 70
     0
  9
$DIMBLK1
  1

  9
$DIMBLK2
  1

  9
$DIMSTYLE
  2
STANDARD
  9
$DIMCLRD
 70
     0
  9
$DIMCLRE
 70
     0
  9
$DIMCLRT
 70
     0
  9
$DIMTFAC
 40
1.0
  9
$DIMGAP
 40
0.09
  9
$LUNITS
 70
     2
  9
$LUPREC
 70
     4
  9
$SKETCHINC
 40
0.1
  9
$FILLETRAD
 40
0.0
  9
$AUNITS
 70
     0
  9
$AUPREC
 70
     0
  9
$MENU
  1
.
  9
$ELEVATION
 40
0.0
  9
$PELEVATION
 40
0.0
  9
$THICKNESS
 40
0.0
  9
$LIMCHECK
 70
     0
  9
$BLIPMODE
 70
     0
  9
$CHAMFERA
 40
0.0
  9
$CHAMFERB
 40
0.0
  9
$SKPOLY
 70
     0
  9
$TDCREATE
 40
2458060.468368056230247
  9
$TDUPDATE
 40
2460584.3501967592164874
  9
$TDINDWG
 40
0.4960603009
  9
$TDUSRTIMER
 40
0.4960603009
  9
$USRTIMER
 70
     1
  9
$ANGBASE
 50
0.0
  9
$ANGDIR
 70
     0
  9
$PDMODE
 70
     0
  9
$PDSIZE
 40
0.3125
  9
$PLINEWID
 40
0.0
  9
$COORDS
 70
     2
  9
$SPLFRAME
 70
     0
  9
$SPLINETYPE
 70
     6
  9
$SPLINESEGS
 70
     8
  9
$ATTDIA
 70
     1
  9
$ATTREQ
 70
     1
  9
$HANDLING
 70
     1
  9
$HANDSEED
  5
11EF1
  9
$SURFTAB1
 70
     6
  9
$SURFTAB2
 70
     6
  9
$SURFTYPE
 70
     6
  9
$SURFU
 70
     6
  9
$SURFV
 70
     6
  9
$UCSNAME
  2

  9
$UCSORG
 10
0.0
 20
0.0
 30
0.0
  9
$UCSXDIR
 10
1.0
 20
0.0
 30
0.0
  9
$UCSYDIR
 10
0.0
 20
1.0
 30
0.0
  9
$PUCSNAME
  2

  9
$PUCSORG
 10
0.0
 20
0.0
 30
0.0
  9
$PUCSXDIR
 10
1.0
 20
0.0
 30
0.0
  9
$PUCSYDIR
 10
0.0
 20
1.0
 30
0.0
  9
$USERI1
 70
     0
  9
$USERI2
 70
     0
  9
$USERI3
 70
     0
  9
$USERI4
 70
     0
  9
$USERI5
 70
     0
  9
$USERR1
 40
0.0
  9
$USERR2
 40
0.0
  9
$USERR3
 40
0.0
  9
$USERR4
 40
0.0
  9
$USERR5
 40
0.0
  9
$WORLDVIEW
 70
     1
  9
$SHADEDGE
 70
     3
  9
$SHADEDIF
 70
    70
  9
$TILEMODE
 70
     1
  9
$MAXACTVP
 70
    64
  9
$PLIMCHECK
 70
     0
  9
$PEXTMIN
 10
1.0000000000000000E+20
 20
1.0000000000000000E+20
 30
1.0000000000000000E+20
  9
$PEXTMAX
 10
-1.0000000000000000E+20
 20
-1.0000000000000000E+20
 30
-1.0000000000000000E+20
  9
$PLIMMIN
 10
0.0
 20
0.0
  9
$PLIMMAX
 10
12.0
 20
9.0
  9
$UNITMODE
 70
     0
  9
$VISRETAIN
 70
     1
  9
$PLINEGEN
 70
     0
  9
$PSLTSCALE
 70
     1
  0
ENDSEC
  0
SECTION
  2
TABLES
  0
TABLE
  2
VPORT
 70
     1
  0
VPORT
  2
*ACTIVE
 70
     0
 10
0.0
 20
0.0
 11
1.0
 21
1.0
 12
3787.446724168613855
 22
1835.468735358972026
 13
0.0
 23
0.0
 14
1.0
 24
1.0
 15
0.0
 25
0.0
 16
0.0
 26
0.0
 36
9.5192988075487186
 17
4815.2983398437490905
 27
247.8086242675780966
 37
0.0
 40
10.7525741374565698
 41
2.244970414201183
 42
50.0
 43
0.0
 44
0.0
 50
0.0
 51
0.0
 71
     0
 72
   100
 73
     1
 74
     1
 75
     0
 76
     0
 77
     0
 78
     0
  0
ENDTAB
  0
TABLE
  2
LTYPE
 70
     2
  0
LTYPE
  2
CONTINUOUS
 70
     0
  3
Solid line
 72
    65
 73
     0
 40
0.0
  0
LTYPE
  2
PHANTOM2
 70
     0
  3
___ _ _ ___ _ _ ___ _ _ ___ _ _
 72
    65
 73
     6
 40
1.25
 49
0.625
 49
-0.125
 49
0.125
 49
-0.125
 49
0.125
 49
-0.125
  0
ENDTAB
  0
TABLE
  2
LAYER
 70
     2
  0
LAYER
  2
0
 70
     0
 62
   255
  6
CONTINUOUS
  0
LAYER
  2
DEFPOINTS
 70
     0
 62
     7
  6
CONTINUOUS
  0
ENDTAB
  0
TABLE
  2
STYLE
 70
     1
  0
STYLE
  2
STANDARD
 70
     0
 40
0.0
 41
0.8
 50
0.0
 71
     0
 42
0.2
  3
txt
  4

  0
ENDTAB
  0
TABLE
  2
VIEW
 70
     0
  0
ENDTAB
  0
TABLE
  2
UCS
 70
     0
  0
ENDTAB
  0
TABLE
  2
APPID
 70
    10
  0
APPID
  2
ACAD
 70
     0
  0
APPID
  2
ACAD_MLEADERVER
 70
     0
  0
APPID
  2
ACAD_EXEMPT_FROM_CAD_STANDARDS
 70
     0
  0
APPID
  2
ACAD_NAV_VCDISPLAY
 70
     0
  0
APPID
  2
ACAECLAYERSTANDARD
 70
     0
  0
APPID
  2
ACCMTRANSPARENCY
 70
     0
  0
APPID
  2
ACAD_DSTYLE_DIMJAG
 70
     0
  0
APPID
  2
ACAD_DSTYLE_DIMTALN
 70
     0
  0
APPID
  2
ACDBATTR
 70
     0
  0
APPID
  2
ACADANNOTATIVE
 70
     0
  0
ENDTAB
  0
TABLE
  2
DIMSTYLE
 70
     2
  0
DIMSTYLE
  2
STANDARD
 70
     0
  3

  4

  5

  6

  7

 40
1.0
 41
0.1875
 42
0.0625
 43
0.38
 44
0.125
 45
0.0
 46
0.0
 47
0.01
 48
0.01
140
0.15625
141
0.09
142
0.0
143
25.3999999999999986
144
1.0
145
0.0
146
1.0
147
0.09
 71
     1
 72
     0
 73
     1
 74
     1
 75
     0
 76
     0
 77
     0
 78
     4
170
     0
171
     2
172
     0
173
     0
174
     0
175
     0
176
     0
177
     0
178
     0
  0
DIMSTYLE
  2
ANNOTATIVE
 70
     0
  3

  4

  5

  6

  7

 40
0.0
 41
0.18
 42
0.0625
 43
0.38
 44
0.18
 45
0.0
 46
0.0
 47
0.0
 48
0.0
140
0.18
141
0.09
142
0.0
143
25.3999999999999986
144
1.0
145
0.0
146
1.0
147
0.09
 71
     0
 72
     0
 73
     1
 74
     1
 75
     0
 76
     0
 77
     0
 78
     0
170
     0
171
     2
172
     0
173
     0
174
     0
175
     0
176
     0
177
     0
178
     0
  0
ENDTAB
  0
ENDSEC
  0
SECTION
  2
BLOCKS
  0
BLOCK
  8
0
  2
$MODEL_SPACE
 70
     0
 10
0.0
 20
0.0
 30
0.0
  3
$MODEL_SPACE
  1

  0
ENDBLK
  5
21
  8
0
  0
BLOCK
 67
     1
  8
0
  2
$PAPER_SPACE
 70
     0
 10
0.0
 20
0.0
 30
0.0
  3
$PAPER_SPACE
  1

  0
ENDBLK
  5
1D
 67
     1
  8
0
  0
BLOCK
  8
0
  2
_FILLED
 70
     0
 10
0.0
 20
0.0
 30
0.0
  3
_FILLED
  1

  0
SOLID
  5
D8EA
  8
0
  6
BYBLOCK
 62
     0
 10
0.0
 20
0.0
 30
0.0
 11
-1.0
 21
0.1666666667
 31
0.0
 12
-1.0
 22
-0.1666666667
 32
0.0
 13
-1.0
 23
-0.1666666667
 33
0.0
  0
ENDBLK
  5
D8EB
  8
0
  6
BYBLOCK
 62
     0
  0
BLOCK
  8
0
  2
A$C5DA98D40
 70
     0
 10
0.0
 20
0.0
 30
0.0
  3
A$C5DA98D40
  1

  0
LINE
  5
11278
  8
0
 10
-0.0000001198391013
 20
3.514127698335908
 30
0.0
 11
7.0866140533608997
 21
3.514127698335908
 31
0.0
  0
LINE
  5
11279
  8
0
 10
2.2637748415969008
 20
0.010190690435909
 30
0.0
 11
4.822839091924898
 21
0.010190690435909
 31
0.0
  0
LINE
  5
1127A
  8
0
 10
2.2362203526108999
 20
0.0377451794219113
 30
0.0
 11
2.2362203526108999
 21
0.0708660556359071
 31
0.0
  0
ARC
  5
1127B
  8
0
 10
2.2480203526108999
 20
0.0377451794219113
 30
0.0
 40
0.0118
 50
180.0
 51
224.9999999999942872
  0
LINE
  5
1127C
  8
0
 10
3.0551179904109
 20
1.4078584070359059
 30
0.0
 11
3.0551179904109
 21
2.9629465960359052
 31
0.0
  0
LINE
  5
1127D
  8
0
 10
7.0022885071720689
 20
2.9629465960359069
 30
0.0
 11
0.0843254263497295
 21
2.9629465960359069
 31
0.0
  0
LINE
  5
1127E
  8
0
 10
-0.0000001198391013
 20
3.514127698335908
 30
0.0
 11
0.0450753552444625
 21
2.9989126597768219
 31
0.0
  0
LINE
  5
1127F
  8
0
 10
7.0866140533608997
 20
3.514127698335908
 30
0.0
 11
7.0415385782773363
 21
2.9989126597768219
 31
0.0
  0
ARC
  5
11280
  8
0
 10
7.0022885071720671
 20
3.002346596035907
 30
0.0
 40
0.0394
 50
270.0000000000026148
 51
355.0000000075502271
  0
ARC
  5
11281
  8
0
 10
0.0843254263497309
 20
3.002346596035907
 30
0.0
 40
0.0394
 50
184.9999999924496876
 51
269.9999999999981242
  0
LINE
  5
11282
  8
0
 10
3.0945179904108988
 20
1.3684584070359049
 30
0.0
 11
3.9920959431109
 21
1.3684584070359069
 31
0.0
  0
ARC
  5
11283
  8
0
 10
3.0945179904108988
 20
1.4078584070359039
 30
0.0
 40
0.0394
 50
179.9999999999974136
 51
270.0
  0
LINE
  5
11284
  8
0
 10
3.2874014549609001
 20
1.3684584070359049
 30
0.0
 11
3.2874014549609001
 21
1.313340822835906
 31
0.0
  0
LINE
  5
11285
  8
0
 10
3.2874014549609001
 20
1.313340822835906
 30
0.0
 11
3.7992124785608992
 21
1.313340822835906
 31
0.0
  0
LINE
  5
11286
  8
0
 10
3.081946913954221
 20
0.8015282032359075
 30
0.0
 11
4.0046670195675791
 21
0.8015282032359075
 31
0.0
  0
LINE
  5
11287
  8
0
 10
3.0640736976705729
 20
0.8294634587172673
 30
0.0
 11
3.2874014549609001
 21
1.313340822835906
 31
0.0
  0
LINE
  5
11288
  8
0
 10
3.0640736976705729
 20
0.8294634587172673
 30
0.0
 11
3.081946913954221
 21
0.8015282032359075
 31
0.0
  0
LINE
  5
11289
  8
0
 10
2.5907442067858311
 20
1.132444065435908
 30
0.0
 11
3.203910739901684
 21
1.132444065435908
 31
0.0
  0
LINE
  5
1128A
  8
0
 10
2.5787400375608991
 20
1.1521440654359081
 30
0.0
 11
2.5787400375608991
 21
2.9629465960359069
 31
0.0
  0
ARC
  5
1128B
  8
0
 10
2.5984400375608971
 20
1.152144065435907
 30
0.0
 40
0.0197
 50
179.9999999999947988
 51
270.0000000000076739
  0
LINE
  5
1128C
  8
0
 10
2.5789460039831398
 20
1.1204381270310271
 30
0.0
 11
2.5796544796249679
 21
1.0798495864531801
 31
0.0
  0
LINE
  5
1128D
  8
0
 10
2.8831039182461762
 20
0.9515896028359058
 30
0.0
 11
3.1204395454969318
 21
0.9515896028359058
 31
0.0
  0
ARC
  5
1128E
  8
0
 10
3.543306966760928
 20
3.0118344140359792
 30
0.0
 40
2.1653543307000782
 50
243.7689374115053909
 51
251.907963020464905
  0
ARC
  5
1128F
  8
0
 10
2.5914526824276591
 20
1.0800555248580621
 30
0.0
 40
0.0118
 50
181.0000000433282992
 51
243.7689374115070109
  0
ARC
  5
11290
  8
0
 10
2.8831039182461651
 20
0.9909896028357625
 30
0.0
 40
0.0394
 50
251.907963020413689
 51
270.0000000000155183
  0
ARC
  5
11291
  8
0
 10
2.5907442067858311
 20
1.1206440654359071
 30
0.0
 40
0.0118
 50
90.0
 51
181.0000000433196874
  0
LINE
  5
11292
  8
0
 10
2.586237174095682
 20
1.0694707020990799
 30
0.0
 11
3.1748461441054761
 21
1.0694707020990799
 31
0.0
  0
LINE
  5
11293
  8
0
 10
3.0640736976705729
 20
0.8294634587172673
 30
0.0
 11
4.0225402358512259
 21
0.8294634587172673
 31
0.0
  0
ARC
  5
11294
  8
0
 10
3.5433069672434301
 20
1.3684584075400279
 30
0.0
 40
0.7086614179897556
 50
216.0327935774164132
 51
228.0504833981680122
  0
ARC
  5
11295
  8
0
 10
3.5433069672434301
 20
1.3684584075400279
 30
0.0
 40
0.7086614179897556
 50
233.1302465263503905
 51
246.0834655561432101
  0
ARC
  5
11296
  8
0
 10
3.248031376148945
 20
0.702649961127392
 30
0.0
 40
0.0196850394126312
 50
359.4822738929112234
 51
66.0834655561442617
  0
LINE
  5
11297
  8
0
 10
3.2381888564609009
 20
0.7024720890359079
 30
0.0
 11
3.8484250770608979
 21
0.7024720890359079
 31
0.0
  0
LINE
  5
11298
  8
0
 10
3.2381888564609009
 20
0.7024720890359079
 30
0.0
 11
2.2960130085321708
 21
0.1471298215578116
 31
0.0
  0
LINE
  5
11299
  8
0
 10
2.2773976318379199
 20
0.1322379346359064
 30
0.0
 11
4.8092163016840921
 21
0.1322379346359064
 31
0.0
  0
ARC
  5
1129A
  8
0
 10
2.3000752609437849
 20
0.1402379346359037
 30
0.0
 40
0.008
 50
120.5161726569083953
 51
270.0000000000064233
  0
LINE
  5
1129B
  8
0
 10
3.2560117975393541
 20
0.7206447840247794
 30
0.0
 11
3.8306021359824451
 21
0.7206447840247794
 31
0.0
  0
ARC
  5
1129C
  8
0
 10
2.3070864942609002
 20
0.0708660556359071
 30
0.0
 40
0.0708661416499998
 50
125.4677277527863026
 51
180.0
  0
ARC
  5
1129D
  8
0
 10
2.277397631837708
 20
0.1125379346372615
 30
0.0
 40
0.0197
 50
89.9999999993825952
 51
125.4677277545696938
  0
LINE
  5
1129E
  8
0
 10
2.2396764925928991
 20
0.0294013194039113
 30
0.0
 11
2.2554309815788982
 21
0.0136468304179083
 31
0.0
  0
ARC
  5
1129F
  8
0
 10
2.2637748415969008
 20
0.0219906904359117
 30
0.0
 40
0.0118
 50
225.000000000003098
 51
270.0
  0
LINE
  5
112A0
  8
0
 10
2.2396764925928978
 20
0.0294013194039113
 30
0.0
 11
4.8469374409289019
 21
0.0294013194039113
 31
0.0
  0
LINE
  5
112A1
  8
0
 10
2.2362203526108999
 20
0.0708660556359071
 30
0.0
 11
4.8503935809109002
 21
0.0708660556359071
 31
0.0
  0
LINE
  5
112A2
  8
0
 10
4.8503935809109002
 20
0.0377451794219113
 30
0.0
 11
4.8503935809109002
 21
0.0708660556359071
 31
0.0
  0
ARC
  5
112A3
  8
0
 10
4.8385935809108993
 20
0.0377451794219113
 30
0.0
 40
0.0118
 50
315.0000000000056843
 51
0.0
  0
LINE
  5
112A4
  8
0
 10
4.0314959431109001
 20
1.4078584070359059
 30
0.0
 11
4.0314959431109001
 21
2.9629465960359052
 31
0.0
  0
ARC
  5
112A5
  8
0
 10
3.9920959431109
 20
1.4078584070359039
 30
0.0
 40
0.0394
 50
270.0
 51
0.0000000000025444
  0
LINE
  5
112A6
  8
0
 10
3.7992124785609001
 20
1.3684584070359049
 30
0.0
 11
3.7992124785609001
 21
1.313340822835906
 31
0.0
  0
LINE
  5
112A7
  8
0
 10
4.0225402358512259
 20
0.8294634587172673
 30
0.0
 11
3.7992124785609001
 21
1.313340822835906
 31
0.0
  0
LINE
  5
112A8
  8
0
 10
4.0225402358512259
 20
0.8294634587172673
 30
0.0
 11
4.0046670195675791
 21
0.8015282032359075
 31
0.0
  0
LINE
  5
112A9
  8
0
 10
4.4958697267359682
 20
1.132444065435908
 30
0.0
 11
3.8827031936201148
 21
1.132444065435908
 31
0.0
  0
LINE
  5
112AA
  8
0
 10
4.5078738959609002
 20
1.1521440654359081
 30
0.0
 11
4.507873895960901
 21
2.9629465960359069
 31
0.0
  0
ARC
  5
112AB
  8
0
 10
4.4881738959609008
 20
1.152144065435907
 30
0.0
 40
0.0197
 50
269.9999999999923261
 51
0.0000000000051907
  0
LINE
  5
112AC
  8
0
 10
4.507667929538659
 20
1.1204381270310271
 30
0.0
 11
4.5069594538968314
 21
1.0798495864531801
 31
0.0
  0
LINE
  5
112AD
  8
0
 10
4.2035100152756231
 20
0.9515896028359058
 30
0.0
 11
3.966174388024867
 21
0.9515896028359058
 31
0.0
  0
ARC
  5
112AE
  8
0
 10
3.5433069667608712
 20
3.0118344140359792
 30
0.0
 40
2.1653543307000782
 50
288.0920369795351235
 51
296.2310625884945807
  0
ARC
  5
112AF
  8
0
 10
4.4951612510941397
 20
1.0800555248580621
 30
0.0
 40
0.0118
 50
296.2310625884929891
 51
358.9999999566716724
  0
ARC
  5
112B0
  8
0
 10
4.2035100152756337
 20
0.9909896028357625
 30
0.0
 40
0.0394
 50
269.9999999999845954
 51
288.0920369795862825
  0
ARC
  5
112B1
  8
0
 10
4.4958697267359682
 20
1.1206440654359071
 30
0.0
 40
0.0118
 50
358.9999999566801989
 51
90.0
  0
LINE
  5
112B2
  8
0
 10
4.5003767594261168
 20
1.0694707020990799
 30
0.0
 11
3.9117677894163232
 21
1.0694707020990799
 31
0.0
  0
ARC
  5
112B3
  8
0
 10
3.5433069662783692
 20
1.3684584075400279
 30
0.0
 40
0.7086614179897556
 50
311.9495166018319878
 51
323.9672064225836152
  0
ARC
  5
112B4
  8
0
 10
3.5433069662783692
 20
1.3684584075400279
 30
0.0
 40
0.7086614179897556
 50
293.9165344438566763
 51
306.8697534736496095
  0
ARC
  5
112B5
  8
0
 10
3.8385825573728538
 20
0.702649961127392
 30
0.0
 40
0.0196850394126312
 50
113.9165344438556957
 51
180.5177261070888051
  0
LINE
  5
112B6
  8
0
 10
3.8484250770608979
 20
0.7024720890359079
 30
0.0
 11
4.7906009249896293
 21
0.1471298215578116
 31
0.0
  0
ARC
  5
112B7
  8
0
 10
4.7865386725780139
 20
0.1402379346359037
 30
0.0
 40
0.008
 50
269.9999999999936904
 51
59.4838273430915976
  0
ARC
  5
112B8
  8
0
 10
4.7795274392608986
 20
0.0708660556359071
 30
0.0
 40
0.0708661416499998
 50
0.0
 51
54.5322722472136618
  0
ARC
  5
112B9
  8
0
 10
4.8092163016840921
 20
0.1125379346372615
 30
0.0
 40
0.0197
 50
54.5322722454302919
 51
90.0000000006173764
  0
LINE
  5
112BA
  8
0
 10
4.8469374409289001
 20
0.0294013194039113
 30
0.0
 11
4.8311829519429006
 21
0.0136468304179083
 31
0.0
  0
ARC
  5
112BB
  8
0
 10
4.822839091924898
 20
0.0219906904359117
 30
0.0
 40
0.0118
 50
270.0
 51
314.9999999999969873
  0
LINE
  5
112BC
  8
0
 10
3.5433069667609001
 20
3.514127698335908
 30
0.0
 11
5.0162530333070663
 21
8.0425558497224312
 31
0.0
  0
ENDBLK
  5
112C0
  8
0
  0
ENDSEC
  0
SECTION
  2
ENTITIES
  0
ATTDEF
  5
3930
  8
DEFPOINTS
 10
8602.5164616067868337
 20
2088.6113205924539216
 30
0.0
 40
0.001
  1
K-EX36241T-4BPT
  3

  2
MODELNUMBER
 70
     0
1001
ACDBATTR
1070
     0
1070
     1
  0
ATTDEF
  5
3931
  8
DEFPOINTS
 10
8602.5164616067868337
 20
2088.6096539257878248
 30
0.0
 40
0.001
  1
ORIANA
  3

  2
TRADENAME
 70
     0
1001
ACDBATTR
1070
     0
1070
     1
  0
ATTDEF
  5
3932
  8
DEFPOINTS
 10
8602.5164616067868337
 20
2088.6079872591208186
 30
0.0
 40
0.001
  1
BATH FAUCET
  3

  2
PRODUCT
 70
     0
1001
ACDBATTR
1070
     0
1070
     1
  0
LINE
  5
11968
  8
0
 10
8602.0937462621877785
 20
2078.5282966966701679
 30
0.0
 11
8602.0937462621877785
 21
2088.4101864604199363
 31
0.0
  0
LINE
  5
11969
  8
0
 10
8605.9716944520241668
 20
2088.4298864604202208
 30
0.0
 11
8605.9716944520241668
 21
2088.6070368541190874
 31
0.0
  0
LINE
  5
1196A
  8
0
 10
8601.2472895693372266
 20
2088.4298864604202208
 30
0.0
 11
8601.2472895693372266
 21
2088.6070368541190874
 31
0.0
  0
LINE
  5
1196B
  8
0
 10
8603.8063446873384237
 20
2088.6070368541190874
 30
0.0
 11
8601.2472895693372266
 21
2088.6070368541190874
 31
0.0
  0
LINE
  5
1196C
  8
0
 10
8599.0819352385879029
 20
2088.6070368541190874
 30
0.0
 11
8596.5228801204884803
 21
2088.6070368541190874
 31
0.0
  0
LINE
  5
1196D
  8
0
 10
8605.9716944520241668
 20
2088.6070368541190874
 30
0.0
 11
8608.5307587023507949
 21
2088.6070368541190874
 31
0.0
  0
ARC
  5
1196E
  8
0
 10
8602.5268171283369156
 20
2078.5282966966701679
 30
0.0
 40
0.4330708661499996
 50
180.0
 51
0.0
  0
LINE
  5
1196F
  8
0
 10
8602.9598879944878718
 20
2078.5282966966701679
 30
0.0
 11
8602.9598879944878718
 21
2088.4101864604199363
 31
0.0
  0
LINE
  5
11970
  8
0
 10
8596.5425801204874006
 20
2088.4101864604199363
 30
0.0
 11
8599.0622352385871636
 21
2088.4101864604199363
 31
0.0
  0
LINE
  5
11971
  8
0
 10
8601.2669895693361468
 20
2088.4101864604199363
 30
0.0
 11
8603.7866446873376844
 21
2088.4101864604199363
 31
0.0
  0
LINE
  5
11972
  8
0
 10
8605.9913944520249061
 20
2088.4101864604199363
 30
0.0
 11
8608.5110587023536937
 21
2088.4101864604199363
 31
0.0
  0
LINE
  5
11973
  8
0
 10
8603.8063446873384237
 20
2088.4298864604202208
 30
0.0
 11
8603.8063446873384237
 21
2088.6070368541190874
 31
0.0
  0
ARC
  5
11974
  8
0
 10
8601.2669895693361468
 20
2088.4298864604202208
 30
0.0
 40
0.0197
 50
180.0
 51
270.0
  0
ARC
  5
11975
  8
0
 10
8603.7866446873376844
 20
2088.4298864604202208
 30
0.0
 40
0.0197
 50
270.0
 51
359.9999999999740226
  0
ARC
  5
11976
  8
0
 10
8605.9913944520249061
 20
2088.4298864604202208
 30
0.0
 40
0.0197
 50
180.0000000000260059
 51
270.0
  0
LINE
  5
11977
  8
0
 10
8606.9461084669874253
 20
2087.6260899062199314
 30
0.0
 11
8606.00426941310252
 21
2087.0709461536680465
 31
0.0
  0
LINE
  5
11978
  8
0
 10
8606.9461084669874253
 20
2087.6260899062199314
 30
0.0
 11
8607.5563446873857174
 21
2087.6260899062199314
 31
0.0
  0
LINE
  5
11979
  8
0
 10
8606.5871262533055415
 20
2087.8743351693201475
 30
0.0
 11
8607.9153269010694203
 21
2087.8743351693201475
 31
0.0
  0
ARC
  5
1197A
  8
0
 10
8607.251226559148563
 20
2088.2920762065059535
 30
0.0
 40
0.7086613921864564
 50
216.120048013805814
 51
246.083466624786098
  0
ARC
  5
1197B
  8
0
 10
8606.9559509945047466
 20
2087.6262677862291639
 30
0.0
 40
0.0196850306000473
 50
359.4822506132883859
 51
66.0834666248919973
  0
LINE
  5
1197C
  8
0
 10
8606.9639314119867777
 20
2087.6442626012189976
 30
0.0
 11
8607.5385217423881841
 21
2087.6442626012189976
 31
0.0
  0
LINE
  5
1197D
  8
0
 10
8606.3733998055868142
 20
2088.0164856730198153
 30
0.0
 11
8608.1290533487881476
 21
2088.0164856730198153
 31
0.0
  0
LINE
  5
1197E
  8
0
 10
8606.3663075893491623
 20
2087.9644787758011262
 30
0.0
 11
8606.3656093699737539
 21
2088.004479734610868
 31
0.0
  0
ARC
  5
1197F
  8
0
 10
8607.2512265771874809
 20
2089.9333025923201603
 30
0.0
 40
2.1653543307006768
 50
246.0817711637714922
 51
251.7974310509839029
  0
ARC
  5
11980
  8
0
 10
8606.5871262533073605
 20
2087.9137351693211713
 30
0.0
 40
0.0394
 50
251.7974310513216096
 51
269.999999999791612
  0
ARC
  5
11981
  8
0
 10
8606.378105792153292
 20
2087.9646847142089428
 30
0.0
 40
0.0118
 50
181.0000000610052098
 51
246.0817711638879928
  0
ARC
  5
11982
  8
0
 10
8606.3774075727778836
 20
2088.0046856730200489
 30
0.0
 40
0.0118
 50
90.0
 51
181.0000000611094038
  0
LINE
  5
11983
  8
0
 10
8606.3653998055888223
 20
2088.0244856730200809
 30
0.0
 11
8606.3653998055888223
 21
2088.4101864604199363
 31
0.0
  0
ARC
  5
11984
  8
0
 10
8606.3733998055868142
 20
2088.0244856730200809
 30
0.0
 40
0.008
 50
180.000000000052097
 51
270.0
  0
LINE
  5
11985
  8
0
 10
8606.3733216893706413
 20
2087.9538980390689176
 30
0.0
 11
8608.1291314650043205
 21
2087.9538980390689176
 31
0.0
  0
LINE
  5
11986
  8
0
 10
8608.5307587023507949
 20
2088.4298864604202208
 30
0.0
 11
8608.5307587023507949
 21
2088.6070368541190874
 31
0.0
  0
ARC
  5
11987
  8
0
 10
8608.5110587023536937
 20
2088.4298864604202208
 30
0.0
 40
0.0197
 50
270.0
 51
359.9999999999740226
  0
LINE
  5
11988
  8
0
 10
8607.5563446873857174
 20
2087.6260899062199314
 30
0.0
 11
8608.4981837412706227
 21
2087.0709461536680465
 31
0.0
  0
ARC
  5
11989
  8
0
 10
8607.2512265952282178
 20
2088.2920762065059535
 30
0.0
 40
0.7086613921864564
 50
293.9165333752138736
 51
323.8799519861942144
  0
ARC
  5
1198A
  8
0
 10
8607.5465021598702151
 20
2087.6262677862291639
 30
0.0
 40
0.0196850306000473
 50
113.9165333751080027
 51
180.5177493867116141
  0
LINE
  5
1198B
  8
0
 10
8608.1361455650239805
 20
2087.9644787758011262
 30
0.0
 11
8608.1368437844012078
 21
2088.004479734610868
 31
0.0
  0
ARC
  5
1198C
  8
0
 10
8607.2512265771874809
 20
2089.9333025923201603
 30
0.0
 40
2.1653543307006768
 50
288.2025689490160971
 51
293.9182288362284226
  0
ARC
  5
1198D
  8
0
 10
8607.9153269010694203
 20
2087.9137351693211713
 30
0.0
 40
0.0394
 50
270.000000000208388
 51
288.2025689486783904
  0
ARC
  5
1198E
  8
0
 10
8608.1243473622234887
 20
2087.9646847142089428
 30
0.0
 40
0.0118
 50
293.9182288361120072
 51
358.9999999389947902
  0
ARC
  5
1198F
  8
0
 10
8608.1250455816007161
 20
2088.0046856730200489
 30
0.0
 40
0.0118
 50
358.9999999388905962
 51
90.0
  0
LINE
  5
11990
  8
0
 10
8608.1370533487897774
 20
2088.0244856730200809
 30
0.0
 11
8608.1370533487897774
 21
2088.4101864604199363
 31
0.0
  0
ARC
  5
11991
  8
0
 10
8608.1290533487881476
 20
2088.0244856730200809
 30
0.0
 40
0.008
 50
270.0
 51
359.9999999999478746
  0
LINE
  5
11992
  8
0
 10
8596.5228801204884803
 20
2088.4298864604202208
 30
0.0
 11
8596.5228801204884803
 21
2088.6070368541190874
 31
0.0
  0
LINE
  5
11993
  8
0
 10
8596.9165809079586325
 20
2084.008626617920072
 30
0.0
 11
8596.9165809079586325
 21
2085.7605801612198775
 31
0.0
  0
LINE
  5
11994
  8
0
 10
8596.9165809079586325
 20
2085.7920652006200726
 30
0.0
 11
8596.9165809079586325
 21
2086.162165988020206
 31
0.0
  0
LINE
  5
11995
  8
0
 10
8596.9165809079586325
 20
2086.1936510274199463
 30
0.0
 11
8596.9165809079586325
 21
2088.4101864604199363
 31
0.0
  0
ARC
  5
11996
  8
0
 10
8596.5425801204874006
 20
2088.4298864604202208
 30
0.0
 40
0.0197
 50
180.0000000000260059
 51
270.0
  0
LINE
  5
11997
  8
0
 10
8596.9165809079586325
 20
2086.1936510274199463
 30
0.0
 11
8598.6882344511141127
 21
2086.1936510274199463
 31
0.0
  0
LINE
  5
11998
  8
0
 10
8596.9283809079588536
 20
2086.1739659880199724
 30
0.0
 11
8598.6764344511157105
 21
2086.1739659880199724
 31
0.0
  0
ARC
  5
11999
  8
0
 10
8596.9283809079588536
 20
2086.162165988020206
 30
0.0
 40
0.0118
 50
90.0
 51
180.0
  0
LINE
  5
1199A
  8
0
 10
8596.9854785456882382
 20
2086.1936510274199463
 30
0.0
 11
8596.9854785456882382
 21
2086.1739659880199724
 31
0.0
  0
LINE
  5
1199B
  8
0
 10
8596.9854785456882382
 20
2085.7802652006198514
 30
0.0
 11
8596.9854785456882382
 21
2085.7605801612198775
 31
0.0
  0
LINE
  5
1199C
  8
0
 10
8596.9283809079588536
 20
2085.7802652006198514
 30
0.0
 11
8598.6764344511157105
 21
2085.7802652006198514
 31
0.0
  0
LINE
  5
1199D
  8
0
 10
8596.9165809079586325
 20
2085.7605801612198775
 30
0.0
 11
8598.6882344511141127
 21
2085.7605801612198775
 31
0.0
  0
ARC
  5
1199E
  8
0
 10
8596.9283809079588536
 20
2085.7920652006200726
 30
0.0
 40
0.0118
 50
180.0000000000260059
 51
270.0
  0
LINE
  5
1199F
  8
0
 10
8597.1628001085864526
 20
2083.9889266179197875
 30
0.0
 11
8596.9362809079593717
 21
2083.9889266179197875
 31
0.0
  0
ARC
  5
119A0
  8
0
 10
8596.9362809079593717
 20
2084.008626617920072
 30
0.0
 40
0.0197
 50
180.0
 51
270.0
  0
LINE
  5
119A1
  8
0
 10
8597.2118714590869786
 20
2083.9889266179197875
 30
0.0
 11
8597.4382344511868723
 21
2083.9889266179197875
 31
0.0
  0
LINE
  5
119A2
  8
0
 10
8597.1921714590880583
 20
2085.0716037833190057
 30
0.0
 11
8597.1921714590880583
 21
2084.008626617920072
 31
0.0
  0
LINE
  5
119A3
  8
0
 10
8597.2118714590869786
 20
2085.0519187439199413
 30
0.0
 11
8598.3929588605878962
 21
2085.0519187439199413
 31
0.0
  0
ARC
  5
119A4
  8
0
 10
8597.2118714590869786
 20
2085.0322187439201116
 30
0.0
 40
0.0197
 50
90.0
 51
179.999999999947903
  0
LINE
  5
119A5
  8
0
 10
8597.1579418540895858
 20
2085.0912888227198891
 30
0.0
 11
8598.4468735049886163
 21
2085.0912888227198891
 31
0.0
  0
LINE
  5
119A6
  8
0
 10
8597.1843750662083039
 20
2085.0716037833190057
 30
0.0
 11
8598.4204402928662603
 21
2085.0716037833190057
 31
0.0
  0
LINE
  5
119A7
  8
0
 10
8597.1579418540895858
 20
2085.0912888227198891
 30
0.0
 11
8597.1482548694712023
 21
2084.0059372630771577
 31
0.0
  0
LINE
  5
119A8
  8
0
 10
8597.1917773198692885
 20
2085.0716037833190057
 30
0.0
 11
8597.1824993584705226
 21
2084.0084547051710615
 31
0.0
  0
ARC
  5
119A9
  8
0
 10
8597.206113009744513
 20
2085.125252541926784
 30
0.0
 40
0.058940601115656
 50
215.1862633943567005
 51
236.0433541276802885
  0
ARC
  5
119AA
  8
0
 10
8597.1910530535405996
 20
2085.1028147700658337
 30
0.0
 40
0.0319174123086931
 50
235.9691695264170903
 51
257.9229383387187227
  0
LINE
  5
119AB
  8
0
 10
8597.211856498486668
 20
2085.0716037833190057
 30
0.0
 11
8597.211856498486668
 21
2085.0519187439199413
 31
0.0
  0
ARC
  5
119AC
  8
0
 10
8597.2118714590869786
 20
2084.008626617920072
 30
0.0
 40
0.0197
 50
180.0
 51
270.0
  0
ARC
  5
119AD
  8
0
 10
8597.1628001085864526
 20
2084.008626617920072
 30
0.0
 40
0.0197
 50
270.0
 51
359.5000000025617055
  0
ARC
  5
119AE
  8
0
 10
8597.1679533670594537
 20
2084.0070989112728057
 30
0.0
 40
0.0197327198785329
 50
183.3749043594455088
 51
247.061227744681787
  0
CIRCLE
  5
119AF
  8
0
 10
8597.8024076795882138
 20
2084.4219974841198564
 30
0.0
 40
0.5511811024000002
  0
CIRCLE
  5
119B0
  8
0
 10
8597.8024076795372821
 20
2084.4219974841198564
 30
0.0
 40
0.5157480314499991
  0
CIRCLE
  5
119B1
  8
0
 10
8597.8024076795372821
 20
2084.4219974841198564
 30
0.0
 40
0.5196850393499993
  0
ARC
  5
119B2
  8
0
 10
8597.4382344511868723
 20
2084.0086116573202162
 30
0.0
 40
0.0196850394000362
 50
270.0
 51
318.8773927741091256
  0
LINE
  5
119B3
  8
0
 10
8599.0819352385879029
 20
2088.4298864604202208
 30
0.0
 11
8599.0819352385879029
 21
2088.6070368541190874
 31
0.0
  0
LINE
  5
119B4
  8
0
 10
8598.6882344511141127
 20
2084.008626617920072
 30
0.0
 11
8598.6882344511141127
 21
2085.7605801612198775
 31
0.0
  0
LINE
  5
119B5
  8
0
 10
8598.6882344511141127
 20
2085.7920652006200726
 30
0.0
 11
8598.6882344511141127
 21
2086.162165988020206
 31
0.0
  0
LINE
  5
119B6
  8
0
 10
8598.6882344511141127
 20
2086.1936510274199463
 30
0.0
 11
8598.6882344511141127
 21
2088.4101864604199363
 31
0.0
  0
ARC
  5
119B7
  8
0
 10
8599.0622352385871636
 20
2088.4298864604202208
 30
0.0
 40
0.0197
 50
270.0
 51
359.9999999999740226
  0
ARC
  5
119B8
  8
0
 10
8598.6764344511157105
 20
2086.162165988020206
 30
0.0
 40
0.0118
 50
0.0
 51
90.0
  0
LINE
  5
119B9
  8
0
 10
8598.6193368133881449
 20
2086.1936510274199463
 30
0.0
 11
8598.6193368133881449
 21
2086.1739659880199724
 31
0.0
  0
LINE
  5
119BA
  8
0
 10
8598.6193368133881449
 20
2085.7802652006198514
 30
0.0
 11
8598.6193368133881449
 21
2085.7605801612198775
 31
0.0
  0
ARC
  5
119BB
  8
0
 10
8598.6764344511157105
 20
2085.7920652006200726
 30
0.0
 40
0.0118
 50
270.0
 51
359.9999999999740226
  0
LINE
  5
119BC
  8
0
 10
8598.4420152504881116
 20
2083.9889266179197875
 30
0.0
 11
8598.6685344511188305
 21
2083.9889266179197875
 31
0.0
  0
ARC
  5
119BD
  8
0
 10
8598.6685344511188305
 20
2084.008626617920072
 30
0.0
 40
0.0197
 50
270.0
 51
0.0
  0
LINE
  5
119BE
  8
0
 10
8598.3929438999875856
 20
2083.9889266179197875
 30
0.0
 11
8598.1665809078876919
 21
2083.9889266179197875
 31
0.0
  0
LINE
  5
119BF
  8
0
 10
8598.4126438999883248
 20
2085.0716037833190057
 30
0.0
 11
8598.4126438999883248
 21
2084.008626617920072
 31
0.0
  0
ARC
  5
119C0
  8
0
 10
8598.3929438999875856
 20
2085.0322187439201116
 30
0.0
 40
0.0197
 50
0.0000000000521102
 51
90.0
  0
LINE
  5
119C1
  8
0
 10
8598.4468735049886163
 20
2085.0912888227198891
 30
0.0
 11
8598.4565604896033619
 21
2084.0059372630771577
 31
0.0
  0
LINE
  5
119C2
  8
0
 10
8598.4130380392052757
 20
2085.0716037833190057
 30
0.0
 11
8598.4223160006040416
 21
2084.0084547051710615
 31
0.0
  0
ARC
  5
119C3
  8
0
 10
8598.3987023493300512
 20
2085.125252541926784
 30
0.0
 40
0.058940601115656
 50
303.9566458723197115
 51
324.8137366056433279
  0
ARC
  5
119C4
  8
0
 10
8598.4137623055357835
 20
2085.1028147700658337
 30
0.0
 40
0.0319174123086931
 50
282.0770616612812773
 51
304.0308304735829097
  0
LINE
  5
119C5
  8
0
 10
8598.3929588605878962
 20
2085.0716037833190057
 30
0.0
 11
8598.3929588605878962
 21
2085.0519187439199413
 31
0.0
  0
ARC
  5
119C6
  8
0
 10
8598.3929438999875856
 20
2084.008626617920072
 30
0.0
 40
0.0197
 50
270.0
 51
0.0
  0
ARC
  5
119C7
  8
0
 10
8598.4420152504881116
 20
2084.008626617920072
 30
0.0
 40
0.0197
 50
180.4999999974382945
 51
270.0
  0
ARC
  5
119C8
  8
0
 10
8598.4368619920132915
 20
2084.0070989112728057
 30
0.0
 40
0.0197327198785329
 50
292.9387722553180993
 51
356.6250956405544912
  0
ARC
  5
119C9
  8
0
 10
8598.1665809078876919
 20
2084.0086116573202162
 30
0.0
 40
0.0196850394000362
 50
221.1226072258907891
 51
270.0
  0
LINE
  5
119CA
  8
0
 10
8597.703982482687934
 20
2086.162165988020206
 30
0.0
 11
8597.703982482687934
 21
2085.7920652006200726
 31
0.0
  0
LINE
  5
119CB
  8
0
 10
8597.9008328763884492
 20
2086.162165988020206
 30
0.0
 11
8597.9008328763884492
 21
2085.7920652006200726
 31
0.0
  0
ARC
  5
119CC
  8
0
 10
8597.7157824826881551
 20
2086.162165988020206
 30
0.0
 40
0.0118
 50
90.0
 51
180.0
  0
ARC
  5
119CD
  8
0
 10
8597.889032876388228
 20
2086.162165988020206
 30
0.0
 40
0.0118
 50
0.0
 51
90.0
  0
ARC
  5
119CE
  8
0
 10
8597.7157824826881551
 20
2085.7920652006200726
 30
0.0
 40
0.0118
 50
180.0000000000260059
 51
270.0
  0
ARC
  5
119CF
  8
0
 10
8597.889032876388228
 20
2085.7920652006200726
 30
0.0
 40
0.0118
 50
270.0
 51
359.9999999999740226
  0
LINE
  5
119D0
  8
0
 10
8597.5264582377076295
 20
2083.8982671750550253
 30
0.0
 11
8597.5264582377076295
 21
2083.8493619056530406
 31
0.0
  0
ARC
  5
119D1
  8
0
 10
8597.8024076795882138
 20
2084.3196352793202095
 30
0.0
 40
0.5511811024002184
 50
240.6773660990538986
 51
253.9845716979801011
  0
ARC
  5
119D2
  8
0
 10
8597.5382582377060317
 20
2083.8493619056530406
 30
0.0
 40
0.0118
 50
180.0
 51
240.6773660990538986
  0
ARC
  5
119D3
  8
0
 10
8597.8055619256956561
 20
2084.3420570020070954
 30
0.0
 40
0.5736114976331562
 50
254.2996384304298942
 51
269.6849332622774114
  0
LINE
  5
119D4
  8
0
 10
8597.4992580732887291
 20
2083.9616705091948461
 30
0.0
 11
8597.4992580732887291
 21
2083.9475920896779826
 31
0.0
  0
LINE
  5
119D5
  8
0
 10
8597.656738388188387
 20
2083.8904139392411707
 30
0.0
 11
8597.656738388188387
 21
2083.8781771156218383
 31
0.0
  0
ARC
  5
119D6
  8
0
 10
8597.8024080992126983
 20
2084.4219986264488398
 30
0.0
 40
0.5629933395245083
 50
237.4210578464787886
 51
255.0046028648650918
  0
LINE
  5
119D7
  8
0
 10
8597.5030975452882558
 20
2083.9451604016189776
 30
0.0
 11
8597.5038201435982046
 21
2083.9054036715278926
 31
0.0
  0
LINE
  5
119D8
  8
0
 10
8597.5890252243898431
 20
2083.9010099038428052
 30
0.0
 11
8597.5852094562214916
 21
2083.8910908462730731
 31
0.0
  0
ARC
  5
119D9
  8
0
 10
8597.5044706150565617
 20
2083.9052443286150265
 30
0.0
 40
0.0007337302306574
 50
110.6863613067808956
 51
152.9786301942721991
  0
ARC
  5
119DA
  8
0
 10
8597.5062191573852033
 20
2083.9003436973939642
 30
0.0
 40
0.005936850735661
 50
93.3137419966452057
 51
109.7661304700197036
  0
ARC
  5
119DB
  8
0
 10
8597.5085193323884596
 20
2083.8274766484100837
 30
0.0
 40
0.0788382996245938
 50
83.3977726428381203
 51
91.9214130322334597
  0
ARC
  5
119DC
  8
0
 10
8597.4761726271535736
 20
2083.5150842303551144
 30
0.0
 40
0.392896346623296
 50
79.440415248752501
 51
83.9497983466346795
  0
ARC
  5
119DD
  8
0
 10
8597.4869025741863879
 20
2083.5578545069279244
 30
0.0
 40
0.34889456927275
 50
75.500507609598543
 51
79.8854977921667313
  0
ARC
  5
119DE
  8
0
 10
8597.5557688960325322
 20
2083.8231351213339622
 30
0.0
 40
0.0748214526237264
 50
68.6572322765040468
 51
75.6951917954747557
  0
ARC
  5
119DF
  8
0
 10
8597.5793527754649404
 20
2083.8838131838201662
 30
0.0
 40
0.0097221351382172
 50
56.2412007028518701
 51
67.9672217410471688
  0
ARC
  5
119E0
  8
0
 10
8597.5836906709464529
 20
2083.8903797371908695
 30
0.0
 40
0.0018527353343726
 50
38.8504591106382478
 51
54.9248581639367828
  0
ARC
  5
119E1
  8
0
 10
8597.5847057179616968
 20
2083.8911955103521905
 30
0.0
 40
0.0005505066532134
 50
14.0151247124436296
 51
38.9978525809418883
  0
ARC
  5
119E2
  8
0
 10
8597.5847259595557261
 20
2083.8912242548649374
 30
0.0
 40
0.0005244103631135
 50
356.8120367822331787
 51
11.5028418654095894
  0
ARC
  5
119E3
  8
0
 10
8597.5843444453785196
 20
2083.8918279521089971
 30
0.0
 40
0.0011364720732166
 50
281.4103961375039944
 51
319.5645287346085865
  0
ARC
  5
119E4
  8
0
 10
8597.5817924578459497
 20
2083.902938859941969
 30
0.0
 40
0.0125363214611471
 50
269.9231256705758142
 51
282.7972747636254098
  0
ARC
  5
119E5
  8
0
 10
8597.5850371555425227
 20
2084.0475380635812144
 30
0.0
 40
0.1571693583390045
 50
261.6113647494664747
 51
268.8109347679157963
  0
ARC
  5
119E6
  8
0
 10
8597.6234366433218383
 20
2084.3463305149689404
 30
0.0
 40
0.4584013161266373
 50
258.8213856408531228
 51
262.311480116069788
  0
ARC
  5
119E7
  8
0
 10
8597.574300590546045
 20
2084.113824070148894
 30
0.0
 40
0.2208023227865852
 50
252.3387458488647042
 51
259.6331510632908817
  0
ARC
  5
119E8
  8
0
 10
8597.5122847249622282
 20
2083.917832769798224
 30
0.0
 40
0.0152382515073688
 50
238.7914452840057038
 51
250.952320410848813
  0
ARC
  5
119E9
  8
0
 10
8597.5051233881895314
 20
2083.9060611957620495
 30
0.0
 40
0.0014597207211377
 50
206.7722516158719088
 51
239.7924393191005947
  0
ARC
  5
119EA
  8
0
 10
8597.5257660147217393
 20
2083.8841483665801206
 30
0.0
 40
0.0184109751719955
 50
86.1437296878802243
 51
95.7463261641498491
  0
ARC
  5
119EB
  8
0
 10
8597.5190466021595057
 20
2083.779112290033936
 30
0.0
 40
0.1236616692280296
 50
81.3216599045222637
 51
86.3104707801273463
  0
ARC
  5
119EC
  8
0
 10
8597.502364049987591
 20
2083.6592102082609017
 30
0.0
 40
0.2447134056487314
 50
78.3506868770768108
 51
81.696306925713472
  0
ARC
  5
119ED
  8
0
 10
8597.5279623933402036
 20
2083.7789415484439814
 30
0.0
 40
0.1222827449301365
 50
73.5254310627120873
 51
78.7699501260066484
  0
ARC
  5
119EE
  8
0
 10
8597.5581330523000361
 20
2083.8807528855459168
 30
0.0
 40
0.016095220981962
 50
63.1696199839793309
 51
73.7367883827269708
  0
ARC
  5
119EF
  8
0
 10
8597.5648320007676375
 20
2083.8939970952701515
 30
0.0
 40
0.0012532197090185
 50
38.1949899036947329
 51
63.1696199840028427
  0
ARC
  5
119F0
  8
0
 10
8597.5656157452158368
 20
2083.8946482728101728
 30
0.0
 40
0.0002361828122272
 50
277.4770385238717267
 51
31.5947204259536392
  0
ARC
  5
119F1
  8
0
 10
8597.5640904796346149
 20
2083.9828674002610569
 30
0.0
 40
0.0884669869157824
 50
258.8123676170193903
 51
271.0077976073695254
  0
ARC
  5
119F2
  8
0
 10
8597.574853104120848
 20
2084.073950173636149
 30
0.0
 40
0.1800477108672533
 50
254.4881808138704002
 51
261.0768179182107929
  0
ARC
  5
119F3
  8
0
 10
8597.5307691065245308
 20
2083.9152453470519504
 30
0.0
 40
0.0153339995388773
 50
241.7159485124780929
 51
254.6177809178543896
  0
ARC
  5
119F4
  8
0
 10
8597.5238415502572025
 20
2083.9023213891100568
 30
0.0
 40
0.0006708776553477
 50
198.8723641599590906
 51
239.712126877348112
  0
ARC
  5
119F5
  8
0
 10
8597.523448871799701
 20
2083.9020791778298189
 30
0.0
 40
0.0002434424986293
 50
112.553575747021199
 51
174.0563632728604091
  0
ARC
  5
119F6
  8
0
 10
8597.5241454495753715
 20
2083.9006216270731784
 30
0.0
 40
0.0018586032601291
 50
96.8855132693699943
 51
115.1521302090603029
  0
LINE
  5
119F7
  8
0
 10
8597.6283441891537223
 20
2083.886589198474212
 30
0.0
 11
8597.6313148552144412
 21
2083.8585241625760318
 31
0.0
  0
LINE
  5
119F8
  8
0
 10
8597.7209771529669524
 20
2083.8768647691072147
 30
0.0
 11
8597.713634580206417
 21
2083.8513292110310431
 31
0.0
  0
ARC
  5
119F9
  8
0
 10
8597.6321282903099927
 20
2083.8582652267268713
 30
0.0
 40
0.0009491053336509
 50
111.7222208036381943
 51
151.4865876289156006
  0
ARC
  5
119FA
  8
0
 10
8597.6352723211894045
 20
2083.8498506475311842
 30
0.0
 40
0.0099316714394919
 50
95.3205834260139682
 51
110.6057060202476947
  0
ARC
  5
119FB
  8
0
 10
8597.6440446673568658
 20
2083.7491555973219874
 30
0.0
 40
0.1110079529861576
 50
87.8844432684959145
 51
95.0094880223155087
  0
ARC
  5
119FC
  8
0
 10
8597.6357399093612912
 20
2083.4347288450530868
 30
0.0
 40
0.4255398225058208
 50
83.8393812451513156
 51
88.3298425776451239
  0
ARC
  5
119FD
  8
0
 10
8597.6495039166311471
 20
2083.5455848817291553
 30
0.0
 40
0.3138519778547133
 50
80.2936933904432664
 51
84.1657745077809381
  0
ARC
  5
119FE
  8
0
 10
8597.6882204775356513
 20
2083.7719360733030953
 30
0.0
 40
0.0842134923710411
 50
74.5264829236410264
 51
80.2936933904432664
  0
ARC
  5
119FF
  8
0
 10
8597.707379524845237
 20
2083.8411455724549342
 30
0.0
 40
0.0124010709751298
 50
63.3026140904345667
 51
74.5264829236410264
  0
ARC
  5
11A00
  8
0
 10
8597.7119916079918767
 20
2083.8503167214557834
 30
0.0
 40
0.0021355322678764
 50
43.2892842447746489
 51
63.3026140904345667
  0
ARC
  5
11A01
  8
0
 10
8597.71321500148224
 20
2083.8514691572459014
 30
0.0
 40
0.0004548181677479
 50
357.6391722819279835
 51
43.2892842449409301
  0
ARC
  5
11A02
  8
0
 10
8597.7119097446902742
 20
2083.8531474795099712
 30
0.0
 40
0.0025062238179962
 50
275.0943332888303985
 51
313.489438766281296
  0
ARC
  5
11A03
  8
0
 10
8597.705124218158744
 20
2083.891198726445964
 30
0.0
 40
0.0411487366005765
 50
270.7599912188936742
 51
279.8058821879930065
  0
ARC
  5
11A04
  8
0
 10
8597.7036771941748157
 20
2084.201474304641124
 30
0.0
 40
0.3514263452789103
 50
263.8432454553828279
 51
270.3249066045303266
  0
ARC
  5
11A05
  8
0
 10
8597.6977944286190905
 20
2084.1810737805230929
 30
0.0
 40
0.3305328411039336
 50
260.4348896295970803
 51
264.4778522858802035
  0
ARC
  5
11A06
  8
0
 10
8597.655442645529547
 20
2083.9317209328510216
 30
0.0
 40
0.0776098157759854
 50
253.8561769700145021
 51
260.6773652041990772
  0
ARC
  5
11A07
  8
0
 10
8597.6366424273801385
 20
2083.8666153053991366
 30
0.0
 40
0.0098442208139141
 50
240.4770299016063007
 51
253.6017276705896109
  0
ARC
  5
11A08
  8
0
 10
8597.6324631200113799
 20
2083.8591999829368433
 30
0.0
 40
0.0013323832807358
 50
210.4792769610479013
 51
239.7284218701121006
  0
ARC
  5
11A09
  8
0
 10
8597.6542535027801932
 20
2083.8463078870768186
 30
0.0
 40
0.011341200019598
 50
91.2435872304025537
 51
105.3336000488172033
  0
ARC
  5
11A0A
  8
0
 10
8597.6578892515772168
 20
2083.7399742038751356
 30
0.0
 40
0.1177362242813599
 50
86.0844207645801589
 51
91.889444343668913
  0
ARC
  5
11A0B
  8
0
 10
8597.6521004040932894
 20
2083.6229180194991386
 30
0.0
 40
0.2349249414819876
 50
82.3397778554596727
 51
86.6253835727163448
  0
ARC
  5
11A0C
  8
0
 10
8597.6729713365803036
 20
2083.7739276962151962
 30
0.0
 40
0.0824826907697672
 50
76.8195586205817307
 51
82.7255616615539111
  0
ARC
  5
11A0D
  8
0
 10
8597.6894772777868639
 20
2083.8444863549671027
 30
0.0
 40
0.010019128326536
 50
65.3185014314181274
 51
76.7191469634033467
  0
ARC
  5
11A0E
  8
0
 10
8597.6932506063058099
 20
2083.8527208912191782
 30
0.0
 40
0.0009612825361729
 50
34.2813309207158312
 51
64.7274116630552641
  0
ARC
  5
11A0F
  8
0
 10
8597.6938151048289001
 20
2083.8532059052490695
 30
0.0
 40
0.0002366203229707
 50
295.283316713124691
 51
13.7982735807383801
  0
ARC
  5
11A10
  8
0
 10
8597.6849049203592585
 20
2083.9238347350828917
 30
0.0
 40
0.0714136016331204
 50
264.2370357680866846
 51
277.2491271888359279
  0
ARC
  5
11A11
  8
0
 10
8597.6896715154052799
 20
2084.0517169410418319
 30
0.0
 40
0.1992927137814047
 50
260.1782273389972033
 51
266.5659763913545817
  0
ARC
  5
11A12
  8
0
 10
8597.6602145659599046
 20
2083.8812423095791928
 30
0.0
 40
0.0262918788508574
 50
251.1564181058298004
 51
260.0583001459767729
  0
ARC
  5
11A13
  8
0
 10
8597.6524644482196891
 20
2083.8585331245349153
 30
0.0
 40
0.002296641608908
 50
230.7045879282964052
 51
251.1564181058298004
  0
ARC
  5
11A14
  8
0
 10
8597.6511696861325618
 20
2083.8569509759208813
 30
0.0
 40
0.0002522338462628
 50
175.2554513712468918
 51
230.7045879285896888
  0
ARC
  5
11A15
  8
0
 10
8597.6511884809297044
 20
2083.856894006884886
 30
0.0
 40
0.0002811522903121
 50
122.7837724722396047
 51
163.928738101305612
  0
ARC
  5
11A16
  8
0
 10
8597.651616873268722
 20
2083.8562931164960901
 30
0.0
 40
0.0010188887640469
 50
110.836556488834006
 51
124.7407342604430056
  0
LINE
  5
11A17
  8
0
 10
8597.7610904813082016
 20
2083.8391801019952254
 30
0.0
 11
8597.7545097144284227
 21
2083.8729015065559906
 31
0.0
  0
ARC
  5
11A18
  8
0
 10
8597.7614699372334144
 20
2083.8393040525311335
 30
0.0
 40
0.0004013942404672
 50
139.0361131455885015
 51
181.7898353831035081
  0
ARC
  5
11A19
  8
0
 10
8597.7621082369969372
 20
2083.8387498929550929
 30
0.0
 40
0.0012466867486212
 50
120.0656677242735952
 51
139.0361131455885015
  0
ARC
  5
11A1A
  8
0
 10
8597.7647134375947644
 20
2083.833689754651914
 30
0.0
 40
0.006936847753154
 50
103.2319930558169006
 51
117.7489168423957011
  0
ARC
  5
11A1B
  8
0
 10
8597.781118423490625
 20
2083.7514994979269431
 30
0.0
 40
0.0907446257473985
 50
92.9588160993318837
 51
101.4363623278919988
  0
ARC
  5
11A1C
  8
0
 10
8597.7996901514234196
 20
2083.4923041711249425
 30
0.0
 40
0.3505911452992987
 50
90.8268475023202058
 51
93.8033991402243714
  0
ARC
  5
11A1D
  8
0
 10
8597.7947119140335417
 20
2084.3027460685220831
 30
0.0
 40
0.4598872656356258
 50
269.9899032665538812
 51
270.9588338231041007
  0
ARC
  5
11A1E
  8
0
 10
8597.7474696621757175
 20
2081.4718755614871952
 30
0.0
 40
2.3644805075901432
 50
88.6686294071658807
 51
89.0962299443690284
  0
ARC
  5
11A1F
  8
0
 10
8597.7950635103461536
 20
2084.0953331218711355
 30
0.0
 40
0.2594756598373867
 50
264.7352169623330838
 51
267.7253219046231152
  0
ARC
  5
11A20
  8
0
 10
8597.7779592828574096
 20
2083.9097147745851544
 30
0.0
 40
0.0730709242556347
 50
258.9368257732139114
 51
264.7352169623330838
  0
ARC
  5
11A21
  8
0
 10
8597.7660003798337129
 20
2083.8485516781051956
 30
0.0
 40
0.0107496619717609
 50
245.914884909383801
 51
258.9368257732139114
  0
ARC
  5
11A22
  8
0
 10
8597.7621165900582128
 20
2083.8398633024121409
 30
0.0
 40
0.0012327457088175
 50
213.6563420917946985
 51
245.9148849094895866
  0
ARC
  5
11A23
  8
0
 10
8597.8142643788323767
 20
2083.0793605335998109
 30
0.0
 40
0.7619383579362806
 50
90.8916288853112491
 51
91.6813799639013212
  0
ARC
  5
11A24
  8
0
 10
8597.7974726171396469
 20
2083.7210961659798159
 30
0.0
 40
0.1200037560481303
 50
92.6577610899498438
 51
95.6118318348076883
  0
ARC
  5
11A25
  8
0
 10
8597.7894871469343343
 20
2083.8023654813141547
 30
0.0
 40
0.0383430595703733
 50
95.6118318348076883
 51
100.0865974817987052
  0
ARC
  5
11A26
  8
0
 10
8597.7845873500536982
 20
2083.8299101019561022
 30
0.0
 40
0.0103660308543242
 50
100.0865974817987052
 51
108.5110651109661006
  0
ARC
  5
11A27
  8
0
 10
8597.7817276045279868
 20
2083.8384514981771645
 30
0.0
 40
0.0013586120294697
 50
108.5110651109661006
 51
132.8644306422121986
  0
ARC
  5
11A28
  8
0
 10
8597.780923530284781
 20
2083.83931786307312
 30
0.0
 40
0.0001766122315734
 50
132.8644306422299053
 51
232.5847309701611891
  0
ARC
  5
11A29
  8
0
 10
8597.7832734715848346
 20
2083.8433370018437927
 30
0.0
 40
0.0048310239017689
 50
239.4267623395244868
 51
262.8877157097396093
  0
ARC
  5
11A2A
  8
0
 10
8597.7943601008264523
 20
2083.9133848948008563
 30
0.0
 40
0.0757484040716115
 50
261.1262489773725974
 51
267.8078587399108983
  0
ARC
  5
11A2B
  8
0
 10
8597.8395228347326338
 20
2085.6434125496648448
 30
0.0
 40
1.8063600837497089
 50
268.4754038013542186
 51
268.8226647469426212
  0
LINE
  5
11A2C
  8
0
 10
8598.0783571213705727
 20
2083.8982671750550253
 30
0.0
 11
8598.0783571213705727
 21
2083.8493619056530406
 31
0.0
  0
ARC
  5
11A2D
  8
0
 10
8597.8024076794881694
 20
2084.3196352793202095
 30
0.0
 40
0.5511811024002184
 50
286.0154283020199273
 51
299.322633900946073
  0
ARC
  5
11A2E
  8
0
 10
8598.0665571213703515
 20
2083.8493619056530406
 30
0.0
 40
0.0118
 50
299.322633900946073
 51
0.0
  0
ARC
  5
11A2F
  8
0
 10
8597.7992534333789081
 20
2084.3420570020070954
 30
0.0
 40
0.5736114976331562
 50
270.3150667377225886
 51
285.7003615695700773
  0
LINE
  5
11A30
  8
0
 10
8598.1055572857894731
 20
2083.9616705091948461
 30
0.0
 11
8598.1055572857894731
 21
2083.9475920896779826
 31
0.0
  0
LINE
  5
11A31
  8
0
 10
8597.9480769708879961
 20
2083.8904139392411707
 30
0.0
 11
8597.9480769708879961
 21
2083.8781771156218383
 31
0.0
  0
ARC
  5
11A32
  8
0
 10
8597.8024072598636849
 20
2084.4219986264488398
 30
0.0
 40
0.5629933395245083
 50
284.9953971351347946
 51
302.5789421535212114
  0
LINE
  5
11A33
  8
0
 10
8598.1017178137881274
 20
2083.9451604016189776
 30
0.0
 11
8598.1009952154763596
 21
2083.9054036715278926
 31
0.0
  0
LINE
  5
11A34
  8
0
 10
8598.0157901346847211
 20
2083.9010099038428052
 30
0.0
 11
8598.0196059028530726
 21
2083.8910908462730731
 31
0.0
  0
ARC
  5
11A35
  8
0
 10
8598.1003447440180025
 20
2083.9052443286150265
 30
0.0
 40
0.0007337302306574
 50
27.0213698057277583
 51
69.3136386932190334
  0
ARC
  5
11A36
  8
0
 10
8598.0985962016893609
 20
2083.9003436973939642
 30
0.0
 40
0.005936850735661
 50
70.2338695299802254
 51
86.6862580033547943
  0
ARC
  5
11A37
  8
0
 10
8598.0962960266861046
 20
2083.8274766484100837
 30
0.0
 40
0.0788382996245938
 50
88.0785869677665261
 51
96.6022273571618939
  0
ARC
  5
11A38
  8
0
 10
8598.1286427319191716
 20
2083.5150842303551144
 30
0.0
 40
0.392896346623296
 50
96.0502016533653347
 51
100.559584751247499
  0
ARC
  5
11A39
  8
0
 10
8598.1179127848918142
 20
2083.5578545069279244
 30
0.0
 40
0.34889456927275
 50
100.1145022078331976
 51
104.4994923904014001
  0
ARC
  5
11A3A
  8
0
 10
8598.049046463042032
 20
2083.8231351213339622
 30
0.0
 40
0.0748214526237264
 50
104.3048082045252016
 51
111.3427677234958963
  0
ARC
  5
11A3B
  8
0
 10
8598.0254625836096238
 20
2083.8838131838201662
 30
0.0
 40
0.0097221351382172
 50
112.0327782589528027
 51
123.7587992971481015
  0
ARC
  5
11A3C
  8
0
 10
8598.0211246881281113
 20
2083.8903797371908695
 30
0.0
 40
0.0018527353343726
 50
125.0751418360631959
 51
141.1495408893617025
  0
ARC
  5
11A3D
  8
0
 10
8598.0201096411146864
 20
2083.8911955103521905
 30
0.0
 40
0.0005505066532134
 50
141.0021474190581046
 51
165.984875287556406
  0
ARC
  5
11A3E
  8
0
 10
8598.020089399520657
 20
2083.8912242548649374
 30
0.0
 40
0.0005244103631135
 50
168.4971581345903928
 51
183.1879632177667929
  0
ARC
  5
11A3F
  8
0
 10
8598.0204709136942256
 20
2083.8918279521089971
 30
0.0
 40
0.0011364720732166
 50
220.4354712653914135
 51
258.5896038624960056
  0
ARC
  5
11A40
  8
0
 10
8598.0230229012304335
 20
2083.902938859941969
 30
0.0
 40
0.0125363214611471
 50
257.2027252363745902
 51
270.0768743294242995
  0
ARC
  5
11A41
  8
0
 10
8598.0197782035320415
 20
2084.0475380635812144
 30
0.0
 40
0.1571693583390045
 50
271.1890652320842037
 51
278.3886352505335822
  0
ARC
  5
11A42
  8
0
 10
8597.9813787157509068
 20
2084.3463305149689404
 30
0.0
 40
0.4584013161266373
 50
277.6885198839300983
 51
281.1786143591468772
  0
ARC
  5
11A43
  8
0
 10
8598.0305147685285192
 20
2084.113824070148894
 30
0.0
 40
0.2208023227865852
 50
280.3668489367090046
 51
287.6612541511353243
  0
ARC
  5
11A44
  8
0
 10
8598.092530634110517
 20
2083.917832769798224
 30
0.0
 40
0.0152382515073688
 50
289.0476795891513007
 51
301.2085547159942962
  0
ARC
  5
11A45
  8
0
 10
8598.0996919708850328
 20
2083.9060611957620495
 30
0.0
 40
0.0014597207211377
 50
300.2075606808994053
 51
333.2277483841281196
  0
ARC
  5
11A46
  8
0
 10
8598.0790493443546438
 20
2083.8841483665801206
 30
0.0
 40
0.0184109751719955
 50
84.2536738358501651
 51
93.8562703121197757
  0
ARC
  5
11A47
  8
0
 10
8598.0857687569150585
 20
2083.779112290033936
 30
0.0
 40
0.1236616692280296
 50
93.6895292198726537
 51
98.6783400954777363
  0
ARC
  5
11A48
  8
0
 10
8598.1024513090851542
 20
2083.6592102082609017
 30
0.0
 40
0.2447134056487314
 50
98.3036930742865422
 51
101.6493131229232034
  0
ARC
  5
11A49
  8
0
 10
8598.0768529657343606
 20
2083.7789415484439814
 30
0.0
 40
0.1222827449301365
 50
101.2300498739932948
 51
106.4745689372878985
  0
ARC
  5
11A4A
  8
0
 10
8598.0466823067745281
 20
2083.8807528855459168
 30
0.0
 40
0.016095220981962
 50
106.2632116172730008
 51
116.8303800160205981
  0
ARC
  5
11A4B
  8
0
 10
8598.0399833583032887
 20
2083.8939970952701515
 30
0.0
 40
0.0012532197090185
 50
116.8303800159970933
 51
141.8050100963052103
  0
ARC
  5
11A4C
  8
0
 10
8598.0391996138587274
 20
2083.8946482728101728
 30
0.0
 40
0.0002361828122272
 50
148.4052795740462898
 51
262.5229614761282733
  0
ARC
  5
11A4D
  8
0
 10
8598.0407248794417683
 20
2083.9828674002610569
 30
0.0
 40
0.0884669869157824
 50
268.9922023926304746
 51
281.187632382980496
  0
ARC
  5
11A4E
  8
0
 10
8598.0299622549537162
 20
2084.073950173636149
 30
0.0
 40
0.1800477108672533
 50
278.9231820817890934
 51
285.5118191861296282
  0
ARC
  5
11A4F
  8
0
 10
8598.0740462525500334
 20
2083.9152453470519504
 30
0.0
 40
0.0153339995388773
 50
285.382219082145582
 51
298.2840514875219924
  0
ARC
  5
11A50
  8
0
 10
8598.0809738088173617
 20
2083.9023213891100568
 30
0.0
 40
0.0006708776553477
 50
300.287873122651888
 51
341.1276358400407958
  0
ARC
  5
11A51
  8
0
 10
8598.0813664872766822
 20
2083.9020791778298189
 30
0.0
 40
0.0002434424986293
 50
5.9436367271396131
 51
67.446424252978801
  0
ARC
  5
11A52
  8
0
 10
8598.0806699095010117
 20
2083.9006216270731784
 30
0.0
 40
0.0018586032601291
 50
64.8478697909396402
 51
83.1144867306300341
  0
LINE
  5
11A53
  8
0
 10
8597.9764711699208419
 20
2083.886589198474212
 30
0.0
 11
8597.973500503860123
 21
2083.8585241625760318
 31
0.0
  0
LINE
  5
11A54
  8
0
 10
8597.8838382061076118
 20
2083.8768647691072147
 30
0.0
 11
8597.8911807788681472
 21
2083.8513292110310431
 31
0.0
  0
ARC
  5
11A55
  8
0
 10
8597.9726870687645714
 20
2083.8582652267268713
 30
0.0
 40
0.0009491053336509
 50
28.5134123710844101
 51
68.2777791963618483
  0
ARC
  5
11A56
  8
0
 10
8597.9695430378851597
 20
2083.8498506475311842
 30
0.0
 40
0.0099316714394919
 50
69.3942939797522627
 51
84.679416573986046
  0
ARC
  5
11A57
  8
0
 10
8597.9607706917176984
 20
2083.7491555973219874
 30
0.0
 40
0.1110079529861576
 50
84.9905119776845055
 51
92.1155567315040855
  0
ARC
  5
11A58
  8
0
 10
8597.969075449713273
 20
2083.4347288450530868
 30
0.0
 40
0.4255398225058208
 50
91.6701574223549045
 51
96.1606187548486986
  0
ARC
  5
11A59
  8
0
 10
8597.955311442443417
 20
2083.5455848817291553
 30
0.0
 40
0.3138519778547133
 50
95.8342254922190477
 51
99.7063066095567478
  0
ARC
  5
11A5A
  8
0
 10
8597.9165948815407319
 20
2083.7719360733030953
 30
0.0
 40
0.0842134923710411
 50
99.7063066095567478
 51
105.4735170763589025
  0
ARC
  5
11A5B
  8
0
 10
8597.8974358342311461
 20
2083.8411455724549342
 30
0.0
 40
0.0124010709751298
 50
105.4735170763589025
 51
116.6973859095653978
  0
ARC
  5
11A5C
  8
0
 10
8597.8928237510826875
 20
2083.8503167214557834
 30
0.0
 40
0.0021355322678764
 50
116.6973859095653978
 51
136.7107157552252943
  0
ARC
  5
11A5D
  8
0
 10
8597.8916003575905052
 20
2083.8514691572459014
 30
0.0
 40
0.0004548181677479
 50
136.7107157550591126
 51
182.3608277180719881
  0
ARC
  5
11A5E
  8
0
 10
8597.8929056143861089
 20
2083.8531474795099712
 30
0.0
 40
0.0025062238179962
 50
226.5105612337185903
 51
264.9056667111694878
  0
ARC
  5
11A5F
  8
0
 10
8597.8996911409158201
 20
2083.891198726445964
 30
0.0
 40
0.0411487366005765
 50
260.1941178120071072
 51
269.2400087811062122
  0
ARC
  5
11A60
  8
0
 10
8597.9011381648997485
 20
2084.201474304641124
 30
0.0
 40
0.3514263452789103
 50
269.6750933954696734
 51
276.1567545446172858
  0
ARC
  5
11A61
  8
0
 10
8597.9070209304572927
 20
2084.1810737805230929
 30
0.0
 40
0.3305328411039336
 50
275.5221477141197965
 51
279.5651103704029197
  0
ARC
  5
11A62
  8
0
 10
8597.9493727135450172
 20
2083.9317209328510216
 30
0.0
 40
0.0776098157759854
 50
279.3226347958009228
 51
286.1438230299855263
  0
ARC
  5
11A63
  8
0
 10
8597.9681729316998826
 20
2083.8666153053991366
 30
0.0
 40
0.0098442208139141
 50
286.3982723294104176
 51
299.5229700983937278
  0
ARC
  5
11A64
  8
0
 10
8597.9723522390613653
 20
2083.8591999829368433
 30
0.0
 40
0.0013323832807358
 50
300.2715781298879278
 51
329.5207230389520987
  0
ARC
  5
11A65
  8
0
 10
8597.9505618562998279
 20
2083.8463078870768186
 30
0.0
 40
0.011341200019598
 50
74.6663999511827825
 51
88.7564127695974463
  0
ARC
  5
11A66
  8
0
 10
8597.9469261075028044
 20
2083.7399742038751356
 30
0.0
 40
0.1177362242813599
 50
88.110555656331087
 51
93.9155792354198269
  0
ARC
  5
11A67
  8
0
 10
8597.9527149549812748
 20
2083.6229180194991386
 30
0.0
 40
0.2349249414819876
 50
93.3746164272836836
 51
97.6602221445403416
  0
ARC
  5
11A68
  8
0
 10
8597.9318440224942606
 20
2083.7739276962151962
 30
0.0
 40
0.0824826907697672
 50
97.2744383384461031
 51
103.1804413794181983
  0
ARC
  5
11A69
  8
0
 10
8597.9153380812877003
 20
2083.8444863549671027
 30
0.0
 40
0.010019128326536
 50
103.2808530365965964
 51
114.6814985685818016
  0
ARC
  5
11A6A
  8
0
 10
8597.9115647527687543
 20
2083.8527208912191782
 30
0.0
 40
0.0009612825361729
 50
115.2725883369446933
 51
145.7186690792842114
  0
ARC
  5
11A6B
  8
0
 10
8597.9110002542474831
 20
2083.8532059052490695
 30
0.0
 40
0.0002366203229707
 50
166.201726419261604
 51
244.716683286875309
  0
ARC
  5
11A6C
  8
0
 10
8597.9199104387171246
 20
2083.9238347350828917
 30
0.0
 40
0.0714136016331204
 50
262.7508728111640721
 51
275.7629642319133154
  0
ARC
  5
11A6D
  8
0
 10
8597.9151438436711032
 20
2084.0517169410418319
 30
0.0
 40
0.1992927137814047
 50
273.4340236086453046
 51
279.8217726610027967
  0
ARC
  5
11A6E
  8
0
 10
8597.9446007931182976
 20
2083.8812423095791928
 30
0.0
 40
0.0262918788508574
 50
279.9416998540232271
 51
288.8435818941701996
  0
ARC
  5
11A6F
  8
0
 10
8597.9523509108548751
 20
2083.8585331245349153
 30
0.0
 40
0.002296641608908
 50
288.8435818941701996
 51
309.2954120717035948
  0
ARC
  5
11A70
  8
0
 10
8597.9536456729438214
 20
2083.8569509759208813
 30
0.0
 40
0.0002522338462628
 50
309.2954120714102828
 51
4.7445486287530709
  0
ARC
  5
11A71
  8
0
 10
8597.9536268781484978
 20
2083.856894006884886
 30
0.0
 40
0.0002811522903121
 50
16.0712618986943703
 51
57.2162275277603882
  0
ARC
  5
11A72
  8
0
 10
8597.9531984858058422
 20
2083.8562931164960901
 30
0.0
 40
0.0010188887640469
 50
55.2592657395570086
 51
69.163443511165994
  0
LINE
  5
11A73
  8
0
 10
8597.8437248777663626
 20
2083.8391801019952254
 30
0.0
 11
8597.8503056446461414
 21
2083.8729015065559906
 31
0.0
  0
ARC
  5
11A74
  8
0
 10
8597.8433454218411498
 20
2083.8393040525311335
 30
0.0
 40
0.0004013942404672
 50
358.2101646168965203
 51
40.9638868544114629
  0
ARC
  5
11A75
  8
0
 10
8597.842707122077627
 20
2083.8387498929550929
 30
0.0
 40
0.0012466867486212
 50
40.9638868544114629
 51
59.934332275726419
  0
ARC
  5
11A76
  8
0
 10
8597.8401019214816188
 20
2083.833689754651914
 30
0.0
 40
0.006936847753154
 50
62.2510831576043273
 51
76.7680069441830568
  0
ARC
  5
11A77
  8
0
 10
8597.8236969355857582
 20
2083.7514994979269431
 30
0.0
 40
0.0907446257473985
 50
78.5636376721080012
 51
87.0411839006681305
  0
ARC
  5
11A78
  8
0
 10
8597.8051252076511446
 20
2083.4923041711249425
 30
0.0
 40
0.3505911452992987
 50
86.1966008597756428
 51
89.1731524976798227
  0
ARC
  5
11A79
  8
0
 10
8597.8101034450428415
 20
2084.3027460685220831
 30
0.0
 40
0.4598872656356258
 50
269.0411661768958993
 51
270.0100967334460051
  0
ARC
  5
11A7A
  8
0
 10
8597.8573456968988467
 20
2081.4718755614871952
 30
0.0
 40
2.3644805075901432
 50
90.9037700556309858
 51
91.3313705928341477
  0
ARC
  5
11A7B
  8
0
 10
8597.8097518487284106
 20
2084.0953331218711355
 30
0.0
 40
0.2594756598373867
 50
272.2746780953768848
 51
275.2647830376669162
  0
ARC
  5
11A7C
  8
0
 10
8597.8268560762171546
 20
2083.9097147745851544
 30
0.0
 40
0.0730709242556347
 50
275.2647830376669162
 51
281.063174226785975
  0
ARC
  5
11A7D
  8
0
 10
8597.8388149792426702
 20
2083.8485516781051956
 30
0.0
 40
0.0107496619717609
 50
281.063174226785975
 51
294.0851150906162275
  0
ARC
  5
11A7E
  8
0
 10
8597.8426987690145324
 20
2083.8398633024121409
 30
0.0
 40
0.0012327457088175
 50
294.085115090510385
 51
326.3436579082052731
  0
ARC
  5
11A7F
  8
0
 10
8597.7905509802421875
 20
2083.0793605335998109
 30
0.0
 40
0.7619383579362806
 50
88.3186200360986788
 51
89.1083711146887651
  0
ARC
  5
11A80
  8
0
 10
8597.8073427419349173
 20
2083.7210961659798159
 30
0.0
 40
0.1200037560481303
 50
84.3881681651923117
 51
87.3422389100501277
  0
ARC
  5
11A81
  8
0
 10
8597.8153282121420489
 20
2083.8023654813141547
 30
0.0
 40
0.0383430595703733
 50
79.9134025182012806
 51
84.3881681651923117
  0
ARC
  5
11A82
  8
0
 10
8597.820228009022685
 20
2083.8299101019561022
 30
0.0
 40
0.0103660308543242
 50
71.4889348890338425
 51
79.9134025182012806
  0
ARC
  5
11A83
  8
0
 10
8597.8230877545483963
 20
2083.8384514981771645
 30
0.0
 40
0.0013586120294697
 50
47.1355693577878228
 51
71.4889348890338425
  0
ARC
  5
11A84
  8
0
 10
8597.8238918287916022
 20
2083.83931786307312
 30
0.0
 40
0.0001766122315734
 50
307.4152690298387256
 51
47.1355693577700876
  0
ARC
  5
11A85
  8
0
 10
8597.8215418874897296
 20
2083.8433370018437927
 30
0.0
 40
0.0048310239017689
 50
277.112284290260277
 51
300.5732376604755132
  0
ARC
  5
11A86
  8
0
 10
8597.8104552582462929
 20
2083.9133848948008563
 30
0.0
 40
0.0757484040716115
 50
272.192141260088988
 51
278.8737510226274026
  0
ARC
  5
11A87
  8
0
 10
8597.7652925243437494
 20
2085.6434125496648448
 30
0.0
 40
1.8063600837497089
 50
271.1773352530573788
 51
271.5245961986457814
  0
LINE
  5
11A88
  8
0
 10
8605.9448951202793978
 20
2086.9640631311981451
 30
0.0
 11
8605.9441399630377418
 21
2086.9946823876261988
 31
0.0
  0
LINE
  5
11A89
  8
0
 10
8605.9853172421826457
 20
2087.0560542667458321
 30
0.0
 11
8608.517135912192316
 21
2087.0560542667458321
 31
0.0
  0
ARC
  5
11A8A
  8
0
 10
8608.4941214888585819
 20
2087.0640542667460977
 30
0.0
 40
0.008
 50
270.0
 51
59.4838273430493203
  0
ARC
  5
11A8B
  8
0
 10
8606.0083316655163799
 20
2087.0640542667460977
 30
0.0
 40
0.008
 50
120.516172656950701
 51
270.0
  0
ARC
  5
11A8C
  8
0
 10
8606.0150061051153898
 20
2086.9946823876261988
 30
0.0
 40
0.0708661420434587
 50
125.4677281395871944
 51
180.0
  0
ARC
  5
11A8D
  8
0
 10
8605.9853172421826457
 20
2087.0363542667460024
 30
0.0
 40
0.0197
 50
90.0000000002084306
 51
125.4677281389209043
  0
LINE
  5
11A8E
  8
0
 10
8605.9441399630377418
 20
2086.9946823876261988
 30
0.0
 11
8608.5583131913354009
 21
2086.9946823876261988
 31
0.0
  0
ARC
  5
11A8F
  8
0
 10
8605.9724233639972226
 20
2086.9629101770010493
 30
0.0
 40
0.0275523774937488
 50
177.6017059191484861
 51
217.953402415525801
  0
ARC
  5
11A90
  8
0
 10
8605.9673727935132774
 20
2086.9592204216819482
 30
0.0
 40
0.0213015803488804
 50
218.4827257750119998
 51
264.0307350473973997
  0
ARC
  5
11A91
  8
0
 10
8605.9747766290493018
 20
2086.9833015692429399
 30
0.0
 40
0.0462779513455263
 50
258.0033346961063216
 51
267.6930997226492082
  0
ARC
  5
11A92
  8
0
 10
8605.9703866011404898
 20
2086.9639174048020323
 30
0.0
 40
0.0269749288997174
 50
275.3758424321570146
 51
310.4560096447207798
  0
ARC
  5
11A93
  8
0
 10
8605.9922630809833208
 20
2086.9628159000458254
 30
0.0
 40
0.018774671681553
 50
179.9653307904567043
 51
233.3963424105058948
  0
ARC
  5
11A94
  8
0
 10
8606.0152850469403347
 20
2086.9938554843879501
 30
0.0
 40
0.0574200657315561
 50
233.4228875444574953
 51
251.7339548138126872
  0
ARC
  5
11A95
  8
0
 10
8606.0153746921823767
 20
2086.9941270863791942
 30
0.0
 40
0.0577060795618888
 50
251.7339548138126872
 51
265.7577765957753968
  0
ARC
  5
11A96
  8
0
 10
8606.0156990878986107
 20
2086.9985003895380942
 30
0.0
 40
0.0620913974632059
 50
265.7577765957753968
 51
284.9911114751898253
  0
ARC
  5
11A97
  8
0
 10
8606.0084893973798899
 20
2087.0254240272529387
 30
0.0
 40
0.0899636400215923
 50
284.9911114751898253
 51
296.7897073805439732
  0
ARC
  5
11A98
  8
0
 10
8606.0555789669906517
 20
2086.9619072892728582
 30
0.0
 40
0.018239093994883
 50
177.1813444378734062
 51
232.1337932279145093
  0
ARC
  5
11A99
  8
0
 10
8606.084184483070203
 20
2087.0192244704890072
 30
0.0
 40
0.0820201304943706
 50
240.9705375848577944
 51
255.2710098791357041
  0
ARC
  5
11A9A
  8
0
 10
8606.0927786505435506
 20
2087.044265847826864
 30
0.0
 40
0.108441118197921
 50
254.2432694054915885
 51
266.0025480338346142
  0
ARC
  5
11A9B
  8
0
 10
8606.0929761752940976
 20
2087.0569969820949154
 30
0.0
 40
0.1211570169103422
 50
266.3290766494092168
 51
283.9776770550070069
  0
ARC
  5
11A9C
  8
0
 10
8605.9851357314182678
 20
2087.4519711132911652
 30
0.0
 40
0.5305646525526728
 50
284.9759575357078916
 51
287.337312096508299
  0
ARC
  5
11A9D
  8
0
 10
8606.1523004510418104
 20
2086.9611792727091597
 30
0.0
 40
0.019001732572867
 50
175.142120644821091
 51
218.2813215910516078
  0
ARC
  5
11A9E
  8
0
 10
8606.1598210348038265
 20
2086.9767923024778611
 30
0.0
 40
0.0354025225479546
 50
230.6722785951386925
 51
257.5784879148453115
  0
ARC
  5
11A9F
  8
0
 10
8606.2000166122998053
 20
2087.1077506624587841
 30
0.0
 40
0.1722984732275741
 50
253.8896717623242978
 51
263.3730825080629074
  0
ARC
  5
11AA0
  8
0
 10
8606.2022865349572385
 20
2087.1293218949849688
 30
0.0
 40
0.193987680651155
 50
263.4423871089202862
 51
269.9607954042749043
  0
ARC
  5
11AA1
  8
0
 10
8606.1987347955164296
 20
2087.1351863434838378
 30
0.0
 40
0.1998813271903607
 50
270.980101686439582
 51
289.0004076492285208
  0
ARC
  5
11AA2
  8
0
 10
8606.2775012255042384
 20
2086.9602131624601498
 30
0.0
 40
0.0199695508154272
 50
172.6385495606025984
 51
212.9507587345160005
  0
ARC
  5
11AA3
  8
0
 10
8606.2703693059302168
 20
2086.9556370356481239
 30
0.0
 40
0.0114959124424025
 50
213.1460150386778025
 51
259.6993603792462864
  0
ARC
  5
11AA4
  8
0
 10
8606.3451139489334309
 20
2087.2126214791960592
 30
0.0
 40
0.2790708311406741
 50
254.0260729536192912
 51
258.5502052903430013
  0
ARC
  5
11AA5
  8
0
 10
8606.3334758645796683
 20
2087.1710875585408758
 30
0.0
 40
0.236074380979163
 50
259.3175579655328988
 51
266.855253324122998
  0
ARC
  5
11AA6
  8
0
 10
8606.3349489207066654
 20
2087.1657188990047871
 30
0.0
 40
0.2308013673099293
 50
266.4170046682435782
 51
277.9868593178300102
  0
ARC
  5
11AA7
  8
0
 10
8606.3258519845858245
 20
2087.2305548548151819
 30
0.0
 40
0.2962723945861566
 50
277.9868593178300102
 51
284.9529697608676884
  0
ARC
  5
11AA8
  8
0
 10
8606.408747769681213
 20
2086.9201646835808788
 30
0.0
 40
0.0249966042067125
 50
79.0424196415365827
 51
104.9529697608677026
  0
ARC
  5
11AA9
  8
0
 10
8606.4264637995474914
 20
2086.9589922179779933
 30
0.0
 40
0.0203453000859431
 50
169.3169907118754907
 51
214.710089262180702
  0
ARC
  5
11AAA
  8
0
 10
8606.416477537348328
 20
2086.9528184162381876
 30
0.0
 40
0.0086422884287359
 50
218.766111542098912
 51
259.5781096359671096
  0
ARC
  5
11AAB
  8
0
 10
8606.4960653061007179
 20
2087.2612408283280274
 30
0.0
 40
0.3271469638537119
 50
255.6374311263409993
 51
263.1633545928146987
  0
ARC
  5
11AAC
  8
0
 10
8606.4932096151860605
 20
2087.2910247904619609
 30
0.0
 40
0.3564363294382474
 50
264.1891050031155146
 51
267.8975516837223836
  0
ARC
  5
11AAD
  8
0
 10
8606.4909803347327397
 20
2087.2299405460839807
 30
0.0
 40
0.2953114213169117
 50
267.8949941478030041
 51
279.1110131993756909
  0
ARC
  5
11AAE
  8
0
 10
8606.4849669431714574
 20
2087.2737561811268279
 30
0.0
 40
0.3395279335560334
 50
278.9421622314048932
 51
283.995976086289204
  0
ARC
  5
11AAF
  8
0
 10
8606.6039517775334389
 20
2086.9574911420331773
 30
0.0
 40
0.0288264495407585
 50
169.4795673409159917
 51
192.8466497018403061
  0
ARC
  5
11AB0
  8
0
 10
8606.5853572694595641
 20
2086.9532835390828041
 30
0.0
 40
0.0097619113441265
 50
193.0348571311662056
 51
246.7659309904551037
  0
ARC
  5
11AB1
  8
0
 10
8606.6724351271077467
 20
2087.3267362480778502
 30
0.0
 40
0.3930844105431983
 50
256.6251221253687049
 51
263.3773528469316716
  0
ARC
  5
11AB2
  8
0
 10
8606.6639950403514376
 20
2087.3342553762581701
 30
0.0
 40
0.3996870452319036
 50
264.7036094821744996
 51
275.6085666298856722
  0
ARC
  5
11AB3
  8
0
 10
8606.6607047272082127
 20
2087.3148545916278636
 30
0.0
 40
0.3807358158212846
 50
276.3867035114063242
 51
283.2822437544903096
  0
ARC
  5
11AB4
  8
0
 10
8606.7564559458915028
 20
2086.9082094948821577
 30
0.0
 40
0.0370309894153288
 50
78.2771615118954855
 51
102.9169895647251991
  0
ARC
  5
11AB5
  8
0
 10
8606.8024987853223138
 20
2086.954425436197198
 30
0.0
 40
0.0425028674305219
 50
168.7051791724786938
 51
182.0295258481203007
  0
ARC
  5
11AB6
  8
0
 10
8606.7774715840514546
 20
2086.9535784161071206
 30
0.0
 40
0.0174614141250691
 50
182.1602425905282132
 51
207.0912764541768922
  0
ARC
  5
11AB7
  8
0
 10
8606.7693850949635817
 20
2086.9564529310518992
 30
0.0
 40
0.013147377077235
 50
235.434721280371491
 51
265.5673213518393823
  0
ARC
  5
11AB8
  8
0
 10
8606.856277374061392
 20
2087.3475746849007919
 30
0.0
 40
0.4136781643297106
 50
257.7308459403350867
 51
262.8431027112181937
  0
ARC
  5
11AB9
  8
0
 10
8606.8524524646545615
 20
2087.3209335719020601
 30
0.0
 40
0.386768379535476
 50
262.9136137306836076
 51
268.6711651937851002
  0
ARC
  5
11ABA
  8
0
 10
8606.8528026580424921
 20
2087.3187012045900701
 30
0.0
 40
0.3845449437177829
 50
268.6112882069608077
 51
279.6825131973481007
  0
ARC
  5
11ABB
  8
0
 10
8606.8389098815714533
 20
2087.4001269207888072
 30
0.0
 40
0.4671473437834825
 50
279.6825131973481007
 51
282.6394536283681873
  0
ARC
  5
11ABC
  8
0
 10
8606.9494382810553361
 20
2086.9072457655638573
 30
0.0
 40
0.0379747803298798
 50
77.3605463716317558
 51
102.6394536283682015
  0
ARC
  5
11ABD
  8
0
 10
8607.0503125256309431
 20
2087.3570759850431386
 30
0.0
 40
0.4230272148659999
 50
257.360546371631699
 51
264.8483848994239906
  0
ARC
  5
11ABE
  8
0
 10
8607.0483060729329736
 20
2087.3348205740949197
 30
0.0
 40
0.4006815403660297
 50
264.8483848994239906
 51
283.3287846720958782
  0
ARC
  5
11ABF
  8
0
 10
8607.1483809074561577
 20
2086.9124222099858343
 30
0.0
 40
0.0334098676421431
 50
72.573304819024159
 51
103.3287846720959067
  0
ARC
  5
11AC0
  8
0
 10
8607.2674118315735541
 20
2087.5011962764351665
 30
0.0
 40
0.5674693939279654
 50
258.9231668352293809
 51
268.3655990008153935
  0
ARC
  5
11AC1
  8
0
 10
8606.1226490930475848
 20
2087.0491175972761084
 30
0.0
 40
0.1970551624149325
 50
205.5709023554547059
 51
206.903800953935388
  0
ARC
  5
11AC2
  8
0
 10
8605.9557500042828906
 20
2086.965246372943966
 30
0.0
 40
0.0102944776234709
 50
210.9544335392199059
 51
235.8985136346408069
  0
ARC
  5
11AC3
  8
0
 10
8605.9534039838454191
 20
2086.9641195231720303
 30
0.0
 40
0.0081521518350755
 50
245.1516070811528039
 51
292.1403015552496072
  0
ARC
  5
11AC4
  8
0
 10
8605.9442696949627134
 20
2086.9873060805998648
 30
0.0
 40
0.033072678926795
 50
291.6592140074832855
 51
312.2665469030370105
  0
ARC
  5
11AC5
  8
0
 10
8605.9699987313870224
 20
2086.9589816255279402
 30
0.0
 40
0.0051929552132154
 50
47.7781558026296622
 51
132.1520723775612964
  0
ARC
  5
11AC6
  8
0
 10
8605.9965759131428058
 20
2086.9945036048429756
 30
0.0
 40
0.0391972380306744
 50
233.9133309243150052
 51
270.7369912787822841
  0
ARC
  5
11AC7
  8
0
 10
8605.9946264006521233
 20
2087.0224933653730659
 30
0.0
 40
0.0672285478978193
 50
272.0916306970909204
 51
297.4009259782430945
  0
ARC
  5
11AC8
  8
0
 10
8606.0314607301515935
 20
2086.9507318541868699
 30
0.0
 40
0.0134374741493501
 50
63.9496651612344991
 51
116.0199296341455977
  0
ARC
  5
11AC9
  8
0
 10
8606.0775528575613862
 20
2087.0591236711420606
 30
0.0
 40
0.1043683436519424
 50
247.350842997297292
 51
292.6266612971219274
  0
ARC
  5
11ACA
  8
0
 10
8606.1255364658663893
 20
2086.9411962595568184
 30
0.0
 40
0.0229682051790793
 50
70.066561220014421
 51
109.9334387799855932
  0
ARC
  5
11ACB
  8
0
 10
8606.1861673876246641
 20
2087.1217813716980345
 30
0.0
 40
0.167531014811074
 50
251.6290451126151879
 51
288.3548607882457873
  0
ARC
  5
11ACC
  8
0
 10
8606.2483067757802928
 20
2086.931722631501998
 30
0.0
 40
0.0324378675074784
 50
73.1743131483587916
 51
106.814879077046001
  0
ARC
  5
11ACD
  8
0
 10
8606.321472003170129
 20
2087.1855978822259203
 30
0.0
 40
0.2317731526379931
 50
254.0281856442261983
 51
285.9629169360965193
  0
ARC
  5
11ACE
  8
0
 10
8606.3958455103256711
 20
2086.9229541402678478
 30
0.0
 40
0.041203244789554
 50
75.0555142232897339
 51
104.9542172741078048
  0
ARC
  5
11ACF
  8
0
 10
8606.4794688131350995
 20
2087.2452650082491346
 30
0.0
 40
0.2917801104598402
 50
255.5118082909930024
 51
284.4797947589169098
  0
ARC
  5
11AD0
  8
0
 10
8606.5640203854454739
 20
2086.91549207577782
 30
0.0
 40
0.0486626061174642
 50
76.2219924894957046
 51
103.7850031641011981
  0
ARC
  5
11AD1
  8
0
 10
8606.6559310841166734
 20
2087.2962369731071703
 30
0.0
 40
0.3430190712520713
 50
256.4579157476716205
 51
283.5364001685848052
  0
ARC
  5
11AD2
  8
0
 10
8606.7485266096027772
 20
2086.9095641977019113
 30
0.0
 40
0.0545878065679237
 50
76.9860996459474336
 51
103.0299972607762982
  0
ARC
  5
11AD3
  8
0
 10
8606.8464532763173338
 20
2087.3350893014039684
 30
0.0
 40
0.3820599577936117
 50
257.0478017084179783
 51
282.9498652175392976
  0
ARC
  5
11AD4
  8
0
 10
8606.9448379313762416
 20
2086.9054597333201855
 30
0.0
 40
0.0586918222103496
 50
77.4380557481770211
 51
102.5624052066691974
  0
ARC
  5
11AD5
  8
0
 10
8607.0464626556004077
 20
2087.3594356440989941
 30
0.0
 40
0.4065196801874301
 50
257.3739992493801196
 51
282.6248937267770884
  0
ARC
  5
11AD6
  8
0
 10
8607.1483108301217726
 20
2086.9033780578188271
 30
0.0
 40
0.0607726792039448
 50
77.651879089128002
 51
102.348120910871998
  0
ARC
  5
11AD7
  8
0
 10
8607.2437583546434325
 20
2087.2993471284921725
 30
0.0
 40
0.346553467393069
 50
256.2363213041260224
 51
271.2348188630106733
  0
ARC
  5
11AD8
  8
0
 10
8605.9865426086344087
 20
2086.9642076167269806
 30
0.0
 40
0.020076091030727
 50
183.9304037168247987
 51
227.680618241329114
  0
ARC
  5
11AD9
  8
0
 10
8605.9865422995244444
 20
2086.9642019921998326
 30
0.0
 40
0.0200717244412394
 50
227.6704610932820003
 51
270.0832990477381941
  0
ARC
  5
11ADA
  8
0
 10
8606.0464883091772208
 20
2086.964816643047925
 30
0.0
 40
0.0210186432878565
 50
185.4856751010769926
 51
237.6167985003934007
  0
ARC
  5
11ADB
  8
0
 10
8606.0452068025751942
 20
2086.9627955828382255
 30
0.0
 40
0.0186255399706312
 50
237.6161070568531954
 51
276.6701366627871153
  0
ARC
  5
11ADC
  8
0
 10
8606.1397400914756872
 20
2086.965411438215142
 30
0.0
 40
0.0221897126285431
 50
186.7887257640497864
 51
235.832244189020912
  0
ARC
  5
11ADD
  8
0
 10
8606.1365683055737463
 20
2086.9607574505048433
 30
0.0
 40
0.0165576900890679
 50
235.8687957437286968
 51
284.3449012126188222
  0
ARC
  5
11ADE
  8
0
 10
8606.2622895785480068
 20
2086.9658984773241173
 30
0.0
 40
0.0235744664625666
 50
187.6171756604854863
 51
231.4552270354282939
  0
ARC
  5
11ADF
  8
0
 10
8606.2569773218074261
 20
2086.9593088780238759
 30
0.0
 40
0.0151104725141525
 50
231.6398092819536885
 51
272.9661940259850894
  0
ARC
  5
11AE0
  8
0
 10
8606.4127105760962877
 20
2086.9673648827879333
 30
0.0
 40
0.0278800407887464
 50
189.5029622637044042
 51
217.6720920034462949
  0
ARC
  5
11AE1
  8
0
 10
8606.4025865729399811
 20
2086.9591786626720022
 30
0.0
 40
0.014866612303339
 50
216.5452343209985884
 51
268.887747856562612
  0
ARC
  5
11AE2
  8
0
 10
8606.5742028838303668
 20
2086.9650126389751676
 30
0.0
 40
0.0218946993149361
 50
185.9236513851330983
 51
251.0231924039728142
  0
ARC
  5
11AE3
  8
0
 10
8606.5743049971242726
 20
2086.9167451396469914
 30
0.0
 40
0.028493207768139
 50
75.3604171487935588
 51
104.6824795874611027
  0
ARC
  5
11AE4
  8
0
 10
8606.777011478005079
 20
2086.9708508010598962
 30
0.0
 40
0.041589560324816
 50
191.2367886966144113
 51
210.7420339084752072
  0
ARC
  5
11AE5
  8
0
 10
8606.7506438718664867
 20
2086.9546877486309313
 30
0.0
 40
0.0106730781641708
 50
208.5224807531178897
 51
256.6422776098128224
  0
ARC
  5
11AE6
  8
0
 10
8606.9655094548215857
 20
2086.9677167811391882
 30
0.0
 40
0.0338045547808607
 50
188.4549225506505934
 51
223.8444280279551037
  0
ARC
  5
11AE7
  8
0
 10
8606.9876243220205652
 20
2086.9537582373682199
 30
0.0
 40
0.0313378867895782
 50
163.3323541936096035
 51
197.5661040987104968
  0
ARC
  5
11AE8
  8
0
 10
8607.2259005333180539
 20
2086.9803097885469469
 30
0.0
 40
0.0922732352680769
 50
190.9736768829912137
 51
202.5445189392638099
  0
ARC
  5
11AE9
  8
0
 10
8607.2630616414371616
 20
2086.9371805415012204
 30
0.0
 40
0.1049167077484058
 50
165.8971765444991888
 51
176.1097909618302992
  0
LINE
  5
11AEA
  8
0
 10
8605.9729138430375315
 20
2086.9370611236458899
 30
0.0
 11
8606.0053678765816585
 21
2086.9372952708181401
 31
0.0
  0
LINE
  5
11AEB
  8
0
 10
8606.0217427545903774
 20
2086.9367038222230804
 30
0.0
 11
8606.0776177596435446
 21
2086.9368897634180939
 31
0.0
  0
LINE
  5
11AEC
  8
0
 10
8606.1051569084029325
 20
2086.9364538259728761
 30
0.0
 11
8606.1801327097582544
 21
2086.9366033741480351
 31
0.0
  0
LINE
  5
11AED
  8
0
 10
8606.2135601645095448
 20
2086.9358555796920882
 30
0.0
 11
8606.3076020247262932
 21
2086.9364353525720617
 31
0.0
  0
LINE
  5
11AEE
  8
0
 10
8606.3387738680030452
 20
2086.9349492282722167
 30
0.0
 11
8606.4571220495381567
 21
2086.9364200181457818
 31
0.0
  0
LINE
  5
11AEF
  8
0
 10
8606.519850657103234
 20
2086.936043727375818
 30
0.0
 11
8606.6243194407488772
 21
2086.936607763423126
 31
0.0
  0
LINE
  5
11AF0
  8
0
 10
8606.6929667503118253
 20
2086.9356197354168216
 30
0.0
 11
8606.8047385163354193
 21
2086.9371196084462099
 31
0.0
  0
LINE
  5
11AF1
  8
0
 10
8606.8921900629902666
 20
2086.9361787267271211
 30
0.0
 11
8606.9909683254263655
 21
2086.9382319921051021
 31
0.0
  0
LINE
  5
11AF2
  8
0
 10
8607.0989043128793128
 20
2086.9373466568317781
 30
0.0
 11
8607.174912666736418
 21
2086.9413164522320585
 31
0.0
  0
LINE
  5
11AF3
  8
0
 10
8608.5575580340955639
 20
2086.9640631311981451
 30
0.0
 11
8608.5583131913354009
 21
2086.9946823876261988
 31
0.0
  0
ARC
  5
11AF4
  8
0
 10
8608.4874470492595719
 20
2086.9946823876261988
 30
0.0
 40
0.0708661420434587
 50
0.0
 51
54.5322718604127772
  0
ARC
  5
11AF5
  8
0
 10
8608.517135912192316
 20
2087.0363542667460024
 30
0.0
 40
0.0197
 50
54.5322718610790673
 51
89.9999999997915552
  0
ARC
  5
11AF6
  8
0
 10
8608.5300297903777391
 20
2086.9629101770010493
 30
0.0
 40
0.0275523774937488
 50
322.0465975844741138
 51
2.3982940808514419
  0
ARC
  5
11AF7
  8
0
 10
8608.5350803608598653
 20
2086.9592204216819482
 30
0.0
 40
0.0213015803488804
 50
275.9692649526026003
 51
321.5172742249880002
  0
ARC
  5
11AF8
  8
0
 10
8608.5276765253274789
 20
2086.9833015692429399
 30
0.0
 40
0.0462779513455263
 50
272.3069002773506782
 51
281.9966653038936784
  0
ARC
  5
11AF9
  8
0
 10
8608.5320665532362909
 20
2086.9639174048020323
 30
0.0
 40
0.0269749288997174
 50
229.5439903552793055
 51
264.6241575678429854
  0
ARC
  5
11AFA
  8
0
 10
8608.5101900733934599
 20
2086.9628159000458254
 30
0.0
 40
0.018774671681553
 50
306.6036575894941052
 51
0.0346692095433222
  0
ARC
  5
11AFB
  8
0
 10
8608.487168107434627
 20
2086.9938554843879501
 30
0.0
 40
0.0574200657315561
 50
288.2660451861872843
 51
306.5771124555424194
  0
ARC
  5
11AFC
  8
0
 10
8608.487078462192585
 20
2086.9941270863791942
 30
0.0
 40
0.0577060795618888
 50
274.2422234042244895
 51
288.2660451861872843
  0
ARC
  5
11AFD
  8
0
 10
8608.48675406647817
 20
2086.9985003895380942
 30
0.0
 40
0.0620913974632059
 50
255.0088885248102031
 51
274.2422234042244895
  0
ARC
  5
11AFE
  8
0
 10
8608.4939637569950719
 20
2087.0254240272529387
 30
0.0
 40
0.0899636400215923
 50
243.2102926194561121
 51
255.0088885248102031
  0
ARC
  5
11AFF
  8
0
 10
8608.4468741873843101
 20
2086.9619072892728582
 30
0.0
 40
0.018239093994883
 50
307.8662067720856044
 51
2.8186555621266112
  0
ARC
  5
11B00
  8
0
 10
8608.4182686713047588
 20
2087.0192244704890072
 30
0.0
 40
0.0820201304943706
 50
284.7289901208644096
 51
299.0294624151421772
  0
ARC
  5
11B01
  8
0
 10
8608.4096745038295921
 20
2087.044265847826864
 30
0.0
 40
0.108441118197921
 50
273.9974519661652721
 51
285.7567305945083262
  0
ARC
  5
11B02
  8
0
 10
8608.4094769790808641
 20
2087.0569969820949154
 30
0.0
 40
0.1211570169103422
 50
256.0223229449929931
 51
273.6709233505907832
  0
ARC
  5
11B03
  8
0
 10
8608.5173174229566939
 20
2087.4519711132911652
 30
0.0
 40
0.5305646525526728
 50
252.662687903491701
 51
255.0240424642919947
  0
ARC
  5
11B04
  8
0
 10
8608.3501527033331513
 20
2086.9611792727091597
 30
0.0
 40
0.019001732572867
 50
321.7186784089483922
 51
4.8578793551788602
  0
ARC
  5
11B05
  8
0
 10
8608.3426321195711353
 20
2086.9767923024778611
 30
0.0
 40
0.0354025225479546
 50
282.4215120851546885
 51
309.3277214048612791
  0
ARC
  5
11B06
  8
0
 10
8608.3024365420751565
 20
2087.1077506624587841
 30
0.0
 40
0.1722984732275741
 50
276.6269174919369789
 51
286.1103282376756169
  0
ARC
  5
11B07
  8
0
 10
8608.3001666194177233
 20
2087.1293218949849688
 30
0.0
 40
0.193987680651155
 50
270.0392045957250957
 51
276.5576128910796001
  0
ARC
  5
11B08
  8
0
 10
8608.3037183588585322
 20
2087.1351863434838378
 30
0.0
 40
0.1998813271903607
 50
250.9995923507715077
 51
269.019898313560418
  0
ARC
  5
11B09
  8
0
 10
8608.2249519288725423
 20
2086.9602131624601498
 30
0.0
 40
0.0199695508154272
 50
327.0492412654839995
 51
7.3614504393974292
  0
ARC
  5
11B0A
  8
0
 10
8608.2320838484447449
 20
2086.9556370356481239
 30
0.0
 40
0.0114959124424025
 50
280.3006396207536
 51
326.8539849613222259
  0
ARC
  5
11B0B
  8
0
 10
8608.1573392054415308
 20
2087.2126214791960592
 30
0.0
 40
0.2790708311406741
 50
281.4497947096571124
 51
285.9739270463807088
  0
ARC
  5
11B0C
  8
0
 10
8608.1689772897952935
 20
2087.1710875585408758
 30
0.0
 40
0.236074380979163
 50
273.144746675877002
 51
280.6824420344671012
  0
ARC
  5
11B0D
  8
0
 10
8608.1675042336682964
 20
2087.1657188990047871
 30
0.0
 40
0.2308013673099293
 50
262.0131406821699898
 51
273.5829953317564218
  0
ARC
  5
11B0E
  8
0
 10
8608.1766011697891372
 20
2087.2305548548151819
 30
0.0
 40
0.2962723945861566
 50
255.0470302391321979
 51
262.0131406821699898
  0
ARC
  5
11B0F
  8
0
 10
8608.0937053846937488
 20
2086.9201646835808788
 30
0.0
 40
0.0249966042067125
 50
75.047030239132269
 51
100.9575803584634031
  0
ARC
  5
11B10
  8
0
 10
8608.0759893548256514
 20
2086.9589922179779933
 30
0.0
 40
0.0203453000859431
 50
325.289910737819298
 51
10.6830092881244898
  0
ARC
  5
11B11
  8
0
 10
8608.0859756170284527
 20
2086.9528184162381876
 30
0.0
 40
0.0086422884287359
 50
280.4218903640327767
 51
321.2338884579011165
  0
ARC
  5
11B12
  8
0
 10
8608.0063878482742439
 20
2087.2612408283280274
 30
0.0
 40
0.3271469638537119
 50
276.8366454071853013
 51
284.3625688736589723
  0
ARC
  5
11B13
  8
0
 10
8608.0092435391889012
 20
2087.2910247904619609
 30
0.0
 40
0.3564363294382474
 50
272.1024483162776164
 51
275.8108949968844854
  0
ARC
  5
11B14
  8
0
 10
8608.01147281964586
 20
2087.2299405460839807
 30
0.0
 40
0.2953114213169117
 50
260.8889868006244228
 51
272.1050058521968822
  0
ARC
  5
11B15
  8
0
 10
8608.0174862112035044
 20
2087.2737561811268279
 30
0.0
 40
0.3395279335560334
 50
256.004023913710796
 51
261.0578377685949931
  0
ARC
  5
11B16
  8
0
 10
8607.8985013768415229
 20
2086.9574911420331773
 30
0.0
 40
0.0288264495407585
 50
347.1533502981596939
 51
10.5204326590839408
  0
ARC
  5
11B17
  8
0
 10
8607.9170958849153976
 20
2086.9532835390828041
 30
0.0
 40
0.0097619113441265
 50
293.23406900954501
 51
346.9651428688337091
  0
ARC
  5
11B18
  8
0
 10
8607.8300180272672151
 20
2087.3267362480778502
 30
0.0
 40
0.3930844105431983
 50
276.6226471530682147
 51
283.3748778746312951
  0
ARC
  5
11B19
  8
0
 10
8607.8384581140235241
 20
2087.3342553762581701
 30
0.0
 40
0.3996870452319036
 50
264.3914333701143278
 51
275.2963905178253867
  0
ARC
  5
11B1A
  8
0
 10
8607.841748427166749
 20
2087.3148545916278636
 30
0.0
 40
0.3807358158212846
 50
256.7177562455095767
 51
263.6132964885936758
  0
ARC
  5
11B1B
  8
0
 10
8607.745997208483459
 20
2086.9082094948821577
 30
0.0
 40
0.0370309894153288
 50
77.0830104352748151
 51
101.7228384881045002
  0
ARC
  5
11B1C
  8
0
 10
8607.699954369052648
 20
2086.954425436197198
 30
0.0
 40
0.0425028674305219
 50
357.9704741518535798
 51
11.29482082752126
  0
ARC
  5
11B1D
  8
0
 10
8607.7249815703253262
 20
2086.9535784161071206
 30
0.0
 40
0.0174614141250691
 50
332.9087235458230225
 51
357.8397574094718152
  0
ARC
  5
11B1E
  8
0
 10
8607.7330680594113801
 20
2086.9564529310518992
 30
0.0
 40
0.013147377077235
 50
274.4326786481606177
 51
304.565278719628509
  0
ARC
  5
11B1F
  8
0
 10
8607.6461757803135697
 20
2087.3475746849007919
 30
0.0
 40
0.4136781643297106
 50
277.1568972887818063
 51
282.2691540596649133
  0
ARC
  5
11B20
  8
0
 10
8607.6500006897185813
 20
2087.3209335719020601
 30
0.0
 40
0.386768379535476
 50
271.3288348062147861
 51
277.0863862693163924
  0
ARC
  5
11B21
  8
0
 10
8607.6496504963324696
 20
2087.3187012045900701
 30
0.0
 40
0.3845449437177829
 50
260.317486802652013
 51
271.3887117930391923
  0
ARC
  5
11B22
  8
0
 10
8607.6635432728053274
 20
2087.4001269207888072
 30
0.0
 40
0.4671473437834825
 50
257.360546371631699
 51
260.317486802652013
  0
ARC
  5
11B23
  8
0
 10
8607.5530148733196256
 20
2086.9072457655638573
 30
0.0
 40
0.0379747803298798
 50
77.3605463716317558
 51
102.6394536283682015
  0
ARC
  5
11B24
  8
0
 10
8607.4521406287440186
 20
2087.3570759850431386
 30
0.0
 40
0.4230272148659999
 50
275.1516151005760094
 51
282.6394536283681873
  0
ARC
  5
11B25
  8
0
 10
8607.4541470814419881
 20
2087.3348205740949197
 30
0.0
 40
0.4006815403660297
 50
256.6712153279041218
 51
275.1516151005760094
  0
ARC
  5
11B26
  8
0
 10
8607.354072246918804
 20
2086.9124222099858343
 30
0.0
 40
0.0334098676421431
 50
76.6712153279040791
 51
107.4266951809757984
  0
ARC
  5
11B27
  8
0
 10
8607.2350413228032266
 20
2087.5011962764351665
 30
0.0
 40
0.5674693939279654
 50
271.6344009991847201
 51
281.0768331647706191
  0
ARC
  5
11B28
  8
0
 10
8608.379804061327377
 20
2087.0491175972761084
 30
0.0
 40
0.1970551624149325
 50
333.096199046064612
 51
334.4290976445453225
  0
ARC
  5
11B29
  8
0
 10
8608.5467031500957091
 20
2086.965246372943966
 30
0.0
 40
0.0102944776234709
 50
304.1014863653592215
 51
329.0455664607800941
  0
ARC
  5
11B2A
  8
0
 10
8608.5490491705295426
 20
2086.9641195231720303
 30
0.0
 40
0.0081521518350755
 50
247.8596984447503075
 51
294.8483929188470825
  0
ARC
  5
11B2B
  8
0
 10
8608.5581834594122483
 20
2086.9873060805998648
 30
0.0
 40
0.033072678926795
 50
227.7334530969629043
 51
248.3407859925166861
  0
ARC
  5
11B2C
  8
0
 10
8608.5324544229879393
 20
2086.9589816255279402
 30
0.0
 40
0.0051929552132154
 50
47.847927622438732
 51
132.2218441973703023
  0
ARC
  5
11B2D
  8
0
 10
8608.5058772412321559
 20
2086.9945036048429756
 30
0.0
 40
0.0391972380306744
 50
269.2630087212177159
 51
306.0866690756849948
  0
ARC
  5
11B2E
  8
0
 10
8608.5078267537228385
 20
2087.0224933653730659
 30
0.0
 40
0.0672285478978193
 50
242.5990740217569055
 51
267.9083693029090796
  0
ARC
  5
11B2F
  8
0
 10
8608.4709924242233683
 20
2086.9507318541868699
 30
0.0
 40
0.0134374741493501
 50
63.9800703658543597
 51
116.0503348387654938
  0
ARC
  5
11B30
  8
0
 10
8608.4249002968135756
 20
2087.0591236711420606
 30
0.0
 40
0.1043683436519424
 50
247.3733387028779873
 51
292.6491570027026796
  0
ARC
  5
11B31
  8
0
 10
8608.3769166885067534
 20
2086.9411962595568184
 30
0.0
 40
0.0229682051790793
 50
70.066561220014421
 51
109.9334387799855932
  0
ARC
  5
11B32
  8
0
 10
8608.3162857667521166
 20
2087.1217813716980345
 30
0.0
 40
0.167531014811074
 50
251.6451392117542127
 51
288.3709548873848121
  0
ARC
  5
11B33
  8
0
 10
8608.2541463785946689
 20
2086.931722631501998
 30
0.0
 40
0.0324378675074784
 50
73.1851209229539563
 51
106.8256868516411942
  0
ARC
  5
11B34
  8
0
 10
8608.1809811512048327
 20
2087.1855978822259203
 30
0.0
 40
0.2317731526379931
 50
254.0370830639035091
 51
285.9718143557738017
  0
ARC
  5
11B35
  8
0
 10
8608.1066076440511097
 20
2086.9229541402678478
 30
0.0
 40
0.041203244789554
 50
75.0457827258921668
 51
104.9444857767101951
  0
ARC
  5
11B36
  8
0
 10
8608.0229843412398623
 20
2087.2452650082491346
 30
0.0
 40
0.2917801104598402
 50
255.5202052410830902
 51
284.488191709007026
  0
ARC
  5
11B37
  8
0
 10
8607.9384327689294878
 20
2086.91549207577782
 30
0.0
 40
0.0486626061174642
 50
76.2149968358987735
 51
103.7780075105042954
  0
ARC
  5
11B38
  8
0
 10
8607.8465220702582883
 20
2087.2962369731071703
 30
0.0
 40
0.3430190712520713
 50
256.4635998314153085
 51
283.5420842523283795
  0
ARC
  5
11B39
  8
0
 10
8607.7539265447721846
 20
2086.9095641977019113
 30
0.0
 40
0.0545878065679237
 50
76.9700027392236876
 51
103.0139003540524953
  0
ARC
  5
11B3A
  8
0
 10
8607.6559998780558089
 20
2087.3350893014039684
 30
0.0
 40
0.3820599577936117
 50
257.0501347824607024
 51
282.9521982915819081
  0
ARC
  5
11B3B
  8
0
 10
8607.5576152229969011
 20
2086.9054597333201855
 30
0.0
 40
0.0586918222103496
 50
77.4375947933307742
 51
102.5619442518229931
  0
ARC
  5
11B3C
  8
0
 10
8607.455990498772735
 20
2087.3594356440989941
 30
0.0
 40
0.4065196801874301
 50
257.3751062732229116
 51
282.6260007506198804
  0
ARC
  5
11B3D
  8
0
 10
8607.3541423242513702
 20
2086.9033780578188271
 30
0.0
 40
0.0607726792039448
 50
77.651879089128002
 51
102.348120910871998
  0
ARC
  5
11B3E
  8
0
 10
8607.2586947997315292
 20
2087.2993471284921725
 30
0.0
 40
0.346553467393069
 50
268.7651811369893267
 51
283.7636786958739776
  0
ARC
  5
11B3F
  8
0
 10
8608.5159105457405531
 20
2086.9642076167269806
 30
0.0
 40
0.020076091030727
 50
312.319381758670886
 51
356.0695962831752013
  0
ARC
  5
11B40
  8
0
 10
8608.5159108548486984
 20
2086.9642019921998326
 30
0.0
 40
0.0200717244412394
 50
269.9167009522619196
 51
312.3295389067180281
  0
ARC
  5
11B41
  8
0
 10
8608.4559648451977409
 20
2086.964816643047925
 30
0.0
 40
0.0210186432878565
 50
302.3832014996066277
 51
354.5143248989230074
  0
ARC
  5
11B42
  8
0
 10
8608.4572463517997676
 20
2086.9627955828382255
 30
0.0
 40
0.0186255399706312
 50
263.3298633372128847
 51
302.3838929431469182
  0
ARC
  5
11B43
  8
0
 10
8608.3627130628992745
 20
2086.965411438215142
 30
0.0
 40
0.0221897126285431
 50
304.1677558109792017
 51
353.2112742359502136
  0
ARC
  5
11B44
  8
0
 10
8608.3658848488012154
 20
2086.9607574505048433
 30
0.0
 40
0.0165576900890679
 50
255.6550987873812915
 51
304.1312042562713032
  0
ARC
  5
11B45
  8
0
 10
8608.2401635758251359
 20
2086.9658984773241173
 30
0.0
 40
0.0235744664625666
 50
308.5447729645716208
 51
352.3828243395144
  0
ARC
  5
11B46
  8
0
 10
8608.2454758325675357
 20
2086.9593088780238759
 30
0.0
 40
0.0151104725141525
 50
267.0338059740147969
 51
308.3601907180462831
  0
ARC
  5
11B47
  8
0
 10
8608.089742578278674
 20
2086.9673648827879333
 30
0.0
 40
0.0278800407887464
 50
322.3279079965536766
 51
350.4970377362956242
  0
ARC
  5
11B48
  8
0
 10
8608.0998665814349806
 20
2086.9591786626720022
 30
0.0
 40
0.014866612303339
 50
271.1122521434372743
 51
323.4547656790014116
  0
ARC
  5
11B49
  8
0
 10
8607.928250270544595
 20
2086.9650126389751676
 30
0.0
 40
0.0218946993149361
 50
288.9768075960270721
 51
354.0763486148669017
  0
ARC
  5
11B4A
  8
0
 10
8607.9281481572506891
 20
2086.9167451396469914
 30
0.0
 40
0.028493207768139
 50
75.3175204125388689
 51
104.6395828512063986
  0
ARC
  5
11B4B
  8
0
 10
8607.7254416763698828
 20
2086.9708508010598962
 30
0.0
 40
0.041589560324816
 50
329.2579660915249065
 51
348.7632113033855035
  0
ARC
  5
11B4C
  8
0
 10
8607.751809282508475
 20
2086.9546877486309313
 30
0.0
 40
0.0106730781641708
 50
283.3577223901872912
 51
331.4775192468820819
  0
ARC
  5
11B4D
  8
0
 10
8607.5369436995533761
 20
2086.9677167811391882
 30
0.0
 40
0.0338045547808607
 50
316.155571972044811
 51
351.5450774493493782
  0
ARC
  5
11B4E
  8
0
 10
8607.5148288323543966
 20
2086.9537582373682199
 30
0.0
 40
0.0313378867895782
 50
342.4338959012894179
 51
16.6676458063904498
  0
ARC
  5
11B4F
  8
0
 10
8607.2765526210569078
 20
2086.9803097885469469
 30
0.0
 40
0.0922732352680769
 50
337.4554810607361901
 51
349.0263231170088147
  0
ARC
  5
11B50
  8
0
 10
8607.2393915129378001
 20
2086.9371805415012204
 30
0.0
 40
0.1049167077484058
 50
3.8902090381697141
 51
14.1028234555007401
  0
LINE
  5
11B51
  8
0
 10
8608.5295393113374303
 20
2086.9370611236458899
 30
0.0
 11
8608.4970852777933032
 21
2086.9372952708181401
 31
0.0
  0
LINE
  5
11B52
  8
0
 10
8608.4807103997864033
 20
2086.9367038222230804
 30
0.0
 11
8608.4248353947332362
 21
2086.9368897634180939
 31
0.0
  0
LINE
  5
11B53
  8
0
 10
8608.3972962459738483
 20
2086.9364538259728761
 30
0.0
 11
8608.3223204446148884
 21
2086.9366033741480351
 31
0.0
  0
LINE
  5
11B54
  8
0
 10
8608.2888929898654169
 20
2086.9358555796920882
 30
0.0
 11
8608.1948511296486686
 21
2086.9364353525720617
 31
0.0
  0
LINE
  5
11B55
  8
0
 10
8608.1636792863719165
 20
2086.9349492282722167
 30
0.0
 11
8608.045331104838624
 21
2086.9364200181457818
 31
0.0
  0
LINE
  5
11B56
  8
0
 10
8607.9826024972717278
 20
2086.936043727375818
 30
0.0
 11
8607.8781337136260845
 21
2086.936607763423126
 31
0.0
  0
LINE
  5
11B57
  8
0
 10
8607.8094864040631364
 20
2086.9356197354168216
 30
0.0
 11
8607.6977146380377235
 21
2086.9371196084462099
 31
0.0
  0
LINE
  5
11B58
  8
0
 10
8607.6102630913846951
 20
2086.9361787267271211
 30
0.0
 11
8607.5114848289485963
 21
2086.9382319921051021
 31
0.0
  0
LINE
  5
11B59
  8
0
 10
8607.403548841495649
 20
2086.9373466568317781
 30
0.0
 11
8607.3275404876385437
 21
2086.9413164522320585
 31
0.0
  0
ENDSEC
  0
EOF
