  0
SECTION
  2
HEADER
  9
$ACADVER
  1
AC1009
  9
$INSBASE
 10
8721.7518708953884925
 20
2157.8534687785099777
 30
0.0
  9
$EXTMIN
 10
8711.2400598717886169
 20
2131.8003191722109477
 30
0.0
  9
$EXTMAX
 10
8721.7633723062372155
 20
2168.2471695659110082
 30
0.0
  9
$LIMMIN
 10
0.0
 20
0.0
  9
$LIMMAX
 10
11.6929133858000007
 20
8.2677165353999982
  9
$ORTHOMODE
 70
     0
  9
$REGENMODE
 70
     1
  9
$FILLMODE
 70
     1
  9
$QTEXTMODE
 70
     0
  9
$MIRRTEXT
 70
     0
  9
$DRAGMODE
 70
     2
  9
$LTSCALE
 40
0.6431102362
  9
$OSMODE
 70
  4095
  9
$ATTMODE
 70
     1
  9
$TEXTSIZE
 40
0.2
  9
$TRACEWID
 40
0.05
  9
$TEXTSTYLE
  7
STANDARD
  9
$CLAYER
  8
0
  9
$CELTYPE
  6
BYLAYER
  9
$CECOLOR
 62
   256
  9
$DIMSCALE
 40
1.0
  9
$DIMASZ
 40
0.1875
  9
$DIMEXO
 40
0.0625
  9
$DIMDLI
 40
0.4443307087
  9
$DIMRND
 40
0.0
  9
$DIMDLE
 40
0.0
  9
$DIMEXE
 40
0.125
  9
$DIMTP
 40
0.01
  9
$DIMTM
 40
0.01
  9
$DIMTXT
 40
2.0
  9
$DIMCEN
 40
0.1052362205
  9
$DIMTSZ
 40
0.0
  9
$DIMTOL
 70
     1
  9
$DIMLIM
 70
     0
  9
$DIMTIH
 70
     1
  9
$DIMTOH
 70
     1
  9
$DIMSE1
 70
     0
  9
$DIMSE2
 70
     0
  9
$DIMTAD
 70
     0
  9
$DIMZIN
 70
     0
  9
$DIMBLK
  1

  9
$DIMASO
 70
     1
  9
$DIMSHO
 70
     1
  9
$DIMPOST
  1
\X
  9
$DIMAPOST
  1

  9
$DIMALT
 70
     1
  9
$DIMALTD
 70
     2
  9
$DIMALTF
 40
25.3999999999999986
  9
$DIMLFAC
 40
1.0
  9
$DIMTOFL
 70
     0
  9
$DIMTVP
 40
0.0
  9
$DIMTIX
 70
     0
  9
$DIMSOXD
 70
     0
  9
$DIMSAH
 70
     0
  9
$DIMBLK1
  1

  9
$DIMBLK2
  1

  9
$DIMSTYLE
  2
STANDARD
  9
$DIMCLRD
 70
     0
  9
$DIMCLRE
 70
     0
  9
$DIMCLRT
 70
     0
  9
$DIMTFAC
 40
1.0
  9
$DIMGAP
 40
0.09
  9
$LUNITS
 70
     2
  9
$LUPREC
 70
     4
  9
$SKETCHINC
 40
0.1
  9
$FILLETRAD
 40
0.0
  9
$AUNITS
 70
     0
  9
$AUPREC
 70
     0
  9
$MENU
  1
.
  9
$ELEVATION
 40
0.0
  9
$PELEVATION
 40
0.0
  9
$THICKNESS
 40
0.0
  9
$LIMCHECK
 70
     0
  9
$BLIPMODE
 70
     0
  9
$CHAMFERA
 40
0.0
  9
$CHAMFERB
 40
0.0
  9
$SKPOLY
 70
     0
  9
$TDCREATE
 40
2458060.468368056230247
  9
$TDUPDATE
 40
2460584.3417476858012378
  9
$TDINDWG
 40
0.5012686343
  9
$TDUSRTIMER
 40
0.5012686343
  9
$USRTIMER
 70
     1
  9
$ANGBASE
 50
0.0
  9
$ANGDIR
 70
     0
  9
$PDMODE
 70
     0
  9
$PDSIZE
 40
0.3125
  9
$PLINEWID
 40
0.0
  9
$COORDS
 70
     2
  9
$SPLFRAME
 70
     0
  9
$SPLINETYPE
 70
     6
  9
$SPLINESEGS
 70
     8
  9
$ATTDIA
 70
     1
  9
$ATTREQ
 70
     1
  9
$HANDLING
 70
     1
  9
$HANDSEED
  5
153AA
  9
$SURFTAB1
 70
     6
  9
$SURFTAB2
 70
     6
  9
$SURFTYPE
 70
     6
  9
$SURFU
 70
     6
  9
$SURFV
 70
     6
  9
$UCSNAME
  2

  9
$UCSORG
 10
0.0
 20
0.0
 30
0.0
  9
$UCSXDIR
 10
1.0
 20
0.0
 30
0.0
  9
$UCSYDIR
 10
0.0
 20
1.0
 30
0.0
  9
$PUCSNAME
  2

  9
$PUCSORG
 10
0.0
 20
0.0
 30
0.0
  9
$PUCSXDIR
 10
1.0
 20
0.0
 30
0.0
  9
$PUCSYDIR
 10
0.0
 20
1.0
 30
0.0
  9
$USERI1
 70
     0
  9
$USERI2
 70
     0
  9
$USERI3
 70
     0
  9
$USERI4
 70
     0
  9
$USERI5
 70
     0
  9
$USERR1
 40
0.0
  9
$USERR2
 40
0.0
  9
$USERR3
 40
0.0
  9
$USERR4
 40
0.0
  9
$USERR5
 40
0.0
  9
$WORLDVIEW
 70
     1
  9
$SHADEDGE
 70
     3
  9
$SHADEDIF
 70
    70
  9
$TILEMODE
 70
     1
  9
$MAXACTVP
 70
    64
  9
$PLIMCHECK
 70
     0
  9
$PEXTMIN
 10
1.0000000000000000E+20
 20
1.0000000000000000E+20
 30
1.0000000000000000E+20
  9
$PEXTMAX
 10
-1.0000000000000000E+20
 20
-1.0000000000000000E+20
 30
-1.0000000000000000E+20
  9
$PLIMMIN
 10
0.0
 20
0.0
  9
$PLIMMAX
 10
12.0
 20
9.0
  9
$UNITMODE
 70
     0
  9
$VISRETAIN
 70
     1
  9
$PLINEGEN
 70
     0
  9
$PSLTSCALE
 70
     1
  0
ENDSEC
  0
SECTION
  2
TABLES
  0
TABLE
  2
VPORT
 70
     1
  0
VPORT
  2
*ACTIVE
 70
     0
 10
0.0
 20
0.0
 11
1.0
 21
1.0
 12
3901.2033762452629162
 22
1902.2151201014819435
 13
0.0
 23
0.0
 14
1.0
 24
1.0
 15
0.0
 25
0.0
 16
0.0
 26
0.0
 36
9.5192988075487186
 17
4815.2983398437490905
 27
247.8086242675780966
 37
0.0
 40
36.7053386943644
 41
2.244970414201183
 42
50.0
 43
0.0
 44
0.0
 50
0.0
 51
0.0
 71
     0
 72
   100
 73
     1
 74
     1
 75
     0
 76
     0
 77
     0
 78
     0
  0
ENDTAB
  0
TABLE
  2
LTYPE
 70
     2
  0
LTYPE
  2
CONTINUOUS
 70
     0
  3
Solid line
 72
    65
 73
     0
 40
0.0
  0
LTYPE
  2
PHANTOM2
 70
     0
  3
___ _ _ ___ _ _ ___ _ _ ___ _ _
 72
    65
 73
     6
 40
1.25
 49
0.625
 49
-0.125
 49
0.125
 49
-0.125
 49
0.125
 49
-0.125
  0
ENDTAB
  0
TABLE
  2
LAYER
 70
     2
  0
LAYER
  2
0
 70
     0
 62
   255
  6
CONTINUOUS
  0
LAYER
  2
DEFPOINTS
 70
     0
 62
     7
  6
CONTINUOUS
  0
ENDTAB
  0
TABLE
  2
STYLE
 70
     1
  0
STYLE
  2
STANDARD
 70
     0
 40
0.0
 41
0.8
 50
0.0
 71
     0
 42
0.2
  3
txt
  4

  0
ENDTAB
  0
TABLE
  2
VIEW
 70
     0
  0
ENDTAB
  0
TABLE
  2
UCS
 70
     0
  0
ENDTAB
  0
TABLE
  2
APPID
 70
    10
  0
APPID
  2
ACAD
 70
     0
  0
APPID
  2
ACAD_MLEADERVER
 70
     0
  0
APPID
  2
ACAD_EXEMPT_FROM_CAD_STANDARDS
 70
     0
  0
APPID
  2
ACAD_NAV_VCDISPLAY
 70
     0
  0
APPID
  2
ACAECLAYERSTANDARD
 70
     0
  0
APPID
  2
ACCMTRANSPARENCY
 70
     0
  0
APPID
  2
ACAD_DSTYLE_DIMJAG
 70
     0
  0
APPID
  2
ACAD_DSTYLE_DIMTALN
 70
     0
  0
APPID
  2
ACDBATTR
 70
     0
  0
APPID
  2
ACADANNOTATIVE
 70
     0
  0
ENDTAB
  0
TABLE
  2
DIMSTYLE
 70
     2
  0
DIMSTYLE
  2
STANDARD
 70
     0
  3

  4

  5

  6

  7

 40
1.0
 41
0.1875
 42
0.0625
 43
0.38
 44
0.125
 45
0.0
 46
0.0
 47
0.01
 48
0.01
140
0.15625
141
0.09
142
0.0
143
25.3999999999999986
144
1.0
145
0.0
146
1.0
147
0.09
 71
     1
 72
     0
 73
     1
 74
     1
 75
     0
 76
     0
 77
     0
 78
     4
170
     0
171
     2
172
     0
173
     0
174
     0
175
     0
176
     0
177
     0
178
     0
  0
DIMSTYLE
  2
ANNOTATIVE
 70
     0
  3

  4

  5

  6

  7

 40
0.0
 41
0.18
 42
0.0625
 43
0.38
 44
0.18
 45
0.0
 46
0.0
 47
0.0
 48
0.0
140
0.18
141
0.09
142
0.0
143
25.3999999999999986
144
1.0
145
0.0
146
1.0
147
0.09
 71
     0
 72
     0
 73
     1
 74
     1
 75
     0
 76
     0
 77
     0
 78
     0
170
     0
171
     2
172
     0
173
     0
174
     0
175
     0
176
     0
177
     0
178
     0
  0
ENDTAB
  0
ENDSEC
  0
SECTION
  2
BLOCKS
  0
BLOCK
  8
0
  2
$MODEL_SPACE
 70
     0
 10
0.0
 20
0.0
 30
0.0
  3
$MODEL_SPACE
  1

  0
ENDBLK
  5
21
  8
0
  0
BLOCK
 67
     1
  8
0
  2
$PAPER_SPACE
 70
     0
 10
0.0
 20
0.0
 30
0.0
  3
$PAPER_SPACE
  1

  0
ENDBLK
  5
1D
 67
     1
  8
0
  0
BLOCK
  8
0
  2
_FILLED
 70
     0
 10
0.0
 20
0.0
 30
0.0
  3
_FILLED
  1

  0
SOLID
  5
D8EA
  8
0
  6
BYBLOCK
 62
     0
 10
0.0
 20
0.0
 30
0.0
 11
-1.0
 21
0.1666666667
 31
0.0
 12
-1.0
 22
-0.1666666667
 32
0.0
 13
-1.0
 23
-0.1666666667
 33
0.0
  0
ENDBLK
  5
D8EB
  8
0
  6
BYBLOCK
 62
     0
  0
ENDSEC
  0
SECTION
  2
ENTITIES
  0
ATTDEF
  5
3930
  8
DEFPOINTS
 10
8721.7527056395683758
 20
2157.8569269441909455
 30
0.0
 40
0.001
  1
K-EX36241T-4
  3

  2
MODELNUMBER
 70
     0
1001
ACDBATTR
1070
     0
1070
     1
  0
ATTDEF
  5
3931
  8
DEFPOINTS
 10
8721.7527056395683758
 20
2157.8552602775239393
 30
0.0
 40
0.001
  1
ORIANA
  3

  2
TRADENAME
 70
     0
1001
ACDBATTR
1070
     0
1070
     1
  0
ATTDEF
  5
3932
  8
DEFPOINTS
 10
8721.7527056395683758
 20
2157.8535936108578426
 30
0.0
 40
0.001
  1
BATH FAUCET
  3

  2
PRODUCT
 70
     0
1001
ACDBATTR
1070
     0
1070
     1
  0
LINE
  5
14D4C
  8
0
 10
8711.2597598717893561
 20
2158.4144924005108805
 30
0.0
 11
8720.0786425489895919
 21
2158.4144924005108805
 31
0.0
  0
LINE
  5
14D4D
  8
0
 10
8720.6200867683037359
 20
2158.4144924005108805
 30
0.0
 11
8721.0039512604544143
 21
2158.4144924005108805
 31
0.0
  0
LINE
  5
14D4E
  8
0
 10
8711.2400598717886169
 20
2158.3947924005101413
 30
0.0
 11
8711.2400598717886169
 21
2157.3121451565111784
 31
0.0
  0
LINE
  5
14D4F
  8
0
 10
8711.2597598717893561
 20
2157.2924451565099844
 30
0.0
 11
8720.0786425489895919
 21
2157.2924451565099844
 31
0.0
  0
ARC
  5
14D50
  8
0
 10
8711.2597598717893561
 20
2158.3947924005101413
 30
0.0
 40
0.0197
 50
90.0
 51
180.0
  0
ARC
  5
14D51
  8
0
 10
8711.2597598717893561
 20
2157.3121451565111784
 30
0.0
 40
0.0197
 50
180.0
 51
270.0
  0
LINE
  5
14D52
  8
0
 10
8720.0786425489895919
 20
2159.1330009036751107
 30
0.0
 11
8720.0786425489895919
 21
2156.5739366533471184
 31
0.0
  0
LINE
  5
14D53
  8
0
 10
8720.1061970380251296
 20
2159.1605553927111032
 30
0.0
 11
8720.1393179140886787
 21
2159.1605553927111032
 31
0.0
  0
LINE
  5
14D54
  8
0
 10
8720.0978531780092453
 20
2159.15709925272904
 30
0.0
 11
8720.0820986889702908
 21
2159.141344763692814
 31
0.0
  0
LINE
  5
14D55
  8
0
 10
8720.1061970380251296
 20
2156.546382164311126
 30
0.0
 11
8720.1393179140886787
 21
2156.546382164311126
 31
0.0
  0
LINE
  5
14D56
  8
0
 10
8720.0978531780092453
 20
2156.5498383042931891
 30
0.0
 11
8720.0820986889702908
 21
2156.5655927933289604
 31
0.0
  0
ARC
  5
14D57
  8
0
 10
8720.1061970380251296
 20
2159.148755392710882
 30
0.0
 40
0.0118
 50
90.0
 51
134.9999999999816112
  0
ARC
  5
14D58
  8
0
 10
8720.0904425489898131
 20
2159.1330009036751107
 30
0.0
 40
0.0118
 50
135.0
 51
180.0000000000260059
  0
ARC
  5
14D59
  8
0
 10
8720.1061970380251296
 20
2156.5581821643099829
 30
0.0
 40
0.0118
 50
225.0
 51
270.0
  0
ARC
  5
14D5A
  8
0
 10
8720.0904425489898131
 20
2156.5739366533471184
 30
0.0
 40
0.0118
 50
179.9999999999739089
 51
225.0
  0
LINE
  5
14D5B
  8
0
 10
8720.200689793089623
 20
2159.1193781135898462
 30
0.0
 11
8720.200689793089623
 21
2156.5875594434301092
 31
0.0
  0
ARC
  5
14D5C
  8
0
 10
8720.2086897930894338
 20
2156.6102370729067843
 30
0.0
 40
0.008
 50
180.0
 51
329.4838273399660125
  0
ARC
  5
14D5D
  8
0
 10
8720.2086897930894338
 20
2159.0967004841140806
 30
0.0
 40
0.008
 50
30.5161726600340089
 51
180.0
  0
ARC
  5
14D5E
  8
0
 10
8720.1393179140886787
 20
2159.0896892509099416
 30
0.0
 40
0.0708661417999981
 50
35.4677279876209823
 51
90.0
  0
ARC
  5
14D5F
  8
0
 10
8720.1393179140886787
 20
2156.6172483061109233
 30
0.0
 40
0.0708661417999981
 50
270.0
 51
324.5322720123789964
  0
ARC
  5
14D60
  8
0
 10
8720.1809897930888837
 20
2156.5875594434301092
 30
0.0
 40
0.0197
 50
324.5322720123789964
 51
0.0
  0
ARC
  5
14D61
  8
0
 10
8720.1809897930852458
 20
2159.1193781135898462
 30
0.0
 40
0.0197
 50
0.0000000021104634
 51
35.467727981469352
  0
LINE
  5
14D62
  8
0
 10
8720.0978531780092453
 20
2159.15709925272904
 30
0.0
 11
8720.0978531780092453
 21
2156.5498383042931891
 31
0.0
  0
LINE
  5
14D63
  8
0
 10
8720.1393179140886787
 20
2159.1605553927111032
 30
0.0
 11
8720.1393179140886787
 21
2156.546382164311126
 31
0.0
  0
LINE
  5
14D64
  8
0
 10
8720.7709239474897913
 20
2158.1585868887150355
 30
0.0
 11
8720.2155816800113826
 21
2159.1007627365261214
 31
0.0
  0
LINE
  5
14D65
  8
0
 10
8720.7709239474897913
 20
2157.5483506683071937
 30
0.0
 11
8720.7709239474897913
 21
2158.1585868887150355
 31
0.0
  0
LINE
  5
14D66
  8
0
 10
8720.7709239474897913
 20
2157.5483506683071937
 30
0.0
 11
8720.2155816800113826
 21
2156.6061748204951982
 31
0.0
  0
LINE
  5
14D67
  8
0
 10
8720.2155816800113826
 20
2156.6061748204951982
 30
0.0
 11
8720.1977661867331335
 21
2156.5772326522392177
 31
0.0
  0
LINE
  5
14D68
  8
0
 10
8720.2558079032896785
 20
2155.1794369686008395
 30
0.0
 11
8720.2558079032896785
 21
2156.6744213384367868
 31
0.0
  0
LINE
  5
14D69
  8
0
 10
8720.5117134150896163
 20
2155.1832160863227728
 30
0.0
 11
8720.5117134150896163
 21
2157.108582407492122
 31
0.0
  0
LINE
  5
14D6A
  8
0
 10
8720.4923572274892649
 20
2155.1635190867291385
 30
0.0
 11
8720.2758517156926246
 21
2155.159739969005841
 31
0.0
  0
ARC
  5
14D6B
  8
0
 10
8720.4920134150888771
 20
2155.1832160863227728
 30
0.0
 40
0.0197
 50
270.9999999883012265
 51
0.0
  0
ARC
  5
14D6C
  8
0
 10
8720.2755079032885988
 20
2155.1794369686008395
 30
0.0
 40
0.0197
 50
180.0
 51
270.9999999884054205
  0
LINE
  5
14D6D
  8
0
 10
8721.0191692105890979
 20
2158.5175691023919171
 30
0.0
 11
8721.0191692105890979
 21
2157.1893684546289478
 31
0.0
  0
ARC
  5
14D6E
  8
0
 10
8720.7711018196205259
 20
2158.1487443689329666
 30
0.0
 40
0.0196850393175199
 50
269.4822737718534995
 51
336.0834659677640843
  0
ARC
  5
14D6F
  8
0
 10
8721.4369102504733746
 20
2157.8534687904630118
 30
0.0
 40
0.7086613987447801
 50
126.1200478971161942
 51
156.0834659677639991
  0
LINE
  5
14D70
  8
0
 10
8720.6200867683037359
 20
2157.2924451565099844
 30
0.0
 11
8721.0039512604544143
 21
2157.2924451565099844
 31
0.0
  0
ARC
  5
14D71
  8
0
 10
8720.7711018196205259
 20
2157.5581931880878983
 30
0.0
 40
0.0196850393175199
 50
23.9165340322359405
 51
90.5177262281464436
  0
ARC
  5
14D72
  8
0
 10
8721.4369102504733746
 20
2157.8534687665592173
 30
0.0
 40
0.7086613987447801
 50
203.9165340322358873
 51
233.8799521028838058
  0
LINE
  5
14D73
  8
0
 10
8720.7890966424893122
 20
2157.5661736093111358
 30
0.0
 11
8720.7890966424893122
 21
2158.1407639477110934
 31
0.0
  0
ARC
  5
14D74
  8
0
 10
8723.078136633590475
 20
2157.8534687785099777
 30
0.0
 40
2.1653543307015459
 50
156.0817711636524905
 51
161.7974310510001885
  0
LINE
  5
14D75
  8
0
 10
8721.1493137758861849
 20
2158.7390859857009673
 30
0.0
 11
8721.1093128170796263
 21
2158.7383877663519343
 31
0.0
  0
LINE
  5
14D76
  8
0
 10
8721.1613197142887657
 20
2158.7312955501110991
 30
0.0
 11
8721.1613197142887657
 21
2156.97564200691113
 31
0.0
  0
ARC
  5
14D77
  8
0
 10
8721.1495197142885445
 20
2158.7272877828991113
 30
0.0
 40
0.0118
 50
0.0
 51
91.0000000223865158
  0
ARC
  5
14D78
  8
0
 10
8721.1095187554801669
 20
2158.7265895635500783
 30
0.0
 40
0.0118
 50
91.000000022282336
 51
156.0817711637714922
  0
ARC
  5
14D79
  8
0
 10
8721.0585692105887574
 20
2158.5175691023919171
 30
0.0
 40
0.0394
 50
161.7974310511239082
 51
179.999999999947903
  0
ARC
  5
14D7A
  8
0
 10
8723.078136633590475
 20
2157.8534687785108872
 30
0.0
 40
2.1653543307015459
 50
198.2025689489998115
 51
203.9182288363475095
  0
LINE
  5
14D7B
  8
0
 10
8721.1493137758861849
 20
2156.9678515713198976
 30
0.0
 11
8721.1093128170796263
 21
2156.9685497906680212
 31
0.0
  0
ARC
  5
14D7C
  8
0
 10
8721.1495197142885445
 20
2156.9796497741231178
 30
0.0
 40
0.0118
 50
268.9999999776135269
 51
0.0
  0
ARC
  5
14D7D
  8
0
 10
8721.1095187554801669
 20
2156.9803479934707866
 30
0.0
 40
0.0118
 50
203.9182288362283941
 51
268.9999999777177209
  0
ARC
  5
14D7E
  8
0
 10
8721.0585692105887574
 20
2157.1893684546289478
 30
0.0
 40
0.0394
 50
180.000000000052097
 51
198.2025689488760065
  0
LINE
  5
14D7F
  8
0
 10
8721.0987320803396869
 20
2158.7313736663309101
 30
0.0
 11
8721.0987320803396869
 21
2156.9755638906899549
 31
0.0
  0
LINE
  5
14D80
  8
0
 10
8718.0561638447834412
 20
2158.73929555011091
 30
0.0
 11
8718.1770527851895167
 21
2158.73929555011091
 31
0.0
  0
LINE
  5
14D81
  8
0
 10
8718.2361378245896049
 20
2158.73929555011091
 30
0.0
 11
8718.9054142024888279
 21
2158.73929555011091
 31
0.0
  0
LINE
  5
14D82
  8
0
 10
8719.3384850686888967
 20
2158.73929555011091
 30
0.0
 11
8720.0786425489895919
 21
2158.73929555011091
 31
0.0
  0
LINE
  5
14D83
  8
0
 10
8720.4286395793296833
 20
2158.73929555011091
 30
0.0
 11
8721.5550205016897962
 21
2158.73929555011091
 31
0.0
  0
LINE
  5
14D84
  8
0
 10
8719.3384850686888967
 20
2158.73929555011091
 30
0.0
 11
8719.3384850686888967
 21
2158.4144924005108805
 31
0.0
  0
LINE
  5
14D85
  8
0
 10
8719.3384850686888967
 20
2157.2924451565099844
 30
0.0
 11
8719.3384850686888967
 21
2156.9676420069108644
 31
0.0
  0
LINE
  5
14D86
  8
0
 10
8718.2361378245896049
 20
2156.9676420069108644
 30
0.0
 11
8718.9054142024888279
 21
2156.9676420069108644
 31
0.0
  0
LINE
  5
14D87
  8
0
 10
8718.9368992418894777
 20
2156.9676420069108644
 30
0.0
 11
8719.3070000292864279
 21
2156.9676420069108644
 31
0.0
  0
LINE
  5
14D88
  8
0
 10
8719.3384850686888967
 20
2156.9676420069108644
 30
0.0
 11
8720.0786425489895919
 21
2156.9676420069108644
 31
0.0
  0
LINE
  5
14D89
  8
0
 10
8721.1693197142903955
 20
2156.9676420069108644
 30
0.0
 11
8721.5550205016897962
 21
2156.9676420069108644
 31
0.0
  0
ARC
  5
14D8A
  8
0
 10
8721.4548866434906813
 20
2156.8886420069111409
 30
0.0
 40
0.079
 50
90.0
 51
180.0
  0
ARC
  5
14D8B
  8
0
 10
8721.1693197142903955
 20
2158.7312955501110991
 30
0.0
 40
0.008
 50
90.0
 51
179.999999999947903
  0
ARC
  5
14D8C
  8
0
 10
8721.1693197142903955
 20
2156.97564200691113
 30
0.0
 40
0.008
 50
180.0
 51
270.0
  0
LINE
  5
14D8D
  8
0
 10
8721.5550205016897962
 20
2159.1132963375112013
 30
0.0
 11
8721.5550205016897962
 21
2156.5936412195110279
 31
0.0
  0
LINE
  5
14D8E
  8
0
 10
8721.7518708953884925
 20
2159.132996337511031
 30
0.0
 11
8721.7518708953884925
 21
2156.5739412195111981
 31
0.0
  0
LINE
  5
14D8F
  8
0
 10
8721.5747205016887165
 20
2159.132996337511031
 30
0.0
 11
8721.7518708953884925
 21
2159.132996337511031
 31
0.0
  0
ARC
  5
14D90
  8
0
 10
8721.5747205016887165
 20
2159.1132963375112013
 30
0.0
 40
0.0197
 50
90.0
 51
180.0
  0
LINE
  5
14D91
  8
0
 10
8721.5747205016887165
 20
2156.5739412195111981
 30
0.0
 11
8721.7518708953884925
 21
2156.5739412195111981
 31
0.0
  0
ARC
  5
14D92
  8
0
 10
8721.5747205016887165
 20
2156.5936412195110279
 30
0.0
 40
0.0197
 50
180.0
 51
270.0
  0
LINE
  5
14D93
  8
0
 10
8720.5117134150896163
 20
2156.8101616919111621
 30
0.0
 11
8721.3758866434891388
 21
2156.8101616919111621
 31
0.0
  0
LINE
  5
14D94
  8
0
 10
8721.366044123789834
 20
2156.7511065738099205
 30
0.0
 11
8720.5117134150896163
 21
2156.7511065738099205
 31
0.0
  0
LINE
  5
14D95
  8
0
 10
8721.3069890056885924
 20
2155.3337837391109133
 30
0.0
 11
8721.366044123789834
 21
2156.7511065738099205
 31
0.0
  0
LINE
  5
14D96
  8
0
 10
8720.5195874308883504
 20
2155.3337837391109133
 30
0.0
 11
8721.3069890056885924
 21
2155.3337837391109133
 31
0.0
  0
LINE
  5
14D97
  8
0
 10
8720.5117134150896163
 20
2155.5227601170108755
 30
0.0
 11
8720.5195874308883504
 21
2155.3337837391109133
 31
0.0
  0
LINE
  5
14D98
  8
0
 10
8720.5491149898916774
 20
2156.8101616919111621
 30
0.0
 11
8720.5491149898916774
 21
2156.7511065738099205
 31
0.0
  0
LINE
  5
14D99
  8
0
 10
8721.277461446588859
 20
2156.8101616919111621
 30
0.0
 11
8721.277461446588859
 21
2156.7511065738099205
 31
0.0
  0
LINE
  5
14D9A
  8
0
 10
8721.3758866434891388
 20
2156.8886420069111409
 30
0.0
 11
8721.3758866434891388
 21
2156.8101616919111621
 31
0.0
  0
ARC
  5
14D9B
  8
0
 10
8721.037930045318717
 20
2156.0690657007808113
 30
0.0
 40
1.00633912462161
 50
109.2139450908563987
 51
121.5271066127191943
  0
ARC
  5
14D9C
  8
0
 10
8720.9166613959805545
 20
2156.4170291143877876
 30
0.0
 40
0.6378494741263508
 50
87.3512478644842787
 51
109.2139450908563987
  0
ARC
  5
14D9D
  8
0
 10
8720.9205285496464057
 20
2156.5006208229619915
 30
0.0
 40
0.5541683614444657
 50
73.8984046478445009
 51
87.3512478644842787
  0
ARC
  5
14D9E
  8
0
 10
8720.63589815211526
 20
2155.7827419453028597
 30
0.0
 40
1.330638160293186
 50
56.2124186820456302
 51
62.9330003099850117
  0
LINE
  5
14D9F
  8
0
 10
8720.6278551473897096
 20
2155.3337837391109133
 30
0.0
 11
8720.6278551473897096
 21
2133.7589805895099744
 31
0.0
  0
LINE
  5
14DA0
  8
0
 10
8721.1987212890908268
 20
2155.3337837391109133
 30
0.0
 11
8721.1987212890908268
 21
2133.7589805895099744
 31
0.0
  0
LINE
  5
14DA1
  8
0
 10
8717.8522645961893431
 20
2157.2314215344099466
 30
0.0
 11
8717.8522645961893431
 21
2133.7589805895099744
 31
0.0
  0
LINE
  5
14DA2
  8
0
 10
8717.281398454488226
 20
2157.2314215344099466
 30
0.0
 11
8717.281398454488226
 21
2133.7589805895099744
 31
0.0
  0
ARC
  5
14DA3
  8
0
 10
8719.2400598717886169
 20
2133.7589805895099744
 30
0.0
 40
1.387795275599998
 50
180.0
 51
0.0
  0
ARC
  5
14DA4
  8
0
 10
8719.2400598717886169
 20
2133.7589805895099744
 30
0.0
 40
1.9586614173000001
 50
180.0
 51
0.0
  0
LINE
  5
14DA5
  8
0
 10
8717.1534606591885677
 20
2157.2314215344099466
 30
0.0
 11
8718.0517525224313431
 21
2157.2314215344099466
 31
0.0
  0
LINE
  5
14DA6
  8
0
 10
8717.1337606591914664
 20
2157.2511215344111406
 30
0.0
 11
8717.1337606591914664
 21
2157.2924451565099844
 31
0.0
  0
ARC
  5
14DA7
  8
0
 10
8717.1534606591885677
 20
2157.2758306633540997
 30
0.0
 40
0.0197
 50
180.0
 51
269.4493786455851136
  0
LINE
  5
14DA8
  8
0
 10
8717.1337606591914664
 20
2158.4144924005108805
 30
0.0
 11
8717.1337606591914664
 21
2158.6393159942108468
 31
0.0
  0
ARC
  5
14DA9
  8
0
 10
8717.1534606591885677
 20
2158.487818269410127
 30
0.0
 40
0.0197
 50
90.0
 51
180.0
  0
ARC
  5
14DAA
  8
0
 10
8717.1534606591885677
 20
2158.4375283158487946
 30
0.0
 40
0.0197
 50
90.5388032537165941
 51
180.0
  0
ARC
  5
14DAB
  8
0
 10
8717.1534606591885677
 20
2158.4310990862691142
 30
0.0
 40
0.0197
 50
90.5510441811741345
 51
180.0
  0
LINE
  5
14DAC
  8
0
 10
8717.1532754052750533
 20
2157.2497102200200061
 30
0.0
 11
8718.2233553078876866
 21
2157.2396470090620824
 31
0.0
  0
LINE
  5
14DAD
  8
0
 10
8718.2164378245888656
 20
2156.9873420069111489
 30
0.0
 11
8718.2164378245888656
 21
2157.2397120622358671
 31
0.0
  0
LINE
  5
14DAE
  8
0
 10
8718.2164378245888656
 20
2158.4672256028029551
 30
0.0
 11
8718.2164378245888656
 21
2158.7195955501110802
 31
0.0
  0
ARC
  5
14DAF
  8
0
 10
8717.1534606591885677
 20
2157.2694093489599254
 30
0.0
 40
0.0197
 50
180.0
 51
269.4611967587903223
  0
ARC
  5
14DB0
  8
0
 10
8717.1534606591885677
 20
2157.2511215344111406
 30
0.0
 40
0.0197
 50
180.0
 51
270.0
  0
LINE
  5
14DB1
  8
0
 10
8718.9250992418892565
 20
2156.9794420069110856
 30
0.0
 11
8718.9250992418892565
 21
2157.2924451565099844
 31
0.0
  0
LINE
  5
14DB2
  8
0
 10
8718.9250992418892565
 20
2158.4144924005108805
 30
0.0
 11
8718.9250992418892565
 21
2159.6133223218112107
 31
0.0
  0
ARC
  5
14DB3
  8
0
 10
8718.9368992418894777
 20
2158.7151057543110255
 30
0.0
 40
0.0118
 50
90.0
 51
180.0
  0
LINE
  5
14DB4
  8
0
 10
8719.3188000292902871
 20
2156.9794420069110856
 30
0.0
 11
8719.3188000292902871
 21
2157.2924451565099844
 31
0.0
  0
LINE
  5
14DB5
  8
0
 10
8719.3188000292902871
 20
2158.4144924005108805
 30
0.0
 11
8719.3188000292902871
 21
2159.6133223218112107
 31
0.0
  0
ARC
  5
14DB6
  8
0
 10
8719.3070000292864279
 20
2158.7151057543110255
 30
0.0
 40
0.0118
 50
0.0
 51
90.0
  0
ARC
  5
14DB7
  8
0
 10
8719.3070000292864279
 20
2156.9794420069110856
 30
0.0
 40
0.0118
 50
270.0
 51
359.9999999999740226
  0
LINE
  5
14DB8
  8
0
 10
8718.9054142024888279
 20
2156.9676420069108644
 30
0.0
 11
8718.9054142024888279
 21
2157.2924451565099844
 31
0.0
  0
LINE
  5
14DB9
  8
0
 10
8718.9054142024888279
 20
2158.4144924005108805
 30
0.0
 11
8718.9054142024888279
 21
2158.73929555011091
 31
0.0
  0
ARC
  5
14DBA
  8
0
 10
8718.9368992418894777
 20
2156.9794420069110856
 30
0.0
 40
0.0118
 50
180.0000000000260059
 51
270.0
  0
ARC
  5
14DBB
  8
0
 10
8718.2361378245896049
 20
2156.9873420069111489
 30
0.0
 40
0.0197
 50
180.0
 51
270.0
  0
ARC
  5
14DBC
  8
0
 10
8717.7833669810679567
 20
2157.8534687299738835
 30
0.0
 40
0.6791338047270504
 50
294.0161361739864105
 51
295.6040902189524218
  0
ARC
  5
14DBD
  8
0
 10
8718.0517525224313431
 20
2157.2511215344111406
 30
0.0
 40
0.0197
 50
270.000000000208388
 51
294.0161361732986052
  0
LINE
  5
14DBE
  8
0
 10
8718.9054142024888279
 20
2157.0365396446100021
 30
0.0
 11
8718.9250992418892565
 21
2157.0365396446100021
 31
0.0
  0
LINE
  5
14DBF
  8
0
 10
8719.3188000292902871
 20
2157.0365396446100021
 30
0.0
 11
8719.3384850686888967
 21
2157.0365396446100021
 31
0.0
  0
LINE
  5
14DC0
  8
0
 10
8718.9368992418894777
 20
2159.6251223218109772
 30
0.0
 11
8719.3070000292864279
 21
2159.6251223218109772
 31
0.0
  0
ARC
  5
14DC1
  8
0
 10
8719.3070000292864279
 20
2159.6133223218112107
 30
0.0
 40
0.0118
 50
0.0
 51
90.0
  0
ARC
  5
14DC2
  8
0
 10
8718.9368992418894777
 20
2159.6133223218112107
 30
0.0
 40
0.0118
 50
90.0
 51
180.0
  0
LINE
  5
14DC3
  8
0
 10
8718.196752785186618
 20
2158.7195955501110802
 30
0.0
 11
8718.196752785186618
 21
2158.4670404813859932
 31
0.0
  0
ARC
  5
14DC4
  8
0
 10
8718.2361378245896049
 20
2158.7195955501110802
 30
0.0
 40
0.0197
 50
90.0
 51
180.0
  0
ARC
  5
14DC5
  8
0
 10
8718.1770527851895167
 20
2158.7195955501110802
 30
0.0
 40
0.0197
 50
0.0
 51
90.0
  0
LINE
  5
14DC6
  8
0
 10
8719.3070000292864279
 20
2158.7269057543098825
 30
0.0
 11
8718.9368992418894777
 21
2158.7269057543098825
 31
0.0
  0
LINE
  5
14DC7
  8
0
 10
8719.3384850686888967
 20
2158.6703979123099089
 30
0.0
 11
8719.3188000292902871
 21
2158.6703979123099089
 31
0.0
  0
LINE
  5
14DC8
  8
0
 10
8718.9250992418892565
 20
2158.6703979123099089
 30
0.0
 11
8718.9054142024888279
 21
2158.6703979123099089
 31
0.0
  0
LINE
  5
14DC9
  8
0
 10
8717.1534606591885677
 20
2158.5075182694108662
 30
0.0
 11
8718.1770527851895167
 21
2158.5075182694108662
 31
0.0
  0
LINE
  5
14DCA
  8
0
 10
8717.1532754052714154
 20
2158.4572274447878044
 30
0.0
 11
8718.223574234491025
 21
2158.4672927148008057
 31
0.0
  0
ARC
  5
14DCB
  8
0
 10
8718.1770527851895167
 20
2158.487818269410127
 30
0.0
 40
0.0197
 50
0.0
 51
90.0
  0
LINE
  5
14DCC
  8
0
 10
8718.2361228638892499
 20
2157.2457248810928832
 30
0.0
 11
8718.2361228638892499
 21
2156.9676420125911136
 31
0.0
  0
LINE
  5
14DCD
  8
0
 10
8718.2361228638892499
 20
2158.4612128604107966
 30
0.0
 11
8718.2361228638892499
 21
2158.7392955444302061
 31
0.0
  0
LINE
  5
14DCE
  8
0
 10
8717.1532713420401706
 20
2157.2561315730449678
 30
0.0
 11
8718.2361228638892499
 21
2157.2457248810928832
 31
0.0
  0
ARC
  5
14DCF
  8
0
 10
8718.2163905374272872
 20
2157.2707267361870436
 30
0.0
 40
0.0318505489074549
 50
282.6309478519859795
 51
308.2817196316112813
  0
ARC
  5
14DD0
  8
0
 10
8718.2158659065880784
 20
2158.4353950569561675
 30
0.0
 40
0.0328158329932109
 50
51.882656265122101
 51
76.4144716791989111
  0
LINE
  5
14DD1
  8
0
 10
8717.1532711966647184
 20
2158.4507981751808074
 30
0.0
 11
8718.2361228638892499
 21
2158.4612128604107966
 31
0.0
  0
LINE
  5
14DD2
  8
0
 10
8717.2451971962163952
 20
2158.6590159942111313
 30
0.0
 11
8717.1534606591885677
 21
2158.6590159942111313
 31
0.0
  0
ARC
  5
14DD3
  8
0
 10
8717.6589161126885301
 20
2159.6778291523760345
 30
0.0
 40
1.0981877052420459
 50
248.2788400424074098
 51
253.121076945041807
  0
ARC
  5
14DD4
  8
0
 10
8717.5798993920834619
 20
2159.4174101244689155
 30
0.0
 40
0.8260448893678823
 50
253.121076945041807
 51
260.8841640453031232
  0
ARC
  5
14DD5
  8
0
 10
8717.5701154249527463
 20
2159.3564346974790169
 30
0.0
 40
0.7642894951958703
 50
260.8841640453031232
 51
268.6798904220935924
  0
ARC
  5
14DD6
  8
0
 10
8717.5685491614895
 20
2159.2884673048160948
 30
0.0
 40
0.6963040581767483
 50
268.6798904220935924
 51
278.1807164154379848
  0
ARC
  5
14DD7
  8
0
 10
8717.5433992375747039
 20
2159.4634127493050073
 30
0.0
 40
0.8730480176775722
 50
278.1807164154379848
 51
285.1171318983261926
  0
ARC
  5
14DD8
  8
0
 10
8717.5305532857673825
 20
2159.5109654256239082
 30
0.0
 40
0.9223052557552547
 50
285.1171318982255798
 51
290.576727391809527
  0
ARC
  5
14DD9
  8
0
 10
8717.3783559898674866
 20
2159.9163796938419182
 30
0.0
 40
1.3553465306392101
 50
290.576727391809527
 51
294.678223741642114
  0
ARC
  5
14DDA
  8
0
 10
8717.3343627776957874
 20
2160.0121236331569889
 30
0.0
 40
1.4607140049042531
 50
294.678223741642114
 51
299.180794903777894
  0
ARC
  5
14DDB
  8
0
 10
8718.0561638447834412
 20
2158.7195955501110802
 30
0.0
 40
0.0197
 50
90.0
 51
119.180794903777894
  0
ARC
  5
14DDC
  8
0
 10
8717.2451971962163952
 20
2158.6393159942108468
 30
0.0
 40
0.0197
 50
68.2788400425042141
 51
90.0
  0
ARC
  5
14DDD
  8
0
 10
8717.1534606591885677
 20
2158.6393159942108468
 30
0.0
 40
0.0197
 50
90.0
 51
179.9999999999739089
  0
LINE
  5
14DDE
  8
0
 10
8718.0195874308865314
 20
2158.7589805895099744
 30
0.0
 11
8717.1140756197892188
 21
2158.7589805895099744
 31
0.0
  0
LINE
  5
14DDF
  8
0
 10
8718.0195874308865314
 20
2158.7589805895099744
 30
0.0
 11
8718.0179702140067093
 21
2158.721245530026863
 31
0.0
  0
LINE
  5
14DE0
  8
0
 10
8717.1140756197892188
 20
2158.7589805895099744
 30
0.0
 11
8717.1288393993891077
 21
2158.4144924005108805
 31
0.0
  0
LINE
  5
14DE1
  8
0
 10
8718.1180126276885858
 20
2158.7983506682098778
 30
0.0
 11
8717.0156504229908023
 21
2158.7983506682098778
 31
0.0
  0
LINE
  5
14DE2
  8
0
 10
8717.0156504229908023
 20
2158.7983506682098778
 30
0.0
 11
8717.0156504229908023
 21
2162.3672152760927929
 31
0.0
  0
LINE
  5
14DE3
  8
0
 10
8717.0156504229908023
 20
2162.9735803715279872
 30
0.0
 11
8717.0156504229908023
 21
2163.1546169166949767
 31
0.0
  0
LINE
  5
14DE4
  8
0
 10
8717.0156504229908023
 20
2163.1940922672611123
 30
0.0
 11
8717.0156504229908023
 21
2163.721506628960924
 31
0.0
  0
LINE
  5
14DE5
  8
0
 10
8717.0156504229908023
 20
2163.7609819795261501
 30
0.0
 11
8717.0156504229908023
 21
2164.3936732558017866
 31
0.0
  0
LINE
  5
14DE6
  8
0
 10
8717.0156504229908023
 20
2164.482927171342908
 30
0.0
 11
8717.0156504229908023
 21
2164.4971047337858181
 31
0.0
  0
LINE
  5
14DE7
  8
0
 10
8717.0156504229908023
 20
2164.6383927422020861
 30
0.0
 11
8717.0156504229908023
 21
2164.6469732164441666
 31
0.0
  0
LINE
  5
14DE8
  8
0
 10
8717.0156504229908023
 20
2164.7362271319848332
 30
0.0
 11
8717.0156504229908023
 21
2164.7504046944281981
 31
0.0
  0
LINE
  5
14DE9
  8
0
 10
8717.0156504229908023
 20
2164.8916927028440114
 30
0.0
 11
8717.0156504229908023
 21
2164.9002600723270007
 31
0.0
  0
LINE
  5
14DEA
  8
0
 10
8717.0156504229908023
 20
2164.9895139878681221
 30
0.0
 11
8717.0156504229908023
 21
2165.0036915503101227
 31
0.0
  0
LINE
  5
14DEB
  8
0
 10
8717.0156504229908023
 20
2165.1449795587268454
 30
0.0
 11
8717.0156504229908023
 21
2165.1535336360648216
 31
0.0
  0
LINE
  5
14DEC
  8
0
 10
8717.0156504229908023
 20
2165.2427875516050335
 30
0.0
 11
8717.0156504229908023
 21
2165.2569651140479436
 31
0.0
  0
LINE
  5
14DED
  8
0
 10
8717.0156504229908023
 20
2165.3982531224642116
 30
0.0
 11
8717.0156504229908023
 21
2165.406793698482943
 31
0.0
  0
LINE
  5
14DEE
  8
0
 10
8717.0156504229908023
 20
2165.4960476140249739
 30
0.0
 11
8717.0156504229908023
 21
2165.5102251764669745
 31
0.0
  0
LINE
  5
14DEF
  8
0
 10
8717.0156504229908023
 20
2165.6515131848827878
 30
0.0
 11
8717.0156504229908023
 21
2165.6574761690731066
 31
0.0
  0
LINE
  5
14DF0
  8
0
 10
8717.0156504229908023
 20
2165.7463117816027989
 30
0.0
 11
8717.0156504229908023
 21
2165.7570569447830167
 31
0.0
  0
LINE
  5
14DF1
  8
0
 10
8717.0156504229908023
 20
2165.8986665740699209
 30
0.0
 11
8717.0156504229908023
 21
2165.9094446730177879
 31
0.0
  0
LINE
  5
14DF2
  8
0
 10
8717.0156504229908023
 20
2165.9982802855479349
 30
0.0
 11
8717.0156504229908023
 21
2166.004243269737799
 31
0.0
  0
LINE
  5
14DF3
  8
0
 10
8717.0156504229908023
 20
2166.145531278154067
 30
0.0
 11
8717.0156504229908023
 21
2166.1597088405969771
 31
0.0
  0
LINE
  5
14DF4
  8
0
 10
8717.0156504229908023
 20
2166.2489627561380985
 30
0.0
 11
8717.0156504229908023
 21
2166.2575033321568299
 31
0.0
  0
LINE
  5
14DF5
  8
0
 10
8717.0156504229908023
 20
2166.3987913405730978
 30
0.0
 11
8717.0156504229908023
 21
2166.4129689030150985
 31
0.0
  0
LINE
  5
14DF6
  8
0
 10
8717.0156504229908023
 20
2166.5022228185571294
 30
0.0
 11
8717.0156504229908023
 21
2166.5107768958951056
 31
0.0
  0
LINE
  5
14DF7
  8
0
 10
8717.0156504229908023
 20
2166.6520649043109188
 30
0.0
 11
8717.0156504229908023
 21
2166.6662424667538289
 31
0.0
  0
LINE
  5
14DF8
  8
0
 10
8717.0156504229908023
 20
2166.7554963822949503
 30
0.0
 11
8717.0156504229908023
 21
2166.7640637517770301
 31
0.0
  0
LINE
  5
14DF9
  8
0
 10
8717.0156504229908023
 20
2166.9053517601942076
 30
0.0
 11
8717.0156504229908023
 21
2166.9195293226362082
 31
0.0
  0
LINE
  5
14DFA
  8
0
 10
8717.0156504229908023
 20
2167.0087832381768749
 30
0.0
 11
8717.0156504229908023
 21
2167.0173637124189554
 31
0.0
  0
LINE
  5
14DFB
  8
0
 10
8717.0156504229908023
 20
2167.1586517208361329
 30
0.0
 11
8717.0156504229908023
 21
2167.1728292832781335
 31
0.0
  0
LINE
  5
14DFC
  8
0
 10
8717.0156504229908023
 20
2167.2620831988188002
 30
0.0
 11
8717.0156504229908023
 21
2168.2471695659110082
 31
0.0
  0
LINE
  5
14DFD
  8
0
 10
8718.1180126276885858
 20
2158.7983506682098778
 30
0.0
 11
8718.1180126276885858
 21
2168.2471695659110082
 31
0.0
  0
LINE
  5
14DFE
  8
0
 10
8717.2046268008889456
 20
2158.7983506682098778
 30
0.0
 11
8717.2046268008889456
 21
2158.7589805895099744
 31
0.0
  0
LINE
  5
14DFF
  8
0
 10
8717.9290362497904425
 20
2158.7983506682098778
 30
0.0
 11
8717.9290362497904425
 21
2158.7589805895099744
 31
0.0
  0
LINE
  5
14E00
  8
0
 10
8718.1180126276885858
 20
2158.8770908257110932
 30
0.0
 11
8718.113437962889293
 21
2158.8770908257110932
 31
0.0
  0
LINE
  5
14E01
  8
0
 10
8718.113437962889293
 20
2158.8770908257110932
 30
0.0
 11
8718.113437962889293
 21
2158.7983506682098778
 31
0.0
  0
LINE
  5
14E02
  8
0
 10
8717.0156504229908023
 20
2168.2471695659110082
 30
0.0
 11
8718.1180126276885858
 21
2168.2471695659110082
 31
0.0
  0
ARC
  5
14E03
  8
0
 10
8716.1247263416844362
 20
2163.2578134189511729
 30
0.0
 40
1.022166542021745
 50
25.7200523796304488
 51
29.2377172906579084
  0
ARC
  5
14E04
  8
0
 10
8717.0236504229887942
 20
2163.7609819795261501
 30
0.0
 40
0.008
 50
180.0
 51
209.2377172906805924
  0
ARC
  5
14E05
  8
0
 10
8716.3434099089354277
 20
2163.3631529901199428
 30
0.0
 40
0.7794343277634149
 50
18.7251811054101083
 51
25.7200523796304488
  0
ARC
  5
14E06
  8
0
 10
8716.5977767802323797
 20
2163.4493760450282025
 30
0.0
 40
0.5108511555205649
 50
10.39392196875556
 51
18.7251811054101083
  0
ARC
  5
14E07
  8
0
 10
8716.6297376613856613
 20
2163.4552361082069183
 30
0.0
 40
0.4783574906161132
 50
0.3034912674034154
 51
10.3941990114759104
  0
ARC
  5
14E08
  8
0
 10
8716.1247263416844362
 20
2163.6577854772708633
 30
0.0
 40
1.022166542021745
 50
330.7622827093421165
 51
334.2799476203696258
  0
ARC
  5
14E09
  8
0
 10
8717.0236504229887942
 20
2163.1546169166949767
 30
0.0
 40
0.008
 50
150.7622827093420881
 51
180.0
  0
ARC
  5
14E0A
  8
0
 10
8716.3434099089354277
 20
2163.5524459061011839
 30
0.0
 40
0.7794343277634149
 50
334.2799476203696258
 51
341.2748188945898846
  0
ARC
  5
14E0B
  8
0
 10
8716.5977767802323797
 20
2163.4662228511938338
 30
0.0
 40
0.5108511555205649
 50
341.2748188945898846
 51
349.6060780312445218
  0
ARC
  5
14E0C
  8
0
 10
8716.6296913005153328
 20
2163.4603689401487827
 30
0.0
 40
0.478404200663886
 50
349.6060780312445218
 51
359.6887282818295262
  0
LINE
  5
14E0D
  8
0
 10
8717.0276504229896091
 20
2163.733506628961095
 30
0.0
 11
8717.029458572556905
 21
2163.733506628961095
 31
0.0
  0
LINE
  5
14E0E
  8
0
 10
8717.0276504229896091
 20
2163.1820922672609413
 30
0.0
 11
8717.029458572556905
 21
2163.1820922672609413
 31
0.0
  0
ARC
  5
14E0F
  8
0
 10
8717.0276504229896091
 20
2163.721506628960924
 30
0.0
 40
0.012
 50
90.0
 51
179.9999999999739089
  0
ARC
  5
14E10
  8
0
 10
8717.0276504229896091
 20
2163.1940922672611123
 30
0.0
 40
0.012
 50
180.0000000000260059
 51
270.0
  0
ARC
  5
14E11
  8
0
 10
8716.1159195909494883
 20
2162.4659103483340914
 30
0.0
 40
1.0320500545103091
 50
25.6327479662705215
 51
29.2171392576761306
  0
ARC
  5
14E12
  8
0
 10
8717.0236504229887942
 20
2162.9735803715279872
 30
0.0
 40
0.008
 50
180.0
 51
209.2171392576989035
  0
ARC
  5
14E13
  8
0
 10
8716.3798161688300752
 20
2162.5910502189090039
 30
0.0
 40
0.73999030819798
 50
18.0302830568153816
 51
25.7363212058015414
  0
ARC
  5
14E14
  8
0
 10
8716.5935272633687418
 20
2162.6606140638891702
 30
0.0
 40
0.5152425374472442
 50
9.7771902702129179
 51
18.0302830568153816
  0
ARC
  5
14E15
  8
0
 10
8716.4059235164586426
 20
2162.6482193535171064
 30
0.0
 40
0.7025009801405674
 50
1.8091703311554339
 51
8.1748503749914097
  0
ARC
  5
14E16
  8
0
 10
8716.1159195909494883
 20
2162.8748852992871434
 30
0.0
 40
1.0320500545103091
 50
330.7828607423239191
 51
334.3672520337295282
  0
ARC
  5
14E17
  8
0
 10
8717.0236504229887942
 20
2162.3672152760927929
 30
0.0
 40
0.008
 50
150.7828607423238054
 51
180.0
  0
ARC
  5
14E18
  8
0
 10
8716.3798161688300752
 20
2162.7497454287117762
 30
0.0
 40
0.73999030819798
 50
334.2636787941984835
 51
341.9697169431846078
  0
ARC
  5
14E19
  8
0
 10
8716.5935272633687418
 20
2162.6801815837320646
 30
0.0
 40
0.5152425374472442
 50
341.9697169431846078
 51
350.2228097297871159
  0
ARC
  5
14E1A
  8
0
 10
8716.4059235164586426
 20
2162.692576294105038
 30
0.0
 40
0.7025009801405674
 50
351.8251496250085779
 51
358.1908296688445716
  0
LINE
  5
14E1B
  8
0
 10
8716.9252882182881876
 20
2162.9465496693601381
 30
0.0
 11
8717.0292175478571153
 21
2162.9465496693601381
 31
0.0
  0
LINE
  5
14E1C
  8
0
 10
8716.9252882182881876
 20
2162.3942459782610968
 30
0.0
 11
8717.0292175478571153
 21
2162.3942459782610968
 31
0.0
  0
LINE
  5
14E1D
  8
0
 10
8716.9132882182893809
 20
2162.9345496693608766
 30
0.0
 11
8716.9132882182893809
 21
2162.4062459782599035
 31
0.0
  0
ARC
  5
14E1E
  8
0
 10
8716.9252882182881876
 20
2162.9345496693608766
 30
0.0
 40
0.012
 50
90.0
 51
179.9999999999739089
  0
ARC
  5
14E1F
  8
0
 10
8716.9252882182881876
 20
2162.4062459782599035
 30
0.0
 40
0.012
 50
180.0000000000260059
 51
270.0
  0
ARC
  5
14E20
  8
0
 10
8716.1310786744961661
 20
2162.5449105192901698
 30
0.0
 40
0.873882393499565
 50
21.3305146743172109
 51
26.4791029894469503
  0
ARC
  5
14E21
  8
0
 10
8716.3748623719311581
 20
2162.6410539244120628
 30
0.0
 40
0.6118271794981492
 50
10.3845189318307298
 51
21.2479486050972994
  0
ARC
  5
14E22
  8
0
 10
8716.377622293352033
 20
2162.6584965247461696
 30
0.0
 40
0.606197336028907
 50
1.124943940698103
 51
8.8097280826454263
  0
ARC
  5
14E23
  8
0
 10
8716.1310786744961661
 20
2162.7958851283310651
 30
0.0
 40
0.873882393499565
 50
333.5208970105530284
 51
338.6694853256827855
  0
ARC
  5
14E24
  8
0
 10
8716.3748623719311581
 20
2162.6997417232091721
 30
0.0
 40
0.6118271794981492
 50
338.7520513949027077
 51
349.6154810681692879
  0
ARC
  5
14E25
  8
0
 10
8716.377622293352033
 20
2162.6822991228759747
 30
0.0
 40
0.606197336028907
 50
351.1902719173288006
 51
358.8750560593019259
  0
LINE
  5
14E26
  8
0
 10
8717.0495146173761896
 20
2168.0050435817111065
 30
0.0
 11
8717.0881245443924854
 21
2168.0050435817111065
 31
0.0
  0
LINE
  5
14E27
  8
0
 10
8717.0294491614295112
 20
2167.8475635619101922
 30
0.0
 11
8717.088165125453088
 21
2167.8475635619101922
 31
0.0
  0
ARC
  5
14E28
  8
0
 10
8717.0509897837546305
 20
2167.9893284116401446
 30
0.0
 40
0.0157842543770152
 50
95.3625804391487435
 51
133.4716040353970925
  0
ARC
  5
14E29
  8
0
 10
8717.0724278505585971
 20
2167.9705572268130709
 30
0.0
 40
0.044235131493713
 50
136.8975934525959133
 51
165.7561403097124924
  0
ARC
  5
14E2A
  8
0
 10
8717.2475538999387936
 20
2167.926798078270167
 30
0.0
 40
0.224745259645481
 50
165.928424005859199
 51
182.4325226630670898
  0
ARC
  5
14E2B
  8
0
 10
8718.6264732555846422
 20
2167.894276314731087
 30
0.0
 40
1.6036267998407081
 50
179.1788169420256054
 51
180.924722671820291
  0
ARC
  5
14E2C
  8
0
 10
8717.0841669701694627
 20
2167.8693821698630018
 30
0.0
 40
0.0611196210953651
 50
180.924722671820291
 51
193.3009147882135039
  0
ARC
  5
14E2D
  8
0
 10
8717.0462188151141163
 20
2167.8604109663929194
 30
0.0
 40
0.0221254553284299
 50
193.3009147882135039
 51
207.0648917055540039
  0
ARC
  5
14E2E
  8
0
 10
8717.0319161639999948
 20
2167.8531029855821544
 30
0.0
 40
0.0060639357114346
 50
207.0648917054834044
 51
245.994024660720612
  0
ARC
  5
14E2F
  8
0
 10
8717.0476772960209928
 20
2167.8729867741440103
 30
0.0
 40
0.0258131548304346
 50
279.971618721645882
 51
311.3284985103405234
  0
ARC
  5
14E30
  8
0
 10
8717.0158312782969006
 20
2167.9074111651179919
 30
0.0
 40
0.0727035808432937
 50
312.2594888896197745
 51
338.8253123618083009
  0
ARC
  5
14E31
  8
0
 10
8716.9738276697335095
 20
2167.926013493120081
 30
0.0
 40
0.1186105752257245
 50
337.7750234455326108
 51
1.999037267326869
  0
ARC
  5
14E32
  8
0
 10
8716.9813867308203044
 20
2167.92795544968385
 30
0.0
 40
0.1110010439647273
 50
1.1333330026799799
 51
31.436014309128069
  0
ARC
  5
14E33
  8
0
 10
8717.0315021521346353
 20
2167.9584850258470397
 30
0.0
 40
0.0523189028626139
 50
31.5334355736307117
 51
55.3782568835747568
  0
ARC
  5
14E34
  8
0
 10
8717.04892986987943
 20
2167.9828014662148234
 30
0.0
 40
0.0224129095358709
 50
56.7232847759763104
 51
82.922155110886564
  0
ARC
  5
14E35
  8
0
 10
8717.0724131539500377
 20
2167.9922848288269961
 30
0.0
 40
0.020710500088275
 50
104.7012535646770033
 51
141.9715720003009949
  0
ARC
  5
14E36
  8
0
 10
8717.0715492652270768
 20
2167.9955774832787938
 30
0.0
 40
0.0173064029881378
 50
63.6006347427588992
 51
104.7012535646770033
  0
ARC
  5
14E37
  8
0
 10
8717.0577497214253526
 20
2167.9699023236807989
 30
0.0
 40
0.0464493044744279
 50
42.3123991554603691
 51
62.4353082718949182
  0
ARC
  5
14E38
  8
0
 10
8717.0121051861569867
 20
2167.9312724585288379
 30
0.0
 40
0.1062293095644159
 50
12.7998960411274503
 51
41.1470726845825325
  0
ARC
  5
14E39
  8
0
 10
8716.9983382230475399
 20
2167.9263979739439492
 30
0.0
 40
0.120746101139634
 50
353.5461259225546087
 51
13.6081761768022194
  0
ARC
  5
14E3A
  8
0
 10
8717.005905601892664
 20
2167.9239382765467781
 30
0.0
 40
0.1129614413134411
 50
332.6429696372089779
 51
354.3544060582316888
  0
ARC
  5
14E3B
  8
0
 10
8717.0182246357126132
 20
2167.9175644125330109
 30
0.0
 40
0.0990911588104779
 50
317.560582632815624
 51
332.6429696372089779
  0
ARC
  5
14E3C
  8
0
 10
8717.0604285683166381
 20
2167.8789736489788993
 30
0.0
 40
0.041903581845253
 50
299.5015715079074994
 51
317.560582632815624
  0
ARC
  5
14E3D
  8
0
 10
8717.0695364456641983
 20
2167.862876560443965
 30
0.0
 40
0.0234084557553492
 50
278.5660503537366139
 51
299.5015715079074994
  0
ARC
  5
14E3E
  8
0
 10
8717.0617979796388681
 20
2169.4155646821991468
 30
0.0
 40
1.5758754312879859
 50
269.5918720993469151
 51
270.4081279006531986
  0
ARC
  5
14E3F
  8
0
 10
8717.0518186336557847
 20
2167.8479998181969677
 30
0.0
 40
0.0083638885341894
 50
221.8445688771153925
 51
261.4339496462633861
  0
ARC
  5
14E40
  8
0
 10
8717.0596255705531803
 20
2167.8534406051298902
 30
0.0
 40
0.0178467485664858
 50
199.2266641831355969
 51
218.1340915856723939
  0
ARC
  5
14E41
  8
0
 10
8717.051373860987951
 20
2167.9562082774768896
 30
0.0
 40
0.0096408293708676
 50
110.6342254769412961
 51
135.3981290107859934
  0
ARC
  5
14E42
  8
0
 10
8717.0505939459362708
 20
2167.9582794504181038
 30
0.0
 40
0.0074276811974688
 50
61.8095462808787275
 51
110.6342254768437954
  0
ARC
  5
14E43
  8
0
 10
8717.0449178353519528
 20
2167.9476893124810886
 30
0.0
 40
0.0194430568841538
 50
26.1108267579149711
 51
61.8095462808787275
  0
ARC
  5
14E44
  8
0
 10
8717.002727926859734
 20
2167.9261546432339856
 30
0.0
 40
0.0668092721568839
 50
349.0838856739068206
 51
26.7701520885030391
  0
ARC
  5
14E45
  8
0
 10
8717.0107671060577559
 20
2167.9239186701947801
 30
0.0
 40
0.0584960011264498
 50
331.6159039391818055
 51
349.7432110045133982
  0
ARC
  5
14E46
  8
0
 10
8717.0430077957007597
 20
2167.9064977581970197
 30
0.0
 40
0.0218497155953322
 50
303.8946802570151249
 51
331.6159039391818055
  0
ARC
  5
14E47
  8
0
 10
8717.0505474610545207
 20
2167.8952753018088515
 30
0.0
 40
0.0083297273911977
 50
258.6446270352520855
 51
303.8946802570151249
  0
ARC
  5
14E48
  8
0
 10
8717.05257908209569
 20
2167.8986686866869604
 30
0.0
 40
0.0121291479425255
 50
206.8801892760500891
 51
252.3791684641041968
  0
ARC
  5
14E49
  8
0
 10
8717.0841454580404388
 20
2167.9159839324629502
 30
0.0
 40
0.0481278612868057
 50
188.2884642565695117
 51
208.276072446396995
  0
ARC
  5
14E4A
  8
0
 10
8717.1426815243175952
 20
2167.9263982822399157
 30
0.0
 40
0.1075700161418081
 50
174.2572037689027979
 51
189.2830478757074957
  0
ARC
  5
14E4B
  8
0
 10
8717.1025865508636343
 20
2167.9316310493418314
 30
0.0
 40
0.0671632915117862
 50
159.1210881621996123
 51
175.2762487555091013
  0
ARC
  5
14E4C
  8
0
 10
8717.0609189017504832
 20
2167.9474425354319465
 30
0.0
 40
0.0225967287991586
 50
136.5672786326765049
 51
158.9261788467736949
  0
LINE
  5
14E4D
  8
0
 10
8717.0393571416916529
 20
2167.8983686620781555
 30
0.0
 11
8717.0633881972007657
 21
2167.8983686620781555
 31
0.0
  0
LINE
  5
14E4E
  8
0
 10
8717.0495146173761896
 20
2167.3987445806101277
 30
0.0
 11
8717.0881245443924854
 21
2167.3987445806101277
 31
0.0
  0
LINE
  5
14E4F
  8
0
 10
8717.0294491614295112
 20
2167.5562246004119515
 30
0.0
 11
8717.088165125453088
 21
2167.5562246004119515
 31
0.0
  0
ARC
  5
14E50
  8
0
 10
8717.0509897837546305
 20
2167.4144597506819991
 30
0.0
 40
0.0157842543770152
 50
226.5283959646029075
 51
264.6374195608511855
  0
ARC
  5
14E51
  8
0
 10
8717.0724278505585971
 20
2167.4332309355081634
 30
0.0
 40
0.044235131493713
 50
194.243859690287394
 51
223.1024065474040867
  0
ARC
  5
14E52
  8
0
 10
8717.2475538999387936
 20
2167.4769900840510672
 30
0.0
 40
0.224745259645481
 50
177.5674773369327966
 51
194.071575994140801
  0
ARC
  5
14E53
  8
0
 10
8718.6264732555846422
 20
2167.509511847588783
 30
0.0
 40
1.6036267998407081
 50
179.075277328179709
 51
180.8211830579743093
  0
ARC
  5
14E54
  8
0
 10
8717.0841669701694627
 20
2167.5344059924577778
 30
0.0
 40
0.0611196210953651
 50
166.6990852117864108
 51
179.075277328179709
  0
ARC
  5
14E55
  8
0
 10
8717.0462188151141163
 20
2167.5433771959278602
 30
0.0
 40
0.0221254553284299
 50
152.9351082944459961
 51
166.6990852117864108
  0
ARC
  5
14E56
  8
0
 10
8717.0319161639999948
 20
2167.5506851767390799
 30
0.0
 40
0.0060639357114346
 50
114.0059753392794022
 51
152.9351082945165956
  0
ARC
  5
14E57
  8
0
 10
8717.0476772960209928
 20
2167.5308013881781335
 30
0.0
 40
0.0258131548304346
 50
48.6715014896595193
 51
80.0283812783540469
  0
ARC
  5
14E58
  8
0
 10
8717.0158312782969006
 20
2167.4963769972027876
 30
0.0
 40
0.0727035808432937
 50
21.1746876381916991
 51
47.7405111103802469
  0
ARC
  5
14E59
  8
0
 10
8716.9738276697335095
 20
2167.4777746692011533
 30
0.0
 40
0.1186105752257245
 50
358.0009627326730879
 51
22.2249765544674602
  0
ARC
  5
14E5A
  8
0
 10
8716.9813867308203044
 20
2167.4758327126369295
 30
0.0
 40
0.1110010439647273
 50
328.5639856908719025
 51
358.8666669973200101
  0
ARC
  5
14E5B
  8
0
 10
8717.0315021521346353
 20
2167.4453031364741946
 30
0.0
 40
0.0523189028626139
 50
304.6217431164253071
 51
328.4665644263693025
  0
ARC
  5
14E5C
  8
0
 10
8717.04892986987943
 20
2167.4209866961068656
 30
0.0
 40
0.0224129095358709
 50
277.0778448891134076
 51
303.2767152240236896
  0
ARC
  5
14E5D
  8
0
 10
8717.0724131539500377
 20
2167.4115033334937834
 30
0.0
 40
0.020710500088275
 50
218.0284279996990051
 51
255.2987464353230109
  0
ARC
  5
14E5E
  8
0
 10
8717.0715492652270768
 20
2167.4082106790419857
 30
0.0
 40
0.0173064029881378
 50
255.2987464353230109
 51
296.3993652572411861
  0
ARC
  5
14E5F
  8
0
 10
8717.0577497214253526
 20
2167.4338858386408901
 30
0.0
 40
0.0464493044744279
 50
297.5646917281050037
 51
317.6876008445395883
  0
ARC
  5
14E60
  8
0
 10
8717.0121051861569867
 20
2167.4725157037919416
 30
0.0
 40
0.1062293095644159
 50
318.8529273154173893
 51
347.200103958872603
  0
ARC
  5
14E61
  8
0
 10
8716.9983382230475399
 20
2167.4773901883768303
 30
0.0
 40
0.120746101139634
 50
346.3918238231976829
 51
6.4538740774454109
  0
ARC
  5
14E62
  8
0
 10
8717.005905601892664
 20
2167.4798498857740015
 30
0.0
 40
0.1129614413134411
 50
5.6455939417682863
 51
27.3570303627909617
  0
ARC
  5
14E63
  8
0
 10
8717.0182246357126132
 20
2167.4862237497868591
 30
0.0
 40
0.0990911588104779
 50
27.3570303627909617
 51
42.4394173671843475
  0
ARC
  5
14E64
  8
0
 10
8717.0604285683166381
 20
2167.5248145133427897
 30
0.0
 40
0.041903581845253
 50
42.4394173671843475
 51
60.4984284920925575
  0
ARC
  5
14E65
  8
0
 10
8717.0695364456641983
 20
2167.5409116018768145
 30
0.0
 40
0.0234084557553492
 50
60.4984284920925575
 51
81.4339496462633576
  0
ARC
  5
14E66
  8
0
 10
8717.0617979796388681
 20
2165.988223480122997
 30
0.0
 40
1.5758754312879859
 50
89.5918720993468582
 51
90.408127900653156
  0
ARC
  5
14E67
  8
0
 10
8717.0518186336557847
 20
2167.5557883441238118
 30
0.0
 40
0.0083638885341894
 50
98.5660503537366282
 51
138.1554311228844938
  0
ARC
  5
14E68
  8
0
 10
8717.0596255705531803
 20
2167.5503475571917988
 30
0.0
 40
0.0178467485664858
 50
141.8659084143276061
 51
160.7733358168642894
  0
ARC
  5
14E69
  8
0
 10
8717.051373860987951
 20
2167.4475798848438899
 30
0.0
 40
0.0096408293708676
 50
224.6018709892140066
 51
249.3657745230586897
  0
ARC
  5
14E6A
  8
0
 10
8717.0505939459362708
 20
2167.4455087119031305
 30
0.0
 40
0.0074276811974688
 50
249.3657745231562046
 51
298.190453719121308
  0
ARC
  5
14E6B
  8
0
 10
8717.0449178353519528
 20
2167.4560988498387815
 30
0.0
 40
0.0194430568841538
 50
298.190453719121308
 51
333.8891732420851213
  0
ARC
  5
14E6C
  8
0
 10
8717.002727926859734
 20
2167.477633519086794
 30
0.0
 40
0.0668092721568839
 50
333.2298479114970178
 51
10.9161143260932505
  0
ARC
  5
14E6D
  8
0
 10
8717.0107671060577559
 20
2167.4798694921269089
 30
0.0
 40
0.0584960011264498
 50
10.2567889954866001
 51
28.3840960608181909
  0
ARC
  5
14E6E
  8
0
 10
8717.0430077957007597
 20
2167.4972904041242145
 30
0.0
 40
0.0218497155953322
 50
28.3840960608181909
 51
56.1053197429849035
  0
ARC
  5
14E6F
  8
0
 10
8717.0505474610545207
 20
2167.508512860511928
 30
0.0
 40
0.0083297273911977
 50
56.1053197429849035
 51
101.3553729647479003
  0
ARC
  5
14E70
  8
0
 10
8717.05257908209569
 20
2167.5051194756338191
 30
0.0
 40
0.0121291479425255
 50
107.6208315358958032
 51
153.1198107239499109
  0
ARC
  5
14E71
  8
0
 10
8717.0841454580404388
 20
2167.4878042298569198
 30
0.0
 40
0.0481278612868057
 50
151.723927553603005
 51
171.7115357434304883
  0
ARC
  5
14E72
  8
0
 10
8717.1426815243175952
 20
2167.4773898800808638
 30
0.0
 40
0.1075700161418081
 50
170.7169521242923906
 51
185.7427962310970884
  0
ARC
  5
14E73
  8
0
 10
8717.1025865508636343
 20
2167.4721571129789481
 30
0.0
 40
0.0671632915117862
 50
184.7237512444908987
 51
200.8789118378003877
  0
ARC
  5
14E74
  8
0
 10
8717.0609189017504832
 20
2167.4563456268888331
 30
0.0
 40
0.0225967287991586
 50
201.0738211532263051
 51
223.4327213673234951
  0
LINE
  5
14E75
  8
0
 10
8717.0393571416916529
 20
2167.5054195002430788
 30
0.0
 11
8717.0633881972007657
 21
2167.5054195002430788
 31
0.0
  0
LINE
  5
14E76
  8
0
 10
8717.0033570741597941
 20
2167.2607819557069888
 30
0.0
 11
8717.0440736207256123
 21
2167.2650917761238816
 31
0.0
  0
LINE
  5
14E77
  8
0
 10
8716.9961234058955597
 20
2167.1784087193650521
 30
0.0
 11
8717.0447716035941994
 21
2167.1645085159439077
 31
0.0
  0
ARC
  5
14E78
  8
0
 10
8717.0604460202102928
 20
2167.2582198098571098
 30
0.0
 40
0.0310054594744363
 50
151.8165268936074881
 51
170.0212535294730003
  0
ARC
  5
14E79
  8
0
 10
8717.0401606797768181
 20
2167.2690891815759642
 30
0.0
 40
0.0079915880453366
 50
109.824918920912495
 51
151.816526893630396
  0
ARC
  5
14E7A
  8
0
 10
8716.986501449275238
 20
2167.2396405352278634
 30
0.0
 40
0.0629469664767695
 50
9.3516135564823824
 51
35.9632192638431221
  0
ARC
  5
14E7B
  8
0
 10
8716.8844654424174223
 20
2167.2136265031340372
 30
0.0
 40
0.1680998323065644
 50
348.4392037639149748
 51
12.4507769140832192
  0
ARC
  5
14E7C
  8
0
 10
8716.9679137278744747
 20
2167.1946804372769293
 30
0.0
 40
0.0825680198182445
 50
329.1820831109562846
 51
349.7147572913884801
  0
ARC
  5
14E7D
  8
0
 10
8717.0367853361567541
 20
2167.1541267452748798
 30
0.0
 40
0.0026840364570035
 50
222.7819730131768949
 51
319.3958461813867871
  0
ARC
  5
14E7E
  8
0
 10
8717.0567687175807805
 20
2167.1688724972827913
 30
0.0
 40
0.0275040421028039
 50
179.8608949624220941
 51
217.042873111299599
  0
ARC
  5
14E7F
  8
0
 10
8717.0003878015322698
 20
2167.1811187666448859
 30
0.0
 40
0.00505266527856
 50
186.0779558376308103
 51
212.4361867217481858
  0
ARC
  5
14E80
  8
0
 10
8717.0904301268565177
 20
2167.1907064778711174
 30
0.0
 40
0.0956040018592193
 50
179.7031877269573101
 51
186.0779558376308103
  0
ARC
  5
14E81
  8
0
 10
8717.2653369703148201
 20
2167.1898003908499959
 30
0.0
 40
0.2705131922460366
 50
176.112436158658312
 51
179.7031877269573101
  0
ARC
  5
14E82
  8
0
 10
8717.7273179262465419
 20
2167.1584064272951764
 30
0.0
 40
0.7335596095639341
 50
174.925275067179598
 51
176.112436158658312
  0
ARC
  5
14E83
  8
0
 10
8717.3144001001546712
 20
2167.195074766120797
 30
0.0
 40
0.3190168516064773
 50
169.5899573250653134
 51
174.925275067179598
  0
ARC
  5
14E84
  8
0
 10
8717.0434844708724995
 20
2167.2448461751819195
 30
0.0
 40
0.0435672711916421
 50
160.6954316295656895
 51
169.5899573250653134
  0
ARC
  5
14E85
  8
0
 10
8717.0070091912748467
 20
2167.2576229014748606
 30
0.0
 40
0.0049189755453497
 50
145.1655729909242041
 51
160.6954316295656895
  0
ARC
  5
14E86
  8
0
 10
8717.0039221296792675
 20
2167.2597712172459978
 30
0.0
 40
0.0011579637185596
 50
119.2074673002958036
 51
145.1655729909454919
  0
ARC
  5
14E87
  8
0
 10
8717.0028782252556994
 20
2167.2597279128581249
 30
0.0
 40
0.0012664249951981
 50
11.5561552039133009
 51
58.0294696261177165
  0
ARC
  5
14E88
  8
0
 10
8716.9457815664372902
 20
2167.24969287638487
 30
0.0
 40
0.0592377560371611
 50
357.7597421874859833
 51
10.0021693540836303
  0
ARC
  5
14E89
  8
0
 10
8716.5847830740585778
 20
2167.2556598584619678
 30
0.0
 40
0.4202725958197119
 50
351.7137468509832274
 51
358.8707623269489204
  0
ARC
  5
14E8A
  8
0
 10
8716.8405744530246011
 20
2167.2186826958950405
 30
0.0
 40
0.1618227046405434
 50
348.1154773363792856
 51
351.6170139460335804
  0
ARC
  5
14E8B
  8
0
 10
8716.9721005722258269
 20
2167.190208304261887
 30
0.0
 40
0.0272629722764115
 50
335.4539288952452125
 51
349.7498240427078144
  0
ARC
  5
14E8C
  8
0
 10
8716.9960155637891148
 20
2167.1793710925221603
 30
0.0
 40
0.0010101343563646
 50
281.5890327133431015
 51
331.0790729529504119
  0
ARC
  5
14E8D
  8
0
 10
8717.1247364485407161
 20
2167.2086855271268178
 30
0.0
 40
0.1271961937992413
 50
165.1980888541316119
 51
184.7986292159048958
  0
ARC
  5
14E8E
  8
0
 10
8716.8799476841686555
 20
2167.2301088334579617
 30
0.0
 40
0.1223157890504523
 50
344.8029605781458145
 51
5.1937574918646412
  0
LINE
  5
14E8F
  8
0
 10
8717.0462290397008474
 20
2167.1347682673472264
 30
0.0
 11
8717.1029329655411857
 21
2167.1408988100201896
 31
0.0
  0
LINE
  5
14E90
  8
0
 10
8717.0390483056762605
 20
2167.0525822300528489
 30
0.0
 11
8717.102507364250414
 21
2167.0341810192730918
 31
0.0
  0
ARC
  5
14E91
  8
0
 10
8717.0507689106452744
 20
2167.1282911352282099
 30
0.0
 40
0.0079097198870455
 50
125.0269046647400017
 51
161.8777712680316085
  0
ARC
  5
14E92
  8
0
 10
8717.1351971635613154
 20
2167.0964487845831172
 30
0.0
 40
0.098135957114537
 50
159.5407005617682898
 51
172.3508274527322897
  0
ARC
  5
14E93
  8
0
 10
8717.2569805742896278
 20
2167.075140504276078
 30
0.0
 40
0.2217263174092978
 50
171.0823441176997903
 51
181.0966008715950863
  0
ARC
  5
14E94
  8
0
 10
8717.1391573412111029
 20
2167.074823875202128
 30
0.0
 40
0.1039366799997546
 50
182.165188242824911
 51
189.3817166668040102
  0
ARC
  5
14E95
  8
0
 10
8717.0496672639474127
 20
2167.0600382267430177
 30
0.0
 40
0.0132333761536773
 50
189.3817166668297034
 51
207.4432974370535874
  0
ARC
  5
14E96
  8
0
 10
8717.0416189088355168
 20
2167.0558586365191331
 30
0.0
 40
0.0041644735456623
 50
207.4432974371478053
 51
231.8829766648671011
  0
ARC
  5
14E97
  8
0
 10
8717.0391016215417039
 20
2167.0552571352509403
 30
0.0
 40
0.0029254500565212
 50
281.7915792711377776
 51
326.9812149400661951
  0
ARC
  5
14E98
  8
0
 10
8717.0089340592858207
 20
2167.0728248126652034
 30
0.0
 40
0.0378321729898433
 50
329.5693741496089046
 51
348.3046759373153236
  0
ARC
  5
14E99
  8
0
 10
8716.8403851984730863
 20
2167.1117269350747847
 30
0.0
 40
0.2108042048445119
 50
347.2368923212933964
 51
359.0439789038632057
  0
ARC
  5
14E9A
  8
0
 10
8716.9534713640186965
 20
2167.1123549195272062
 30
0.0
 40
0.0977766029299182
 50
357.5702164859395111
 51
10.5812491192237292
  0
ARC
  5
14E9B
  8
0
 10
8717.0416240724935051
 20
2167.1289798615698601
 30
0.0
 40
0.0080715393401374
 50
9.4823971435131842
 51
46.8373353318239509
  0
ARC
  5
14E9C
  8
0
 10
8717.0898911698131997
 20
2167.123907379377215
 30
0.0
 40
0.0281834242360516
 50
121.101052346480202
 51
152.8272552589002089
  0
ARC
  5
14E9D
  8
0
 10
8717.0846761160701135
 20
2167.1325521137719079
 30
0.0
 40
0.0180874736458402
 50
96.0521869160070025
 51
121.101052346480202
  0
ARC
  5
14E9E
  8
0
 10
8717.084712108498934
 20
2167.1322126433110498
 30
0.0
 40
0.0184288468279212
 50
67.3377600996077348
 51
96.0521869160070025
  0
ARC
  5
14E9F
  8
0
 10
8717.0727844391258259
 20
2167.1121939467930133
 30
0.0
 40
0.0416281493445408
 50
33.051034644293118
 51
62.7998051837318201
  0
ARC
  5
14EA0
  8
0
 10
8717.0432968996119598
 20
2167.0902855024692144
 30
0.0
 40
0.078325949045587
 50
11.1224357349961807
 51
34.72001174257597
  0
ARC
  5
14EA1
  8
0
 10
8717.0343508696641948
 20
2167.0877339003791349
 30
0.0
 40
0.0875996216767173
 50
343.8255515780389828
 51
11.6312593887989593
  0
ARC
  5
14EA2
  8
0
 10
8717.0446566361224541
 20
2167.0843790000549234
 30
0.0
 40
0.0767680312739871
 50
325.3540348476586246
 51
344.0877474909788134
  0
ARC
  5
14EA3
  8
0
 10
8717.0709268054451968
 20
2167.0651624235988493
 30
0.0
 40
0.0442400170467837
 50
299.9182616981073011
 51
326.4865670103390016
  0
ARC
  5
14EA4
  8
0
 10
8717.0845443065081781
 20
2167.0448599036380983
 30
0.0
 40
0.0199218145104279
 50
256.698717833797275
 51
295.0904895874870135
  0
ARC
  5
14EA5
  8
0
 10
8717.0896988630083797
 20
2167.0524913790718529
 30
0.0
 40
0.0287201586320659
 50
193.0463506587634868
 51
250.1800852696351001
  0
ARC
  5
14EA6
  8
0
 10
8717.0620671808865154
 20
2167.1044533330759805
 30
0.0
 40
0.0207029914077528
 50
152.809805445951099
 51
167.7867429122713929
  0
ARC
  5
14EA7
  8
0
 10
8717.0468202084357472
 20
2167.1122859143270034
 30
0.0
 40
0.0035618275618712
 50
130.2796889013791883
 51
152.8098054458571937
  0
ARC
  5
14EA8
  8
0
 10
8717.0450801796432643
 20
2167.1143391609548416
 30
0.0
 40
0.0008704483776159
 50
9.7949086692464356
 51
130.2796889012491874
  0
ARC
  5
14EA9
  8
0
 10
8716.9949593172677851
 20
2167.1018767087120978
 30
0.0
 40
0.052515193124652
 50
353.6617861201999062
 51
13.8942820658835409
  0
ARC
  5
14EAA
  8
0
 10
8716.94636996578447
 20
2167.1017868416211059
 30
0.0
 40
0.1009450393026873
 50
346.2932129493423759
 51
356.7586365091012794
  0
ARC
  5
14EAB
  8
0
 10
8717.025908812198395
 20
2167.0822502420828641
 30
0.0
 40
0.0190425807738631
 50
330.6946217774723209
 51
346.6940856137186984
  0
ARC
  5
14EAC
  8
0
 10
8717.0414531858350529
 20
2167.0734915025159353
 30
0.0
 40
0.0012007940738292
 50
208.4122028179706092
 51
332.0980174495663846
  0
ARC
  5
14EAD
  8
0
 10
8717.1013819093732309
 20
2167.0860505741329689
 30
0.0
 40
0.0623823968947787
 50
173.3311592460121062
 51
192.1506486773184008
  0
ARC
  5
14EAE
  8
0
 10
8717.1381654142678599
 20
2167.08592821293405
 30
0.0
 40
0.0990182438227867
 50
166.6252272298769981
 51
175.7333041724500049
  0
LINE
  5
14EAF
  8
0
 10
8717.0179664120387315
 20
2167.1379826460752156
 30
0.0
 11
8716.9877572548884928
 21
2167.1348075357109337
 31
0.0
  0
LINE
  5
14EB0
  8
0
 10
8716.9877572548884928
 20
2167.1348075357109337
 30
0.0
 11
8716.9805514650888654
 21
2167.0524449819099573
 31
0.0
  0
LINE
  5
14EB1
  8
0
 10
8716.9805514650888654
 20
2167.0524449819099573
 30
0.0
 11
8717.0182871292308846
 21
2167.0416244543548601
 31
0.0
  0
ARC
  5
14EB2
  8
0
 10
8716.4785757868103246
 20
2167.0880077166270894
 30
0.0
 40
0.5417007847106562
 50
352.5066288528927885
 51
7.4933711471072533
  0
LINE
  5
14EB3
  8
0
 10
8717.0033570741597941
 20
2167.0074819950650635
 30
0.0
 11
8717.0440736207256123
 21
2167.0117918154819563
 31
0.0
  0
LINE
  5
14EB4
  8
0
 10
8716.9961234058955597
 20
2166.9251087587240363
 30
0.0
 11
8717.0447716035941994
 21
2166.9112085553019824
 31
0.0
  0
ARC
  5
14EB5
  8
0
 10
8717.0604460202102928
 20
2167.0049198492151845
 30
0.0
 40
0.0310054594744363
 50
151.8165268936074881
 51
170.0212535294730003
  0
ARC
  5
14EB6
  8
0
 10
8717.0401606797768181
 20
2167.0157892209340389
 30
0.0
 40
0.0079915880453366
 50
109.824918920912495
 51
151.816526893630396
  0
ARC
  5
14EB7
  8
0
 10
8716.986501449275238
 20
2166.9863405745859382
 30
0.0
 40
0.0629469664767695
 50
9.3516135564823824
 51
35.9632192638431221
  0
ARC
  5
14EB8
  8
0
 10
8716.8844654424174223
 20
2166.9603265424912024
 30
0.0
 40
0.1680998323065644
 50
348.4392037639149748
 51
12.4507769140832192
  0
ARC
  5
14EB9
  8
0
 10
8716.9679137278744747
 20
2166.941380476635004
 30
0.0
 40
0.0825680198182445
 50
329.1820831109562846
 51
349.7147572913884801
  0
ARC
  5
14EBA
  8
0
 10
8717.0367853361567541
 20
2166.9008267846329545
 30
0.0
 40
0.0026840364570035
 50
222.7819730131768949
 51
319.3958461813867871
  0
ARC
  5
14EBB
  8
0
 10
8717.0567687175807805
 20
2166.915572536640866
 30
0.0
 40
0.0275040421028039
 50
179.8608949624220941
 51
217.042873111299599
  0
ARC
  5
14EBC
  8
0
 10
8717.0003878015322698
 20
2166.9278188060029606
 30
0.0
 40
0.00505266527856
 50
186.0779558376308103
 51
212.4361867217481858
  0
ARC
  5
14EBD
  8
0
 10
8717.0904301268565177
 20
2166.9374065172291921
 30
0.0
 40
0.0956040018592193
 50
179.7031877269573101
 51
186.0779558376308103
  0
ARC
  5
14EBE
  8
0
 10
8717.2653369703148201
 20
2166.9365004302080706
 30
0.0
 40
0.2705131922460366
 50
176.112436158658312
 51
179.7031877269573101
  0
ARC
  5
14EBF
  8
0
 10
8717.7273179262465419
 20
2166.9051064666541606
 30
0.0
 40
0.7335596095639341
 50
174.925275067179598
 51
176.112436158658312
  0
ARC
  5
14EC0
  8
0
 10
8717.3144001001546712
 20
2166.9417748054788717
 30
0.0
 40
0.3190168516064773
 50
169.5899573250653134
 51
174.925275067179598
  0
ARC
  5
14EC1
  8
0
 10
8717.0434844708724995
 20
2166.9915462145399943
 30
0.0
 40
0.0435672711916421
 50
160.6954316295656895
 51
169.5899573250653134
  0
ARC
  5
14EC2
  8
0
 10
8717.0070091912748467
 20
2167.0043229408329353
 30
0.0
 40
0.0049189755453497
 50
145.1655729909242041
 51
160.6954316295656895
  0
ARC
  5
14EC3
  8
0
 10
8717.0039221296792675
 20
2167.006471256604982
 30
0.0
 40
0.0011579637185596
 50
119.2074673002958036
 51
145.1655729909454919
  0
ARC
  5
14EC4
  8
0
 10
8717.0028782252556994
 20
2167.0064279522161996
 30
0.0
 40
0.0012664249951981
 50
11.5561552039133009
 51
58.0294696261177165
  0
ARC
  5
14EC5
  8
0
 10
8716.9457815664372902
 20
2166.9963929157429448
 30
0.0
 40
0.0592377560371611
 50
357.7597421874859833
 51
10.0021693540836303
  0
ARC
  5
14EC6
  8
0
 10
8716.5847830740585778
 20
2167.0023598978200425
 30
0.0
 40
0.4202725958197119
 50
351.7137468509832274
 51
358.8707623269489204
  0
ARC
  5
14EC7
  8
0
 10
8716.8405744530246011
 20
2166.9653827352531152
 30
0.0
 40
0.1618227046405434
 50
348.1154773363792856
 51
351.6170139460335804
  0
ARC
  5
14EC8
  8
0
 10
8716.9721005722258269
 20
2166.9369083436199617
 30
0.0
 40
0.0272629722764115
 50
335.4539288952452125
 51
349.7498240427078144
  0
ARC
  5
14EC9
  8
0
 10
8716.9960155637891148
 20
2166.9260711318797803
 30
0.0
 40
0.0010101343563646
 50
281.5890327133431015
 51
331.0790729529504119
  0
ARC
  5
14ECA
  8
0
 10
8717.1247364485407161
 20
2166.955385566485802
 30
0.0
 40
0.1271961937992413
 50
165.1980888541316119
 51
184.7986292159048958
  0
ARC
  5
14ECB
  8
0
 10
8716.8799476841686555
 20
2166.9768088728160365
 30
0.0
 40
0.1223157890504523
 50
344.8029605781458145
 51
5.1937574918646412
  0
LINE
  5
14ECC
  8
0
 10
8717.0462290397008474
 20
2166.8814683067048463
 30
0.0
 11
8717.1029329655411857
 21
2166.8875988493778095
 31
0.0
  0
LINE
  5
14ECD
  8
0
 10
8717.0390483056762605
 20
2166.7992822694109236
 30
0.0
 11
8717.102507364250414
 21
2166.7808810586311665
 31
0.0
  0
ARC
  5
14ECE
  8
0
 10
8717.0507689106452744
 20
2166.8749911745858299
 30
0.0
 40
0.0079097198870455
 50
125.0269046647400017
 51
161.8777712680316085
  0
ARC
  5
14ECF
  8
0
 10
8717.1351971635613154
 20
2166.8431488239411919
 30
0.0
 40
0.098135957114537
 50
159.5407005617682898
 51
172.3508274527322897
  0
ARC
  5
14ED0
  8
0
 10
8717.2569805742896278
 20
2166.8218405436341527
 30
0.0
 40
0.2217263174092978
 50
171.0823441176997903
 51
181.0966008715950863
  0
ARC
  5
14ED1
  8
0
 10
8717.1391573412111029
 20
2166.8215239145602027
 30
0.0
 40
0.1039366799997546
 50
182.165188242824911
 51
189.3817166668040102
  0
ARC
  5
14ED2
  8
0
 10
8717.0496672639474127
 20
2166.8067382661010924
 30
0.0
 40
0.0132333761536773
 50
189.3817166668297034
 51
207.4432974370535874
  0
ARC
  5
14ED3
  8
0
 10
8717.0416189088355168
 20
2166.8025586758772079
 30
0.0
 40
0.0041644735456623
 50
207.4432974371478053
 51
231.8829766648671011
  0
ARC
  5
14ED4
  8
0
 10
8717.0391016215417039
 20
2166.8019571746090151
 30
0.0
 40
0.0029254500565212
 50
281.7915792711377776
 51
326.9812149400661951
  0
ARC
  5
14ED5
  8
0
 10
8717.0089340592858207
 20
2166.8195248520228233
 30
0.0
 40
0.0378321729898433
 50
329.5693741496089046
 51
348.3046759373153236
  0
ARC
  5
14ED6
  8
0
 10
8716.8403851984730863
 20
2166.8584269744328594
 30
0.0
 40
0.2108042048445119
 50
347.2368923212933964
 51
359.0439789038632057
  0
ARC
  5
14ED7
  8
0
 10
8716.9534713640186965
 20
2166.8590549588848262
 30
0.0
 40
0.0977766029299182
 50
357.5702164859395111
 51
10.5812491192237292
  0
ARC
  5
14ED8
  8
0
 10
8717.0416240724935051
 20
2166.8756799009279348
 30
0.0
 40
0.0080715393401374
 50
9.4823971435131842
 51
46.8373353318239509
  0
ARC
  5
14ED9
  8
0
 10
8717.0898911698131997
 20
2166.8706074187348349
 30
0.0
 40
0.0281834242360516
 50
121.101052346480202
 51
152.8272552589002089
  0
ARC
  5
14EDA
  8
0
 10
8717.0846761160701135
 20
2166.8792521531299826
 30
0.0
 40
0.0180874736458402
 50
96.0521869160070025
 51
121.101052346480202
  0
ARC
  5
14EDB
  8
0
 10
8717.084712108498934
 20
2166.878912682668215
 30
0.0
 40
0.0184288468279212
 50
67.3377600996077348
 51
96.0521869160070025
  0
ARC
  5
14EDC
  8
0
 10
8717.0727844391258259
 20
2166.858893986151088
 30
0.0
 40
0.0416281493445408
 50
33.051034644293118
 51
62.7998051837318201
  0
ARC
  5
14EDD
  8
0
 10
8717.0432968996119598
 20
2166.8369855418268344
 30
0.0
 40
0.078325949045587
 50
11.1224357349961807
 51
34.72001174257597
  0
ARC
  5
14EDE
  8
0
 10
8717.0343508696641948
 20
2166.8344339397372096
 30
0.0
 40
0.0875996216767173
 50
343.8255515780389828
 51
11.6312593887989593
  0
ARC
  5
14EDF
  8
0
 10
8717.0446566361224541
 20
2166.8310790394129981
 30
0.0
 40
0.0767680312739871
 50
325.3540348476586246
 51
344.0877474909788134
  0
ARC
  5
14EE0
  8
0
 10
8717.0709268054451968
 20
2166.811862462956924
 30
0.0
 40
0.0442400170467837
 50
299.9182616981073011
 51
326.4865670103390016
  0
ARC
  5
14EE1
  8
0
 10
8717.0845443065081781
 20
2166.791559942996173
 30
0.0
 40
0.0199218145104279
 50
256.698717833797275
 51
295.0904895874870135
  0
ARC
  5
14EE2
  8
0
 10
8717.0896988630083797
 20
2166.7991914184308371
 30
0.0
 40
0.0287201586320659
 50
193.0463506587634868
 51
250.1800852696351001
  0
ARC
  5
14EE3
  8
0
 10
8717.0620671808865154
 20
2166.8511533724349647
 30
0.0
 40
0.0207029914077528
 50
152.809805445951099
 51
167.7867429122713929
  0
ARC
  5
14EE4
  8
0
 10
8717.0468202084357472
 20
2166.8589859536850781
 30
0.0
 40
0.0035618275618712
 50
130.2796889013791883
 51
152.8098054458571937
  0
ARC
  5
14EE5
  8
0
 10
8717.0450801796432643
 20
2166.8610392003129164
 30
0.0
 40
0.0008704483776159
 50
9.7949086692464356
 51
130.2796889012491874
  0
ARC
  5
14EE6
  8
0
 10
8716.9949593172677851
 20
2166.8485767480701725
 30
0.0
 40
0.052515193124652
 50
353.6617861201999062
 51
13.8942820658835409
  0
ARC
  5
14EE7
  8
0
 10
8716.94636996578447
 20
2166.8484868809791806
 30
0.0
 40
0.1009450393026873
 50
346.2932129493423759
 51
356.7586365091012794
  0
ARC
  5
14EE8
  8
0
 10
8717.025908812198395
 20
2166.8289502814409389
 30
0.0
 40
0.0190425807738631
 50
330.6946217774723209
 51
346.6940856137186984
  0
ARC
  5
14EE9
  8
0
 10
8717.0414531858350529
 20
2166.82019154187401
 30
0.0
 40
0.0012007940738292
 50
208.4122028179706092
 51
332.0980174495663846
  0
ARC
  5
14EEA
  8
0
 10
8717.1013819093732309
 20
2166.8327506134910436
 30
0.0
 40
0.0623823968947787
 50
173.3311592460121062
 51
192.1506486773184008
  0
ARC
  5
14EEB
  8
0
 10
8717.1381654142678599
 20
2166.8326282522921247
 30
0.0
 40
0.0990182438227867
 50
166.6252272298769981
 51
175.7333041724500049
  0
LINE
  5
14EEC
  8
0
 10
8717.0179664120387315
 20
2166.8846826854328356
 30
0.0
 11
8716.9877572548884928
 21
2166.8815075750690085
 31
0.0
  0
LINE
  5
14EED
  8
0
 10
8716.9877572548884928
 20
2166.8815075750690085
 30
0.0
 11
8716.9805514650888654
 21
2166.799145021268032
 31
0.0
  0
LINE
  5
14EEE
  8
0
 10
8716.9805514650888654
 20
2166.799145021268032
 30
0.0
 11
8717.0182871292308846
 21
2166.7883244937129348
 31
0.0
  0
ARC
  5
14EEF
  8
0
 10
8716.4785757868103246
 20
2166.8347077559851641
 30
0.0
 40
0.5417007847106562
 50
352.5066288528927885
 51
7.4933711471072533
  0
LINE
  5
14EF0
  8
0
 10
8717.0033570741597941
 20
2166.7541951391817747
 30
0.0
 11
8717.0440736207256123
 21
2166.7585049596000317
 31
0.0
  0
LINE
  5
14EF1
  8
0
 10
8716.9961234058955597
 20
2166.6718219028412022
 30
0.0
 11
8717.0447716035941994
 21
2166.6579216994191484
 31
0.0
  0
ARC
  5
14EF2
  8
0
 10
8717.0604460202102928
 20
2166.7516329933328052
 30
0.0
 40
0.0310054594744363
 50
151.8165268936074881
 51
170.0212535294730003
  0
ARC
  5
14EF3
  8
0
 10
8717.0401606797768181
 20
2166.7625023650512048
 30
0.0
 40
0.0079915880453366
 50
109.824918920912495
 51
151.816526893630396
  0
ARC
  5
14EF4
  8
0
 10
8716.986501449275238
 20
2166.7330537187040136
 30
0.0
 40
0.0629469664767695
 50
9.3516135564823824
 51
35.9632192638431221
  0
ARC
  5
14EF5
  8
0
 10
8716.8844654424174223
 20
2166.7070396866088231
 30
0.0
 40
0.1680998323065644
 50
348.4392037639149748
 51
12.4507769140832192
  0
ARC
  5
14EF6
  8
0
 10
8716.9679137278744747
 20
2166.6880936207530794
 30
0.0
 40
0.0825680198182445
 50
329.1820831109562846
 51
349.7147572913884801
  0
ARC
  5
14EF7
  8
0
 10
8717.0367853361567541
 20
2166.6475399287501205
 30
0.0
 40
0.0026840364570035
 50
222.7819730131768949
 51
319.3958461813867871
  0
ARC
  5
14EF8
  8
0
 10
8717.0567687175807805
 20
2166.6622856807589415
 30
0.0
 40
0.0275040421028039
 50
179.8608949624220941
 51
217.042873111299599
  0
ARC
  5
14EF9
  8
0
 10
8717.0003878015322698
 20
2166.6745319501192171
 30
0.0
 40
0.00505266527856
 50
186.0779558376308103
 51
212.4361867217481858
  0
ARC
  5
14EFA
  8
0
 10
8717.0904301268565177
 20
2166.6841196613468128
 30
0.0
 40
0.0956040018592193
 50
179.7031877269573101
 51
186.0779558376308103
  0
ARC
  5
14EFB
  8
0
 10
8717.2653369703148201
 20
2166.683213574326146
 30
0.0
 40
0.2705131922460366
 50
176.112436158658312
 51
179.7031877269573101
  0
ARC
  5
14EFC
  8
0
 10
8717.7273179262465419
 20
2166.6518196107708718
 30
0.0
 40
0.7335596095639341
 50
174.925275067179598
 51
176.112436158658312
  0
ARC
  5
14EFD
  8
0
 10
8717.3144001001546712
 20
2166.6884879495969471
 30
0.0
 40
0.3190168516064773
 50
169.5899573250653134
 51
174.925275067179598
  0
ARC
  5
14EFE
  8
0
 10
8717.0434844708724995
 20
2166.7382593586580697
 30
0.0
 40
0.0435672711916421
 50
160.6954316295656895
 51
169.5899573250653134
  0
ARC
  5
14EFF
  8
0
 10
8717.0070091912748467
 20
2166.7510360849510107
 30
0.0
 40
0.0049189755453497
 50
145.1655729909242041
 51
160.6954316295656895
  0
ARC
  5
14F00
  8
0
 10
8717.0039221296792675
 20
2166.753184400722148
 30
0.0
 40
0.0011579637185596
 50
119.2074673002958036
 51
145.1655729909454919
  0
ARC
  5
14F01
  8
0
 10
8717.0028782252556994
 20
2166.7531410963338203
 30
0.0
 40
0.0012664249951981
 50
11.5561552039133009
 51
58.0294696261177165
  0
ARC
  5
14F02
  8
0
 10
8716.9457815664372902
 20
2166.7431060598601107
 30
0.0
 40
0.0592377560371611
 50
357.7597421874859833
 51
10.0021693540836303
  0
ARC
  5
14F03
  8
0
 10
8716.5847830740585778
 20
2166.749073041938118
 30
0.0
 40
0.4202725958197119
 50
351.7137468509832274
 51
358.8707623269489204
  0
ARC
  5
14F04
  8
0
 10
8716.8405744530246011
 20
2166.7120958793711907
 30
0.0
 40
0.1618227046405434
 50
348.1154773363792856
 51
351.6170139460335804
  0
ARC
  5
14F05
  8
0
 10
8716.9721005722258269
 20
2166.6836214877380371
 30
0.0
 40
0.0272629722764115
 50
335.4539288952452125
 51
349.7498240427078144
  0
ARC
  5
14F06
  8
0
 10
8716.9960155637891148
 20
2166.6727842759978557
 30
0.0
 40
0.0010101343563646
 50
281.5890327133431015
 51
331.0790729529504119
  0
ARC
  5
14F07
  8
0
 10
8717.1247364485407161
 20
2166.7020987106029679
 30
0.0
 40
0.1271961937992413
 50
165.1980888541316119
 51
184.7986292159048958
  0
ARC
  5
14F08
  8
0
 10
8716.8799476841686555
 20
2166.7235220169341119
 30
0.0
 40
0.1223157890504523
 50
344.8029605781458145
 51
5.1937574918646412
  0
LINE
  5
14F09
  8
0
 10
8717.0462290397008474
 20
2166.6281814508229218
 30
0.0
 11
8717.1029329655411857
 21
2166.6343119934949755
 31
0.0
  0
LINE
  5
14F0A
  8
0
 10
8717.0390483056762605
 20
2166.5459954135289991
 30
0.0
 11
8717.102507364250414
 21
2166.5275942027487872
 31
0.0
  0
ARC
  5
14F0B
  8
0
 10
8717.0507689106452744
 20
2166.6217043187029958
 30
0.0
 40
0.0079097198870455
 50
125.0269046647400017
 51
161.8777712680316085
  0
ARC
  5
14F0C
  8
0
 10
8717.1351971635613154
 20
2166.5898619680579031
 30
0.0
 40
0.098135957114537
 50
159.5407005617682898
 51
172.3508274527322897
  0
ARC
  5
14F0D
  8
0
 10
8717.2569805742896278
 20
2166.5685536877517734
 30
0.0
 40
0.2217263174092978
 50
171.0823441176997903
 51
181.0966008715950863
  0
ARC
  5
14F0E
  8
0
 10
8717.1391573412111029
 20
2166.5682370586778234
 30
0.0
 40
0.1039366799997546
 50
182.165188242824911
 51
189.3817166668040102
  0
ARC
  5
14F0F
  8
0
 10
8717.0496672639474127
 20
2166.5534514102191679
 30
0.0
 40
0.0132333761536773
 50
189.3817166668297034
 51
207.4432974370535874
  0
ARC
  5
14F10
  8
0
 10
8717.0416189088355168
 20
2166.5492718199939191
 30
0.0
 40
0.0041644735456623
 50
207.4432974371478053
 51
231.8829766648671011
  0
ARC
  5
14F11
  8
0
 10
8717.0391016215417039
 20
2166.5486703187270905
 30
0.0
 40
0.0029254500565212
 50
281.7915792711377776
 51
326.9812149400661951
  0
ARC
  5
14F12
  8
0
 10
8717.0089340592858207
 20
2166.5662379961408988
 30
0.0
 40
0.0378321729898433
 50
329.5693741496089046
 51
348.3046759373153236
  0
ARC
  5
14F13
  8
0
 10
8716.8403851984730863
 20
2166.6051401185509349
 30
0.0
 40
0.2108042048445119
 50
347.2368923212933964
 51
359.0439789038632057
  0
ARC
  5
14F14
  8
0
 10
8716.9534713640186965
 20
2166.6057681030029016
 30
0.0
 40
0.0977766029299182
 50
357.5702164859395111
 51
10.5812491192237292
  0
ARC
  5
14F15
  8
0
 10
8717.0416240724935051
 20
2166.6223930450460102
 30
0.0
 40
0.0080715393401374
 50
9.4823971435131842
 51
46.8373353318239509
  0
ARC
  5
14F16
  8
0
 10
8717.0898911698131997
 20
2166.6173205628529104
 30
0.0
 40
0.0281834242360516
 50
121.101052346480202
 51
152.8272552589002089
  0
ARC
  5
14F17
  8
0
 10
8717.0846761160701135
 20
2166.6259652972480581
 30
0.0
 40
0.0180874736458402
 50
96.0521869160070025
 51
121.101052346480202
  0
ARC
  5
14F18
  8
0
 10
8717.084712108498934
 20
2166.6256258267858357
 30
0.0
 40
0.0184288468279212
 50
67.3377600996077348
 51
96.0521869160070025
  0
ARC
  5
14F19
  8
0
 10
8717.0727844391258259
 20
2166.6056071302691635
 30
0.0
 40
0.0416281493445408
 50
33.051034644293118
 51
62.7998051837318201
  0
ARC
  5
14F1A
  8
0
 10
8717.0432968996119598
 20
2166.5836986859449098
 30
0.0
 40
0.078325949045587
 50
11.1224357349961807
 51
34.72001174257597
  0
ARC
  5
14F1B
  8
0
 10
8717.0343508696641948
 20
2166.5811470838548303
 30
0.0
 40
0.0875996216767173
 50
343.8255515780389828
 51
11.6312593887989593
  0
ARC
  5
14F1C
  8
0
 10
8717.0446566361224541
 20
2166.5777921835310735
 30
0.0
 40
0.0767680312739871
 50
325.3540348476586246
 51
344.0877474909788134
  0
ARC
  5
14F1D
  8
0
 10
8717.0709268054451968
 20
2166.5585756070740899
 30
0.0
 40
0.0442400170467837
 50
299.9182616981073011
 51
326.4865670103390016
  0
ARC
  5
14F1E
  8
0
 10
8717.0845443065081781
 20
2166.5382730871128842
 30
0.0
 40
0.0199218145104279
 50
256.698717833797275
 51
295.0904895874870135
  0
ARC
  5
14F1F
  8
0
 10
8717.0896988630083797
 20
2166.545904562548003
 30
0.0
 40
0.0287201586320659
 50
193.0463506587634868
 51
250.1800852696351001
  0
ARC
  5
14F20
  8
0
 10
8717.0620671808865154
 20
2166.5978665165521306
 30
0.0
 40
0.0207029914077528
 50
152.809805445951099
 51
167.7867429122713929
  0
ARC
  5
14F21
  8
0
 10
8717.0468202084357472
 20
2166.6056990978017893
 30
0.0
 40
0.0035618275618712
 50
130.2796889013791883
 51
152.8098054458571937
  0
ARC
  5
14F22
  8
0
 10
8717.0450801796432643
 20
2166.6077523444309918
 30
0.0
 40
0.0008704483776159
 50
9.7949086692464356
 51
130.2796889012491874
  0
ARC
  5
14F23
  8
0
 10
8716.9949593172677851
 20
2166.5952898921868837
 30
0.0
 40
0.052515193124652
 50
353.6617861201999062
 51
13.8942820658835409
  0
ARC
  5
14F24
  8
0
 10
8716.94636996578447
 20
2166.5952000250958918
 30
0.0
 40
0.1009450393026873
 50
346.2932129493423759
 51
356.7586365091012794
  0
ARC
  5
14F25
  8
0
 10
8717.025908812198395
 20
2166.5756634255581048
 30
0.0
 40
0.0190425807738631
 50
330.6946217774723209
 51
346.6940856137186984
  0
ARC
  5
14F26
  8
0
 10
8717.0414531858350529
 20
2166.5669046859920854
 30
0.0
 40
0.0012007940738292
 50
208.4122028179706092
 51
332.0980174495663846
  0
ARC
  5
14F27
  8
0
 10
8717.1013819093732309
 20
2166.5794637576091191
 30
0.0
 40
0.0623823968947787
 50
173.3311592460121062
 51
192.1506486773184008
  0
ARC
  5
14F28
  8
0
 10
8717.1381654142678599
 20
2166.5793413964102001
 30
0.0
 40
0.0990182438227867
 50
166.6252272298769981
 51
175.7333041724500049
  0
LINE
  5
14F29
  8
0
 10
8717.0179664120387315
 20
2166.631395829550911
 30
0.0
 11
8716.9877572548884928
 21
2166.6282207191861744
 31
0.0
  0
LINE
  5
14F2A
  8
0
 10
8716.9877572548884928
 20
2166.6282207191861744
 30
0.0
 11
8716.9805514650888654
 21
2166.5458581653861074
 31
0.0
  0
LINE
  5
14F2B
  8
0
 10
8716.9805514650888654
 20
2166.5458581653861074
 30
0.0
 11
8717.0182871292308846
 21
2166.5350376378301007
 31
0.0
  0
ARC
  5
14F2C
  8
0
 10
8716.4785757868103246
 20
2166.5814209001027848
 30
0.0
 40
0.5417007847106562
 50
352.5066288528927885
 51
7.4933711471072533
  0
LINE
  5
14F2D
  8
0
 10
8717.0033570741597941
 20
2166.5009215754439538
 30
0.0
 11
8717.0440736207256123
 21
2166.5052313958622108
 31
0.0
  0
LINE
  5
14F2E
  8
0
 10
8716.9961234058955597
 20
2166.418548339103836
 30
0.0
 11
8717.0447716035941994
 21
2166.4046481356817822
 31
0.0
  0
ARC
  5
14F2F
  8
0
 10
8717.0604460202102928
 20
2166.4983594295949842
 30
0.0
 40
0.0310054594744363
 50
151.8165268936074881
 51
170.0212535294730003
  0
ARC
  5
14F30
  8
0
 10
8717.0401606797768181
 20
2166.5092288013129291
 30
0.0
 40
0.0079915880453366
 50
109.824918920912495
 51
151.816526893630396
  0
ARC
  5
14F31
  8
0
 10
8716.986501449275238
 20
2166.4797801549661926
 30
0.0
 40
0.0629469664767695
 50
9.3516135564823824
 51
35.9632192638431221
  0
ARC
  5
14F32
  8
0
 10
8716.8844654424174223
 20
2166.4537661228710022
 30
0.0
 40
0.1680998323065644
 50
348.4392037639149748
 51
12.4507769140832192
  0
ARC
  5
14F33
  8
0
 10
8716.9679137278744747
 20
2166.4348200570148038
 30
0.0
 40
0.0825680198182445
 50
329.1820831109562846
 51
349.7147572913884801
  0
ARC
  5
14F34
  8
0
 10
8717.0367853361567541
 20
2166.3942663650118448
 30
0.0
 40
0.0026840364570035
 50
222.7819730131768949
 51
319.3958461813867871
  0
ARC
  5
14F35
  8
0
 10
8717.0567687175807805
 20
2166.4090121170211205
 30
0.0
 40
0.0275040421028039
 50
179.8608949624220941
 51
217.042873111299599
  0
ARC
  5
14F36
  8
0
 10
8717.0003878015322698
 20
2166.4212583863818509
 30
0.0
 40
0.00505266527856
 50
186.0779558376308103
 51
212.4361867217481858
  0
ARC
  5
14F37
  8
0
 10
8717.0904301268565177
 20
2166.4308460976080823
 30
0.0
 40
0.0956040018592193
 50
179.7031877269573101
 51
186.0779558376308103
  0
ARC
  5
14F38
  8
0
 10
8717.2653369703148201
 20
2166.4299400105878703
 30
0.0
 40
0.2705131922460366
 50
176.112436158658312
 51
179.7031877269573101
  0
ARC
  5
14F39
  8
0
 10
8717.7273179262465419
 20
2166.3985460470330509
 30
0.0
 40
0.7335596095639341
 50
174.925275067179598
 51
176.112436158658312
  0
ARC
  5
14F3A
  8
0
 10
8717.3144001001546712
 20
2166.4352143858591262
 30
0.0
 40
0.3190168516064773
 50
169.5899573250653134
 51
174.925275067179598
  0
ARC
  5
14F3B
  8
0
 10
8717.0434844708724995
 20
2166.4849857949188845
 30
0.0
 40
0.0435672711916421
 50
160.6954316295656895
 51
169.5899573250653134
  0
ARC
  5
14F3C
  8
0
 10
8717.0070091912748467
 20
2166.4977625212118255
 30
0.0
 40
0.0049189755453497
 50
145.1655729909242041
 51
160.6954316295656895
  0
ARC
  5
14F3D
  8
0
 10
8717.0039221296792675
 20
2166.4999108369838723
 30
0.0
 40
0.0011579637185596
 50
119.2074673002958036
 51
145.1655729909454919
  0
ARC
  5
14F3E
  8
0
 10
8717.0028782252556994
 20
2166.4998675325959994
 30
0.0
 40
0.0012664249951981
 50
11.5561552039133009
 51
58.0294696261177165
  0
ARC
  5
14F3F
  8
0
 10
8716.9457815664372902
 20
2166.489832496121835
 30
0.0
 40
0.0592377560371611
 50
357.7597421874859833
 51
10.0021693540836303
  0
ARC
  5
14F40
  8
0
 10
8716.5847830740585778
 20
2166.4957994781989328
 30
0.0
 40
0.4202725958197119
 50
351.7137468509832274
 51
358.8707623269489204
  0
ARC
  5
14F41
  8
0
 10
8716.8405744530246011
 20
2166.458822315632915
 30
0.0
 40
0.1618227046405434
 50
348.1154773363792856
 51
351.6170139460335804
  0
ARC
  5
14F42
  8
0
 10
8716.9721005722258269
 20
2166.4303479240002162
 30
0.0
 40
0.0272629722764115
 50
335.4539288952452125
 51
349.7498240427078144
  0
ARC
  5
14F43
  8
0
 10
8716.9960155637891148
 20
2166.4195107122600348
 30
0.0
 40
0.0010101343563646
 50
281.5890327133431015
 51
331.0790729529504119
  0
ARC
  5
14F44
  8
0
 10
8717.1247364485407161
 20
2166.448825146865147
 30
0.0
 40
0.1271961937992413
 50
165.1980888541316119
 51
184.7986292159048958
  0
ARC
  5
14F45
  8
0
 10
8716.8799476841686555
 20
2166.4702484531958362
 30
0.0
 40
0.1223157890504523
 50
344.8029605781458145
 51
5.1937574918646412
  0
LINE
  5
14F46
  8
0
 10
8717.0462290397008474
 20
2166.3749078870851008
 30
0.0
 11
8717.1029329655411857
 21
2166.3810384297571545
 31
0.0
  0
LINE
  5
14F47
  8
0
 10
8717.0390483056762605
 20
2166.2927218497911781
 30
0.0
 11
8717.102507364250414
 21
2166.2743206390109663
 31
0.0
  0
ARC
  5
14F48
  8
0
 10
8717.0507689106452744
 20
2166.3684307549660844
 30
0.0
 40
0.0079097198870455
 50
125.0269046647400017
 51
161.8777712680316085
  0
ARC
  5
14F49
  8
0
 10
8717.1351971635613154
 20
2166.3365884043209917
 30
0.0
 40
0.098135957114537
 50
159.5407005617682898
 51
172.3508274527322897
  0
ARC
  5
14F4A
  8
0
 10
8717.2569805742896278
 20
2166.3152801240139524
 30
0.0
 40
0.2217263174092978
 50
171.0823441176997903
 51
181.0966008715950863
  0
ARC
  5
14F4B
  8
0
 10
8717.1391573412111029
 20
2166.3149634949400024
 30
0.0
 40
0.1039366799997546
 50
182.165188242824911
 51
189.3817166668040102
  0
ARC
  5
14F4C
  8
0
 10
8717.0496672639474127
 20
2166.3001778464818017
 30
0.0
 40
0.0132333761536773
 50
189.3817166668297034
 51
207.4432974370535874
  0
ARC
  5
14F4D
  8
0
 10
8717.0416189088355168
 20
2166.2959982562560981
 30
0.0
 40
0.0041644735456623
 50
207.4432974371478053
 51
231.8829766648671011
  0
ARC
  5
14F4E
  8
0
 10
8717.0391016215417039
 20
2166.2953967549888148
 30
0.0
 40
0.0029254500565212
 50
281.7915792711377776
 51
326.9812149400661951
  0
ARC
  5
14F4F
  8
0
 10
8717.0089340592858207
 20
2166.3129644324021683
 30
0.0
 40
0.0378321729898433
 50
329.5693741496089046
 51
348.3046759373153236
  0
ARC
  5
14F50
  8
0
 10
8716.8403851984730863
 20
2166.3518665548131139
 30
0.0
 40
0.2108042048445119
 50
347.2368923212933964
 51
359.0439789038632057
  0
ARC
  5
14F51
  8
0
 10
8716.9534713640186965
 20
2166.3524945392650807
 30
0.0
 40
0.0977766029299182
 50
357.5702164859395111
 51
10.5812491192237292
  0
ARC
  5
14F52
  8
0
 10
8717.0416240724935051
 20
2166.3691194813081893
 30
0.0
 40
0.0080715393401374
 50
9.4823971435131842
 51
46.8373353318239509
  0
ARC
  5
14F53
  8
0
 10
8717.0898911698131997
 20
2166.3640469991150894
 30
0.0
 40
0.0281834242360516
 50
121.101052346480202
 51
152.8272552589002089
  0
ARC
  5
14F54
  8
0
 10
8717.0846761160701135
 20
2166.3726917335097824
 30
0.0
 40
0.0180874736458402
 50
96.0521869160070025
 51
121.101052346480202
  0
ARC
  5
14F55
  8
0
 10
8717.084712108498934
 20
2166.3723522630480147
 30
0.0
 40
0.0184288468279212
 50
67.3377600996077348
 51
96.0521869160070025
  0
ARC
  5
14F56
  8
0
 10
8717.0727844391258259
 20
2166.3523335665308878
 30
0.0
 40
0.0416281493445408
 50
33.051034644293118
 51
62.7998051837318201
  0
ARC
  5
14F57
  8
0
 10
8717.0432968996119598
 20
2166.3304251222061794
 30
0.0
 40
0.078325949045587
 50
11.1224357349961807
 51
34.72001174257597
  0
ARC
  5
14F58
  8
0
 10
8717.0343508696641948
 20
2166.3278735201160998
 30
0.0
 40
0.0875996216767173
 50
343.8255515780389828
 51
11.6312593887989593
  0
ARC
  5
14F59
  8
0
 10
8717.0446566361224541
 20
2166.3245186197927978
 30
0.0
 40
0.0767680312739871
 50
325.3540348476586246
 51
344.0877474909788134
  0
ARC
  5
14F5A
  8
0
 10
8717.0709268054451968
 20
2166.3053020433358142
 30
0.0
 40
0.0442400170467837
 50
299.9182616981073011
 51
326.4865670103390016
  0
ARC
  5
14F5B
  8
0
 10
8717.0845443065081781
 20
2166.2849995233750633
 30
0.0
 40
0.0199218145104279
 50
256.698717833797275
 51
295.0904895874870135
  0
ARC
  5
14F5C
  8
0
 10
8717.0896988630083797
 20
2166.2926309988101821
 30
0.0
 40
0.0287201586320659
 50
193.0463506587634868
 51
250.1800852696351001
  0
ARC
  5
14F5D
  8
0
 10
8717.0620671808865154
 20
2166.3445929528138549
 30
0.0
 40
0.0207029914077528
 50
152.809805445951099
 51
167.7867429122713929
  0
ARC
  5
14F5E
  8
0
 10
8717.0468202084357472
 20
2166.3524255340639684
 30
0.0
 40
0.0035618275618712
 50
130.2796889013791883
 51
152.8098054458571937
  0
ARC
  5
14F5F
  8
0
 10
8717.0450801796432643
 20
2166.3544787806931708
 30
0.0
 40
0.0008704483776159
 50
9.7949086692464356
 51
130.2796889012491874
  0
ARC
  5
14F60
  8
0
 10
8716.9949593172677851
 20
2166.3420163284490627
 30
0.0
 40
0.052515193124652
 50
353.6617861201999062
 51
13.8942820658835409
  0
ARC
  5
14F61
  8
0
 10
8716.94636996578447
 20
2166.3419264613580708
 30
0.0
 40
0.1009450393026873
 50
346.2932129493423759
 51
356.7586365091012794
  0
ARC
  5
14F62
  8
0
 10
8717.025908812198395
 20
2166.3223898618198291
 30
0.0
 40
0.0190425807738631
 50
330.6946217774723209
 51
346.6940856137186984
  0
ARC
  5
14F63
  8
0
 10
8717.0414531858350529
 20
2166.3136311222529002
 30
0.0
 40
0.0012007940738292
 50
208.4122028179706092
 51
332.0980174495663846
  0
ARC
  5
14F64
  8
0
 10
8717.1013819093732309
 20
2166.3261901938708434
 30
0.0
 40
0.0623823968947787
 50
173.3311592460121062
 51
192.1506486773184008
  0
ARC
  5
14F65
  8
0
 10
8717.1381654142678599
 20
2166.3260678326719244
 30
0.0
 40
0.0990182438227867
 50
166.6252272298769981
 51
175.7333041724500049
  0
LINE
  5
14F66
  8
0
 10
8717.0179664120387315
 20
2166.3781222658130901
 30
0.0
 11
8716.9877572548884928
 21
2166.3749471554478987
 31
0.0
  0
LINE
  5
14F67
  8
0
 10
8716.9877572548884928
 20
2166.3749471554478987
 30
0.0
 11
8716.9805514650888654
 21
2166.292584601649196
 31
0.0
  0
LINE
  5
14F68
  8
0
 10
8716.9805514650888654
 20
2166.292584601649196
 30
0.0
 11
8717.0182871292308846
 21
2166.281764074091825
 31
0.0
  0
ARC
  5
14F69
  8
0
 10
8716.4785757868103246
 20
2166.3281473363649638
 30
0.0
 40
0.5417007847106562
 50
352.5066288528927885
 51
7.4933711471072533
  0
LINE
  5
14F6A
  8
0
 10
8717.0033570741597941
 20
2166.2476615130249229
 30
0.0
 11
8717.0440736207256123
 21
2166.2519713334431799
 31
0.0
  0
LINE
  5
14F6B
  8
0
 10
8716.9961234058955597
 20
2166.1652882766848052
 30
0.0
 11
8717.0447716035941994
 21
2166.151388073263206
 31
0.0
  0
ARC
  5
14F6C
  8
0
 10
8717.0604460202102928
 20
2166.2450993671759534
 30
0.0
 40
0.0310054594744363
 50
151.8165268936074881
 51
170.0212535294730003
  0
ARC
  5
14F6D
  8
0
 10
8717.0401606797768181
 20
2166.2559687388938983
 30
0.0
 40
0.0079915880453366
 50
109.824918920912495
 51
151.816526893630396
  0
ARC
  5
14F6E
  8
0
 10
8716.986501449275238
 20
2166.2265200925471618
 30
0.0
 40
0.0629469664767695
 50
9.3516135564823824
 51
35.9632192638431221
  0
ARC
  5
14F6F
  8
0
 10
8716.8844654424174223
 20
2166.2005060604519713
 30
0.0
 40
0.1680998323065644
 50
348.4392037639149748
 51
12.4507769140832192
  0
ARC
  5
14F70
  8
0
 10
8716.9679137278744747
 20
2166.1815599945957729
 30
0.0
 40
0.0825680198182445
 50
329.1820831109562846
 51
349.7147572913884801
  0
ARC
  5
14F71
  8
0
 10
8717.0367853361567541
 20
2166.1410063025928139
 30
0.0
 40
0.0026840364570035
 50
222.7819730131768949
 51
319.3958461813867871
  0
ARC
  5
14F72
  8
0
 10
8717.0567687175807805
 20
2166.1557520546020896
 30
0.0
 40
0.0275040421028039
 50
179.8608949624220941
 51
217.042873111299599
  0
ARC
  5
14F73
  8
0
 10
8717.0003878015322698
 20
2166.16799832396282
 30
0.0
 40
0.00505266527856
 50
186.0779558376308103
 51
212.4361867217481858
  0
ARC
  5
14F74
  8
0
 10
8717.0904301268565177
 20
2166.177586035189961
 30
0.0
 40
0.0956040018592193
 50
179.7031877269573101
 51
186.0779558376308103
  0
ARC
  5
14F75
  8
0
 10
8717.2653369703148201
 20
2166.1766799481688395
 30
0.0
 40
0.2705131922460366
 50
176.112436158658312
 51
179.7031877269573101
  0
ARC
  5
14F76
  8
0
 10
8717.7273179262465419
 20
2166.14528598461402
 30
0.0
 40
0.7335596095639341
 50
174.925275067179598
 51
176.112436158658312
  0
ARC
  5
14F77
  8
0
 10
8717.3144001001546712
 20
2166.1819543234400953
 30
0.0
 40
0.3190168516064773
 50
169.5899573250653134
 51
174.925275067179598
  0
ARC
  5
14F78
  8
0
 10
8717.0434844708724995
 20
2166.2317257325012179
 30
0.0
 40
0.0435672711916421
 50
160.6954316295656895
 51
169.5899573250653134
  0
ARC
  5
14F79
  8
0
 10
8717.0070091912748467
 20
2166.2445024587941589
 30
0.0
 40
0.0049189755453497
 50
145.1655729909242041
 51
160.6954316295656895
  0
ARC
  5
14F7A
  8
0
 10
8717.0039221296792675
 20
2166.2466507745648414
 30
0.0
 40
0.0011579637185596
 50
119.2074673002958036
 51
145.1655729909454919
  0
ARC
  5
14F7B
  8
0
 10
8717.0028782252556994
 20
2166.246607470177878
 30
0.0
 40
0.0012664249951981
 50
11.5561552039133009
 51
58.0294696261177165
  0
ARC
  5
14F7C
  8
0
 10
8716.9457815664372902
 20
2166.2365724337028041
 30
0.0
 40
0.0592377560371611
 50
357.7597421874859833
 51
10.0021693540836303
  0
ARC
  5
14F7D
  8
0
 10
8716.5847830740585778
 20
2166.2425394157799019
 30
0.0
 40
0.4202725958197119
 50
351.7137468509832274
 51
358.8707623269489204
  0
ARC
  5
14F7E
  8
0
 10
8716.8405744530246011
 20
2166.2055622532138841
 30
0.0
 40
0.1618227046405434
 50
348.1154773363792856
 51
351.6170139460335804
  0
ARC
  5
14F7F
  8
0
 10
8716.9721005722258269
 20
2166.1770878615811853
 30
0.0
 40
0.0272629722764115
 50
335.4539288952452125
 51
349.7498240427078144
  0
ARC
  5
14F80
  8
0
 10
8716.9960155637891148
 20
2166.1662506498410039
 30
0.0
 40
0.0010101343563646
 50
281.5890327133431015
 51
331.0790729529504119
  0
ARC
  5
14F81
  8
0
 10
8717.1247364485407161
 20
2166.1955650844461161
 30
0.0
 40
0.1271961937992413
 50
165.1980888541316119
 51
184.7986292159048958
  0
ARC
  5
14F82
  8
0
 10
8716.8799476841686555
 20
2166.2169883907768053
 30
0.0
 40
0.1223157890504523
 50
344.8029605781458145
 51
5.1937574918646412
  0
LINE
  5
14F83
  8
0
 10
8717.0462290397008474
 20
2166.1216478246660699
 30
0.0
 11
8717.1029329655411857
 21
2166.1277783673381236
 31
0.0
  0
LINE
  5
14F84
  8
0
 10
8717.0390483056762605
 20
2166.0394617873721472
 30
0.0
 11
8717.102507364250414
 21
2166.0210605765928449
 31
0.0
  0
ARC
  5
14F85
  8
0
 10
8717.0507689106452744
 20
2166.1151706925470535
 30
0.0
 40
0.0079097198870455
 50
125.0269046647400017
 51
161.8777712680316085
  0
ARC
  5
14F86
  8
0
 10
8717.1351971635613154
 20
2166.0833283419019608
 30
0.0
 40
0.098135957114537
 50
159.5407005617682898
 51
172.3508274527322897
  0
ARC
  5
14F87
  8
0
 10
8717.2569805742896278
 20
2166.0620200615949216
 30
0.0
 40
0.2217263174092978
 50
171.0823441176997903
 51
181.0966008715950863
  0
ARC
  5
14F88
  8
0
 10
8717.1391573412111029
 20
2166.0617034325209715
 30
0.0
 40
0.1039366799997546
 50
182.165188242824911
 51
189.3817166668040102
  0
ARC
  5
14F89
  8
0
 10
8717.0496672639474127
 20
2166.0469177840632256
 30
0.0
 40
0.0132333761536773
 50
189.3817166668297034
 51
207.4432974370535874
  0
ARC
  5
14F8A
  8
0
 10
8717.0416189088355168
 20
2166.0427381938370672
 30
0.0
 40
0.0041644735456623
 50
207.4432974371478053
 51
231.8829766648671011
  0
ARC
  5
14F8B
  8
0
 10
8717.0391016215417039
 20
2166.0421366925697839
 30
0.0
 40
0.0029254500565212
 50
281.7915792711377776
 51
326.9812149400661951
  0
ARC
  5
14F8C
  8
0
 10
8717.0089340592858207
 20
2166.0597043699840469
 30
0.0
 40
0.0378321729898433
 50
329.5693741496089046
 51
348.3046759373153236
  0
ARC
  5
14F8D
  8
0
 10
8716.8403851984730863
 20
2166.0986064923931735
 30
0.0
 40
0.2108042048445119
 50
347.2368923212933964
 51
359.0439789038632057
  0
ARC
  5
14F8E
  8
0
 10
8716.9534713640186965
 20
2166.0992344768451403
 30
0.0
 40
0.0977766029299182
 50
357.5702164859395111
 51
10.5812491192237292
  0
ARC
  5
14F8F
  8
0
 10
8717.0416240724935051
 20
2166.1158594188891584
 30
0.0
 40
0.0080715393401374
 50
9.4823971435131842
 51
46.8373353318239509
  0
ARC
  5
14F90
  8
0
 10
8717.0898911698131997
 20
2166.1107869366960585
 30
0.0
 40
0.0281834242360516
 50
121.101052346480202
 51
152.8272552589002089
  0
ARC
  5
14F91
  8
0
 10
8717.0846761160701135
 20
2166.1194316710912062
 30
0.0
 40
0.0180874736458402
 50
96.0521869160070025
 51
121.101052346480202
  0
ARC
  5
14F92
  8
0
 10
8717.084712108498934
 20
2166.1190922006289838
 30
0.0
 40
0.0184288468279212
 50
67.3377600996077348
 51
96.0521869160070025
  0
ARC
  5
14F93
  8
0
 10
8717.0727844391258259
 20
2166.0990735041118569
 30
0.0
 40
0.0416281493445408
 50
33.051034644293118
 51
62.7998051837318201
  0
ARC
  5
14F94
  8
0
 10
8717.0432968996119598
 20
2166.077165059788058
 30
0.0
 40
0.078325949045587
 50
11.1224357349961807
 51
34.72001174257597
  0
ARC
  5
14F95
  8
0
 10
8717.0343508696641948
 20
2166.0746134576979784
 30
0.0
 40
0.0875996216767173
 50
343.8255515780389828
 51
11.6312593887989593
  0
ARC
  5
14F96
  8
0
 10
8717.0446566361224541
 20
2166.0712585573742217
 30
0.0
 40
0.0767680312739871
 50
325.3540348476586246
 51
344.0877474909788134
  0
ARC
  5
14F97
  8
0
 10
8717.0709268054451968
 20
2166.0520419809167834
 30
0.0
 40
0.0442400170467837
 50
299.9182616981073011
 51
326.4865670103390016
  0
ARC
  5
14F98
  8
0
 10
8717.0845443065081781
 20
2166.0317394609560324
 30
0.0
 40
0.0199218145104279
 50
256.698717833797275
 51
295.0904895874870135
  0
ARC
  5
14F99
  8
0
 10
8717.0896988630083797
 20
2166.0393709363911512
 30
0.0
 40
0.0287201586320659
 50
193.0463506587634868
 51
250.1800852696351001
  0
ARC
  5
14F9A
  8
0
 10
8717.0620671808865154
 20
2166.0913328903948241
 30
0.0
 40
0.0207029914077528
 50
152.809805445951099
 51
167.7867429122713929
  0
ARC
  5
14F9B
  8
0
 10
8717.0468202084357472
 20
2166.099165471645847
 30
0.0
 40
0.0035618275618712
 50
130.2796889013791883
 51
152.8098054458571937
  0
ARC
  5
14F9C
  8
0
 10
8717.0450801796432643
 20
2166.10121871827414
 30
0.0
 40
0.0008704483776159
 50
9.7949086692464356
 51
130.2796889012491874
  0
ARC
  5
14F9D
  8
0
 10
8716.9949593172677851
 20
2166.0887562660309413
 30
0.0
 40
0.052515193124652
 50
353.6617861201999062
 51
13.8942820658835409
  0
ARC
  5
14F9E
  8
0
 10
8716.94636996578447
 20
2166.0886663989390399
 30
0.0
 40
0.1009450393026873
 50
346.2932129493423759
 51
356.7586365091012794
  0
ARC
  5
14F9F
  8
0
 10
8717.025908812198395
 20
2166.0691297994007982
 30
0.0
 40
0.0190425807738631
 50
330.6946217774723209
 51
346.6940856137186984
  0
ARC
  5
14FA0
  8
0
 10
8717.0414531858350529
 20
2166.0603710598347789
 30
0.0
 40
0.0012007940738292
 50
208.4122028179706092
 51
332.0980174495663846
  0
ARC
  5
14FA1
  8
0
 10
8717.1013819093732309
 20
2166.0729301314518125
 30
0.0
 40
0.0623823968947787
 50
173.3311592460121062
 51
192.1506486773184008
  0
ARC
  5
14FA2
  8
0
 10
8717.1381654142678599
 20
2166.0728077702528935
 30
0.0
 40
0.0990182438227867
 50
166.6252272298769981
 51
175.7333041724500049
  0
LINE
  5
14FA3
  8
0
 10
8717.0179664120387315
 20
2166.1248622033940592
 30
0.0
 11
8716.9877572548884928
 21
2166.1216870930288678
 31
0.0
  0
LINE
  5
14FA4
  8
0
 10
8716.9877572548884928
 20
2166.1216870930288678
 30
0.0
 11
8716.9805514650888654
 21
2166.0393245392288009
 31
0.0
  0
LINE
  5
14FA5
  8
0
 10
8716.9805514650888654
 20
2166.0393245392288009
 30
0.0
 11
8717.0182871292308846
 21
2166.0285040116741584
 31
0.0
  0
ARC
  5
14FA6
  8
0
 10
8716.4785757868103246
 20
2166.074887273945933
 30
0.0
 40
0.5417007847106562
 50
352.5066288528927885
 51
7.4933711471072533
  0
LINE
  5
14FA7
  8
0
 10
8716.9988467768762348
 20
2165.9949355103481139
 30
0.0
 11
8717.044567672210178
 21
2166.0040362802519667
 31
0.0
  0
LINE
  5
14FA8
  8
0
 10
8716.9989722441041522
 20
2165.9126994368120904
 30
0.0
 11
8717.0444771134152688
 21
2165.9038191146778445
 31
0.0
  0
ARC
  5
14FA9
  8
0
 10
8717.3214991689292219
 20
2165.9543096472639263
 30
0.0
 40
0.3251999797802187
 50
172.8235299611880862
 51
187.3513017623604924
  0
ARC
  5
14FAA
  8
0
 10
8716.6622073236358119
 20
2165.953830048547843
 30
0.0
 40
0.3412979642953963
 50
353.0123851862721267
 51
6.988872218106267
  0
ARC
  5
14FAB
  8
0
 10
8717.1250649500252621
 20
2165.9538622182931249
 30
0.0
 40
0.1270497892367372
 50
170.1882530265912123
 51
189.8114968887585974
  0
ARC
  5
14FAC
  8
0
 10
8716.8785176979217795
 20
2165.9538627563570117
 30
0.0
 40
0.1232719241667984
 50
349.8844453246863964
 51
10.1153045906555406
  0
ARC
  5
14FAD
  8
0
 10
8717.0599367761478788
 20
2165.9977377772270302
 30
0.0
 40
0.030706215215302
 50
145.9466938773819038
 51
173.8668615156678072
  0
ARC
  5
14FAE
  8
0
 10
8717.037855268259591
 20
2166.0126618517479073
 30
0.0
 40
0.0040543674210908
 50
94.7324485410823769
 51
145.9466938773819038
  0
ARC
  5
14FAF
  8
0
 10
8716.993689809272837
 20
2165.9840233112931855
 30
0.0
 40
0.0546724415369389
 50
13.5773572603198698
 51
36.7071368543771968
  0
ARC
  5
14FB0
  8
0
 10
8716.8865959152408323
 20
2165.9535658550848893
 30
0.0
 40
0.1659836740884198
 50
349.6818115686148758
 51
15.1188618138118809
  0
ARC
  5
14FB1
  8
0
 10
8716.9528494572841737
 20
2165.9393630759709595
 30
0.0
 40
0.0982802144500788
 50
330.4348524709083108
 51
350.9097409501790139
  0
ARC
  5
14FB2
  8
0
 10
8717.0552360332094395
 20
2165.9103218355171521
 30
0.0
 40
0.0257695299243297
 50
188.0828998814513113
 51
229.0100700959249878
  0
LINE
  5
14FB3
  8
0
 10
8717.0033570741597941
 20
2164.3949744989149622
 30
0.0
 11
8717.0440736207256123
 21
2164.3906646784971599
 31
0.0
  0
LINE
  5
14FB4
  8
0
 10
8716.9961234058955597
 20
2164.4773477352550799
 30
0.0
 11
8717.0447716035941994
 21
2164.4912479386771338
 31
0.0
  0
ARC
  5
14FB5
  8
0
 10
8717.0604460202102928
 20
2164.3975366447639317
 30
0.0
 40
0.0310054594744363
 50
189.978746470526886
 51
208.1834731063925119
  0
ARC
  5
14FB6
  8
0
 10
8717.0401606797768181
 20
2164.3866672730459868
 30
0.0
 40
0.0079915880453366
 50
208.1834731063694903
 51
250.1750810790873913
  0
ARC
  5
14FB7
  8
0
 10
8716.986501449275238
 20
2164.416115919393178
 30
0.0
 40
0.0629469664767695
 50
324.0367807361569135
 51
350.6483864435176088
  0
ARC
  5
14FB8
  8
0
 10
8716.8844654424174223
 20
2164.4421299514879138
 30
0.0
 40
0.1680998323065644
 50
347.5492230859168217
 51
11.5607962360849594
  0
ARC
  5
14FB9
  8
0
 10
8716.9679137278744747
 20
2164.4610760173441122
 30
0.0
 40
0.0825680198182445
 50
10.2852427086115608
 51
30.8179168890437296
  0
ARC
  5
14FBA
  8
0
 10
8717.0367853361567541
 20
2164.5016297093470712
 30
0.0
 40
0.0026840364570035
 50
40.6041538186131703
 51
137.2180269868231051
  0
ARC
  5
14FBB
  8
0
 10
8717.0567687175807805
 20
2164.4868839573377954
 30
0.0
 40
0.0275040421028039
 50
142.957126888700401
 51
180.1391050375777922
  0
ARC
  5
14FBC
  8
0
 10
8717.0003878015322698
 20
2164.4746376879770651
 30
0.0
 40
0.00505266527856
 50
147.5638132782518142
 51
173.9220441623691045
  0
ARC
  5
14FBD
  8
0
 10
8717.0904301268565177
 20
2164.4650499767499241
 30
0.0
 40
0.0956040018592193
 50
173.9220441623691045
 51
180.2968122730426899
  0
ARC
  5
14FBE
  8
0
 10
8717.2653369703148201
 20
2164.4659560637710456
 30
0.0
 40
0.2705131922460366
 50
180.2968122730426899
 51
183.887563841341688
  0
ARC
  5
14FBF
  8
0
 10
8717.7273179262465419
 20
2164.4973500273258651
 30
0.0
 40
0.7335596095639341
 50
183.887563841341688
 51
185.074724932820402
  0
ARC
  5
14FC0
  8
0
 10
8717.3144001001546712
 20
2164.4606816884997897
 30
0.0
 40
0.3190168516064773
 50
185.074724932820402
 51
190.4100426749346013
  0
ARC
  5
14FC1
  8
0
 10
8717.0434844708724995
 20
2164.410910279439122
 30
0.0
 40
0.0435672711916421
 50
190.4100426749346013
 51
199.3045683704343105
  0
ARC
  5
14FC2
  8
0
 10
8717.0070091912748467
 20
2164.3981335531461809
 30
0.0
 40
0.0049189755453497
 50
199.3045683704343105
 51
214.8344270090757959
  0
ARC
  5
14FC3
  8
0
 10
8717.0039221296792675
 20
2164.3959852373750437
 30
0.0
 40
0.0011579637185596
 50
214.8344270090543944
 51
240.7925326997041964
  0
ARC
  5
14FC4
  8
0
 10
8717.0028782252556994
 20
2164.3960285417620071
 30
0.0
 40
0.0012664249951981
 50
301.9705303738822977
 51
348.4438447960866938
  0
ARC
  5
14FC5
  8
0
 10
8716.9457815664372902
 20
2164.4060635782370809
 30
0.0
 40
0.0592377560371611
 50
349.9978306459163946
 51
2.2402578125139971
  0
ARC
  5
14FC6
  8
0
 10
8716.5847830740585778
 20
2164.4000965961599832
 30
0.0
 40
0.4202725958197119
 50
1.1292376730510869
 51
8.2862531490167974
  0
ARC
  5
14FC7
  8
0
 10
8716.8405744530246011
 20
2164.437073758726001
 30
0.0
 40
0.1618227046405434
 50
8.3829860539663414
 51
11.8845226636206593
  0
ARC
  5
14FC8
  8
0
 10
8716.9721005722258269
 20
2164.4655481503591545
 30
0.0
 40
0.0272629722764115
 50
10.2501759572922495
 51
24.5460711047548017
  0
ARC
  5
14FC9
  8
0
 10
8716.9960155637891148
 20
2164.4763853620988812
 30
0.0
 40
0.0010101343563646
 50
28.92092704704962
 51
78.4109672866568701
  0
ARC
  5
14FCA
  8
0
 10
8717.1247364485407161
 20
2164.4470709274942237
 30
0.0
 40
0.1271961937992413
 50
175.2013707840951042
 51
194.8019111458683028
  0
ARC
  5
14FCB
  8
0
 10
8716.8799476841686555
 20
2164.4256476211630797
 30
0.0
 40
0.1223157890504523
 50
354.8062425081354263
 51
15.1970394218541696
  0
LINE
  5
14FCC
  8
0
 10
8717.0462290397008474
 20
2164.5209881872738151
 30
0.0
 11
8717.1029329655411857
 21
2164.5148576446022162
 31
0.0
  0
LINE
  5
14FCD
  8
0
 10
8717.0390483056762605
 20
2164.6031742245681926
 30
0.0
 11
8717.102507364250414
 21
2164.6215754353470402
 31
0.0
  0
ARC
  5
14FCE
  8
0
 10
8717.0507689106452744
 20
2164.5274653193928316
 30
0.0
 40
0.0079097198870455
 50
198.1222287319683915
 51
234.9730953352600125
  0
ARC
  5
14FCF
  8
0
 10
8717.1351971635613154
 20
2164.5593076700379243
 30
0.0
 40
0.098135957114537
 50
187.6491725472677103
 51
200.4592994382317102
  0
ARC
  5
14FD0
  8
0
 10
8717.2569805742896278
 20
2164.5806159503449635
 30
0.0
 40
0.2217263174092978
 50
178.9033991284049137
 51
188.9176558823002097
  0
ARC
  5
14FD1
  8
0
 10
8717.1391573412111029
 20
2164.5809325794189135
 30
0.0
 40
0.1039366799997546
 50
170.6182833331959898
 51
177.834811757175089
  0
ARC
  5
14FD2
  8
0
 10
8717.0496672639474127
 20
2164.5957182278771143
 30
0.0
 40
0.0132333761536773
 50
152.5567025629464126
 51
170.6182833331702966
  0
ARC
  5
14FD3
  8
0
 10
8717.0416189088355168
 20
2164.5998978181028178
 30
0.0
 40
0.0041644735456623
 50
128.1170233351328136
 51
152.5567025628521094
  0
ARC
  5
14FD4
  8
0
 10
8717.0391016215417039
 20
2164.6004993193701011
 30
0.0
 40
0.0029254500565212
 50
33.018785059933812
 51
78.2084207288622224
  0
ARC
  5
14FD5
  8
0
 10
8717.0089340592858207
 20
2164.5829316419558381
 30
0.0
 40
0.0378321729898433
 50
11.6953240626847208
 51
30.4306258503911202
  0
ARC
  5
14FD6
  8
0
 10
8716.8403851984730863
 20
2164.5440295195471663
 30
0.0
 40
0.2108042048445119
 50
0.9560210961367859
 51
12.7631076787065503
  0
ARC
  5
14FD7
  8
0
 10
8716.9534713640186965
 20
2164.5434015350951995
 30
0.0
 40
0.0977766029299182
 50
349.4187508807763152
 51
2.42978351406046
  0
ARC
  5
14FD8
  8
0
 10
8717.0416240724935051
 20
2164.5267765930511814
 30
0.0
 40
0.0080715393401374
 50
313.162664668175978
 51
350.5176028564868034
  0
ARC
  5
14FD9
  8
0
 10
8717.0898911698131997
 20
2164.5318490752438265
 30
0.0
 40
0.0281834242360516
 50
207.1727447410997911
 51
238.8989476535197127
  0
ARC
  5
14FDA
  8
0
 10
8717.0846761160701135
 20
2164.5232043408491336
 30
0.0
 40
0.0180874736458402
 50
238.8989476535197127
 51
263.9478130839930259
  0
ARC
  5
14FDB
  8
0
 10
8717.084712108498934
 20
2164.5235438113109012
 30
0.0
 40
0.0184288468279212
 50
263.9478130839930259
 51
292.6622399003921942
  0
ARC
  5
14FDC
  8
0
 10
8717.0727844391258259
 20
2164.5435625078280282
 30
0.0
 40
0.0416281493445408
 50
297.2001948162680947
 51
326.9489653557068891
  0
ARC
  5
14FDD
  8
0
 10
8717.0432968996119598
 20
2164.5654709521518271
 30
0.0
 40
0.078325949045587
 50
325.2799882574241224
 51
348.877564265003798
  0
ARC
  5
14FDE
  8
0
 10
8717.0343508696641948
 20
2164.5680225542419066
 30
0.0
 40
0.0875996216767173
 50
348.3687406112010763
 51
16.1744484219610207
  0
ARC
  5
14FDF
  8
0
 10
8717.0446566361224541
 20
2164.5713774545661181
 30
0.0
 40
0.0767680312739871
 50
15.91225250902116
 51
34.6459651523414465
  0
ARC
  5
14FE0
  8
0
 10
8717.0709268054451968
 20
2164.5905940310231017
 30
0.0
 40
0.0442400170467837
 50
33.5134329896610765
 51
60.0817383018926421
  0
ARC
  5
14FE1
  8
0
 10
8717.0845443065081781
 20
2164.6108965509838526
 30
0.0
 40
0.0199218145104279
 50
64.9095104125129723
 51
103.3012821662026965
  0
ARC
  5
14FE2
  8
0
 10
8717.0896988630083797
 20
2164.6032650755491886
 30
0.0
 40
0.0287201586320659
 50
109.8199147303648004
 51
166.9536493412365132
  0
ARC
  5
14FE3
  8
0
 10
8717.0620671808865154
 20
2164.551303121545061
 30
0.0
 40
0.0207029914077528
 50
192.2132570877286071
 51
207.190194554048901
  0
ARC
  5
14FE4
  8
0
 10
8717.0468202084357472
 20
2164.5434705402940381
 30
0.0
 40
0.0035618275618712
 50
207.1901945541428063
 51
229.720311098620698
  0
ARC
  5
14FE5
  8
0
 10
8717.0450801796432643
 20
2164.5414172936661998
 30
0.0
 40
0.0008704483776159
 50
229.7203110987508126
 51
350.2050913307535893
  0
ARC
  5
14FE6
  8
0
 10
8716.9949593172677851
 20
2164.5538797459089437
 30
0.0
 40
0.052515193124652
 50
346.1057179341163987
 51
6.3382138798000991
  0
ARC
  5
14FE7
  8
0
 10
8716.94636996578447
 20
2164.5539696130008451
 30
0.0
 40
0.1009450393026873
 50
3.2413634908986451
 51
13.7067870506576508
  0
ARC
  5
14FE8
  8
0
 10
8717.025908812198395
 20
2164.5735062125390868
 30
0.0
 40
0.0190425807738631
 50
13.3059143862813496
 51
29.3053782225277111
  0
ARC
  5
14FE9
  8
0
 10
8717.0414531858350529
 20
2164.5822649521051062
 30
0.0
 40
0.0012007940738292
 50
27.9019825504336012
 51
151.5877971820293908
  0
ARC
  5
14FEA
  8
0
 10
8717.1013819093732309
 20
2164.5697058804880726
 30
0.0
 40
0.0623823968947787
 50
167.8493513226815139
 51
186.6688407539878938
  0
ARC
  5
14FEB
  8
0
 10
8717.1381654142678599
 20
2164.5698282416869915
 30
0.0
 40
0.0990182438227867
 50
184.2666958275499098
 51
193.3747727701228882
  0
LINE
  5
14FEC
  8
0
 10
8717.0179664120387315
 20
2164.5177738085458259
 30
0.0
 11
8716.9877572548884928
 21
2164.5209489189110172
 31
0.0
  0
LINE
  5
14FED
  8
0
 10
8716.9877572548884928
 20
2164.5209489189110172
 30
0.0
 11
8716.9805514650888654
 21
2164.6033114727110842
 31
0.0
  0
LINE
  5
14FEE
  8
0
 10
8716.9805514650888654
 20
2164.6033114727110842
 30
0.0
 11
8717.0182871292308846
 21
2164.6141320002661814
 31
0.0
  0
ARC
  5
14FEF
  8
0
 10
8716.4785757868103246
 20
2164.5677487379939521
 30
0.0
 40
0.5417007847106562
 50
352.5066288528927885
 51
7.4933711471072533
  0
LINE
  5
14FF0
  8
0
 10
8717.0033570741597941
 20
2164.648274459555978
 30
0.0
 11
8717.0440736207256123
 21
2164.6439646391390852
 31
0.0
  0
LINE
  5
14FF1
  8
0
 10
8716.9961234058955597
 20
2164.7306476958970052
 30
0.0
 11
8717.0447716035941994
 21
2164.7445478993190591
 31
0.0
  0
ARC
  5
14FF2
  8
0
 10
8717.0604460202102928
 20
2164.650836605405857
 30
0.0
 40
0.0310054594744363
 50
189.978746470526886
 51
208.1834731063925119
  0
ARC
  5
14FF3
  8
0
 10
8717.0401606797768181
 20
2164.6399672336879121
 30
0.0
 40
0.0079915880453366
 50
208.1834731063694903
 51
250.1750810790873913
  0
ARC
  5
14FF4
  8
0
 10
8716.986501449275238
 20
2164.6694158800351033
 30
0.0
 40
0.0629469664767695
 50
324.0367807361569135
 51
350.6483864435176088
  0
ARC
  5
14FF5
  8
0
 10
8716.8844654424174223
 20
2164.6954299121298391
 30
0.0
 40
0.1680998323065644
 50
347.5492230859168217
 51
11.5607962360849594
  0
ARC
  5
14FF6
  8
0
 10
8716.9679137278744747
 20
2164.7143759779860375
 30
0.0
 40
0.0825680198182445
 50
10.2852427086115608
 51
30.8179168890437296
  0
ARC
  5
14FF7
  8
0
 10
8717.0367853361567541
 20
2164.7549296699889965
 30
0.0
 40
0.0026840364570035
 50
40.6041538186131703
 51
137.2180269868231051
  0
ARC
  5
14FF8
  8
0
 10
8717.0567687175807805
 20
2164.7401839179801755
 30
0.0
 40
0.0275040421028039
 50
142.957126888700401
 51
180.1391050375777922
  0
ARC
  5
14FF9
  8
0
 10
8717.0003878015322698
 20
2164.7279376486189904
 30
0.0
 40
0.00505266527856
 50
147.5638132782518142
 51
173.9220441623691045
  0
ARC
  5
14FFA
  8
0
 10
8717.0904301268565177
 20
2164.7183499373918494
 30
0.0
 40
0.0956040018592193
 50
173.9220441623691045
 51
180.2968122730426899
  0
ARC
  5
14FFB
  8
0
 10
8717.2653369703148201
 20
2164.7192560244129709
 30
0.0
 40
0.2705131922460366
 50
180.2968122730426899
 51
183.887563841341688
  0
ARC
  5
14FFC
  8
0
 10
8717.7273179262465419
 20
2164.7506499879677904
 30
0.0
 40
0.7335596095639341
 50
183.887563841341688
 51
185.074724932820402
  0
ARC
  5
14FFD
  8
0
 10
8717.3144001001546712
 20
2164.7139816491421698
 30
0.0
 40
0.3190168516064773
 50
185.074724932820402
 51
190.4100426749346013
  0
ARC
  5
14FFE
  8
0
 10
8717.0434844708724995
 20
2164.6642102400810472
 30
0.0
 40
0.0435672711916421
 50
190.4100426749346013
 51
199.3045683704343105
  0
ARC
  5
14FFF
  8
0
 10
8717.0070091912748467
 20
2164.6514335137881062
 30
0.0
 40
0.0049189755453497
 50
199.3045683704343105
 51
214.8344270090757959
  0
ARC
  5
15000
  8
0
 10
8717.0039221296792675
 20
2164.6492851980169689
 30
0.0
 40
0.0011579637185596
 50
214.8344270090543944
 51
240.7925326997041964
  0
ARC
  5
15001
  8
0
 10
8717.0028782252556994
 20
2164.6493285024039324
 30
0.0
 40
0.0012664249951981
 50
301.9705303738822977
 51
348.4438447960866938
  0
ARC
  5
15002
  8
0
 10
8716.9457815664372902
 20
2164.6593635388790062
 30
0.0
 40
0.0592377560371611
 50
349.9978306459163946
 51
2.2402578125139971
  0
ARC
  5
15003
  8
0
 10
8716.5847830740585778
 20
2164.6533965568019084
 30
0.0
 40
0.4202725958197119
 50
1.1292376730510869
 51
8.2862531490167974
  0
ARC
  5
15004
  8
0
 10
8716.8405744530246011
 20
2164.6903737193679262
 30
0.0
 40
0.1618227046405434
 50
8.3829860539663414
 51
11.8845226636206593
  0
ARC
  5
15005
  8
0
 10
8716.9721005722258269
 20
2164.7188481110010798
 30
0.0
 40
0.0272629722764115
 50
10.2501759572922495
 51
24.5460711047548017
  0
ARC
  5
15006
  8
0
 10
8716.9960155637891148
 20
2164.7296853227408064
 30
0.0
 40
0.0010101343563646
 50
28.92092704704962
 51
78.4109672866568701
  0
ARC
  5
15007
  8
0
 10
8717.1247364485407161
 20
2164.700370888136149
 30
0.0
 40
0.1271961937992413
 50
175.2013707840951042
 51
194.8019111458683028
  0
ARC
  5
15008
  8
0
 10
8716.8799476841686555
 20
2164.678947581805005
 30
0.0
 40
0.1223157890504523
 50
354.8062425081354263
 51
15.1970394218541696
  0
LINE
  5
15009
  8
0
 10
8717.0462290397008474
 20
2164.7742881479161952
 30
0.0
 11
8717.1029329655411857
 21
2164.7681576052441415
 31
0.0
  0
LINE
  5
1500A
  8
0
 10
8717.0390483056762605
 20
2164.8564741852101179
 30
0.0
 11
8717.102507364250414
 21
2164.874875395989875
 31
0.0
  0
ARC
  5
1500B
  8
0
 10
8717.0507689106452744
 20
2164.7807652800352116
 30
0.0
 40
0.0079097198870455
 50
198.1222287319683915
 51
234.9730953352600125
  0
ARC
  5
1500C
  8
0
 10
8717.1351971635613154
 20
2164.8126076306798495
 30
0.0
 40
0.098135957114537
 50
187.6491725472677103
 51
200.4592994382317102
  0
ARC
  5
1500D
  8
0
 10
8717.2569805742896278
 20
2164.8339159109868888
 30
0.0
 40
0.2217263174092978
 50
178.9033991284049137
 51
188.9176558823002097
  0
ARC
  5
1500E
  8
0
 10
8717.1391573412111029
 20
2164.8342325400608388
 30
0.0
 40
0.1039366799997546
 50
170.6182833331959898
 51
177.834811757175089
  0
ARC
  5
1500F
  8
0
 10
8717.0496672639474127
 20
2164.8490181885190395
 30
0.0
 40
0.0132333761536773
 50
152.5567025629464126
 51
170.6182833331702966
  0
ARC
  5
15010
  8
0
 10
8717.0416189088355168
 20
2164.8531977787451979
 30
0.0
 40
0.0041644735456623
 50
128.1170233351328136
 51
152.5567025628521094
  0
ARC
  5
15011
  8
0
 10
8717.0391016215417039
 20
2164.8537992800120264
 30
0.0
 40
0.0029254500565212
 50
33.018785059933812
 51
78.2084207288622224
  0
ARC
  5
15012
  8
0
 10
8717.0089340592858207
 20
2164.8362316025991277
 30
0.0
 40
0.0378321729898433
 50
11.6953240626847208
 51
30.4306258503911202
  0
ARC
  5
15013
  8
0
 10
8716.8403851984730863
 20
2164.7973294801881821
 30
0.0
 40
0.2108042048445119
 50
0.9560210961367859
 51
12.7631076787065503
  0
ARC
  5
15014
  8
0
 10
8716.9534713640186965
 20
2164.7967014957362153
 30
0.0
 40
0.0977766029299182
 50
349.4187508807763152
 51
2.42978351406046
  0
ARC
  5
15015
  8
0
 10
8717.0416240724935051
 20
2164.7800765536931067
 30
0.0
 40
0.0080715393401374
 50
313.162664668175978
 51
350.5176028564868034
  0
ARC
  5
15016
  8
0
 10
8717.0898911698131997
 20
2164.7851490358862065
 30
0.0
 40
0.0281834242360516
 50
207.1727447410997911
 51
238.8989476535197127
  0
ARC
  5
15017
  8
0
 10
8717.0846761160701135
 20
2164.7765043014910589
 30
0.0
 40
0.0180874736458402
 50
238.8989476535197127
 51
263.9478130839930259
  0
ARC
  5
15018
  8
0
 10
8717.084712108498934
 20
2164.7768437719528265
 30
0.0
 40
0.0184288468279212
 50
263.9478130839930259
 51
292.6622399003921942
  0
ARC
  5
15019
  8
0
 10
8717.0727844391258259
 20
2164.7968624684699535
 30
0.0
 40
0.0416281493445408
 50
297.2001948162680947
 51
326.9489653557068891
  0
ARC
  5
1501A
  8
0
 10
8717.0432968996119598
 20
2164.8187709127942071
 30
0.0
 40
0.078325949045587
 50
325.2799882574241224
 51
348.877564265003798
  0
ARC
  5
1501B
  8
0
 10
8717.0343508696641948
 20
2164.8213225148838319
 30
0.0
 40
0.0875996216767173
 50
348.3687406112010763
 51
16.1744484219610207
  0
ARC
  5
1501C
  8
0
 10
8717.0446566361224541
 20
2164.8246774152080434
 30
0.0
 40
0.0767680312739871
 50
15.91225250902116
 51
34.6459651523414465
  0
ARC
  5
1501D
  8
0
 10
8717.0709268054451968
 20
2164.8438939916641175
 30
0.0
 40
0.0442400170467837
 50
33.5134329896610765
 51
60.0817383018926421
  0
ARC
  5
1501E
  8
0
 10
8717.0845443065081781
 20
2164.8641965116257779
 30
0.0
 40
0.0199218145104279
 50
64.9095104125129723
 51
103.3012821662026965
  0
ARC
  5
1501F
  8
0
 10
8717.0896988630083797
 20
2164.8565650361911139
 30
0.0
 40
0.0287201586320659
 50
109.8199147303648004
 51
166.9536493412365132
  0
ARC
  5
15020
  8
0
 10
8717.0620671808865154
 20
2164.8046030821869863
 30
0.0
 40
0.0207029914077528
 50
192.2132570877286071
 51
207.190194554048901
  0
ARC
  5
15021
  8
0
 10
8717.0468202084357472
 20
2164.7967705009368728
 30
0.0
 40
0.0035618275618712
 50
207.1901945541428063
 51
229.720311098620698
  0
ARC
  5
15022
  8
0
 10
8717.0450801796432643
 20
2164.7947172543081251
 30
0.0
 40
0.0008704483776159
 50
229.7203110987508126
 51
350.2050913307535893
  0
ARC
  5
15023
  8
0
 10
8716.9949593172677851
 20
2164.807179706550869
 30
0.0
 40
0.052515193124652
 50
346.1057179341163987
 51
6.3382138798000991
  0
ARC
  5
15024
  8
0
 10
8716.94636996578447
 20
2164.8072695736432252
 30
0.0
 40
0.1009450393026873
 50
3.2413634908986451
 51
13.7067870506576508
  0
ARC
  5
15025
  8
0
 10
8717.025908812198395
 20
2164.8268061731810121
 30
0.0
 40
0.0190425807738631
 50
13.3059143862813496
 51
29.3053782225277111
  0
ARC
  5
15026
  8
0
 10
8717.0414531858350529
 20
2164.8355649127470315
 30
0.0
 40
0.0012007940738292
 50
27.9019825504336012
 51
151.5877971820293908
  0
ARC
  5
15027
  8
0
 10
8717.1013819093732309
 20
2164.8230058411299979
 30
0.0
 40
0.0623823968947787
 50
167.8493513226815139
 51
186.6688407539878938
  0
ARC
  5
15028
  8
0
 10
8717.1381654142678599
 20
2164.8231282023289168
 30
0.0
 40
0.0990182438227867
 50
184.2666958275499098
 51
193.3747727701228882
  0
LINE
  5
15029
  8
0
 10
8717.0179664120387315
 20
2164.7710737691882059
 30
0.0
 11
8716.9877572548884928
 21
2164.774248879552033
 31
0.0
  0
LINE
  5
1502A
  8
0
 10
8716.9877572548884928
 20
2164.774248879552033
 30
0.0
 11
8716.9805514650888654
 21
2164.8566114333530095
 31
0.0
  0
LINE
  5
1502B
  8
0
 10
8716.9805514650888654
 20
2164.8566114333530095
 30
0.0
 11
8717.0182871292308846
 21
2164.8674319609081067
 31
0.0
  0
ARC
  5
1502C
  8
0
 10
8716.4785757868103246
 20
2164.8210486986358774
 30
0.0
 40
0.5417007847106562
 50
352.5066288528927885
 51
7.4933711471072533
  0
LINE
  5
1502D
  8
0
 10
8717.0033570741597941
 20
2164.901561315438812
 30
0.0
 11
8717.0440736207256123
 21
2164.8972514950210098
 31
0.0
  0
LINE
  5
1502E
  8
0
 10
8716.9961234058955597
 20
2164.9839345517798392
 30
0.0
 11
8717.0447716035941994
 21
2164.9978347552018931
 31
0.0
  0
ARC
  5
1502F
  8
0
 10
8717.0604460202102928
 20
2164.9041234612891458
 30
0.0
 40
0.0310054594744363
 50
189.978746470526886
 51
208.1834731063925119
  0
ARC
  5
15030
  8
0
 10
8717.0401606797768181
 20
2164.8932540895698367
 30
0.0
 40
0.0079915880453366
 50
208.1834731063694903
 51
250.1750810790873913
  0
ARC
  5
15031
  8
0
 10
8716.986501449275238
 20
2164.9227027359179374
 30
0.0
 40
0.0629469664767695
 50
324.0367807361569135
 51
350.6483864435176088
  0
ARC
  5
15032
  8
0
 10
8716.8844654424174223
 20
2164.9487167680122184
 30
0.0
 40
0.1680998323065644
 50
347.5492230859168217
 51
11.5607962360849594
  0
ARC
  5
15033
  8
0
 10
8716.9679137278744747
 20
2164.967662833867962
 30
0.0
 40
0.0825680198182445
 50
10.2852427086115608
 51
30.8179168890437296
  0
ARC
  5
15034
  8
0
 10
8717.0367853361567541
 20
2165.008216525870921
 30
0.0
 40
0.0026840364570035
 50
40.6041538186131703
 51
137.2180269868231051
  0
ARC
  5
15035
  8
0
 10
8717.0567687175807805
 20
2164.9934707738621
 30
0.0
 40
0.0275040421028039
 50
142.957126888700401
 51
180.1391050375777922
  0
ARC
  5
15036
  8
0
 10
8717.0003878015322698
 20
2164.9812245045009149
 30
0.0
 40
0.00505266527856
 50
147.5638132782518142
 51
173.9220441623691045
  0
ARC
  5
15037
  8
0
 10
8717.0904301268565177
 20
2164.9716367932737739
 30
0.0
 40
0.0956040018592193
 50
173.9220441623691045
 51
180.2968122730426899
  0
ARC
  5
15038
  8
0
 10
8717.2653369703148201
 20
2164.9725428802948954
 30
0.0
 40
0.2705131922460366
 50
180.2968122730426899
 51
183.887563841341688
  0
ARC
  5
15039
  8
0
 10
8717.7273179262465419
 20
2165.0039368438501697
 30
0.0
 40
0.7335596095639341
 50
183.887563841341688
 51
185.074724932820402
  0
ARC
  5
1503A
  8
0
 10
8717.3144001001546712
 20
2164.9672685050240943
 30
0.0
 40
0.3190168516064773
 50
185.074724932820402
 51
190.4100426749346013
  0
ARC
  5
1503B
  8
0
 10
8717.0434844708724995
 20
2164.9174970959629718
 30
0.0
 40
0.0435672711916421
 50
190.4100426749346013
 51
199.3045683704343105
  0
ARC
  5
1503C
  8
0
 10
8717.0070091912748467
 20
2164.9047203696709403
 30
0.0
 40
0.0049189755453497
 50
199.3045683704343105
 51
214.8344270090757959
  0
ARC
  5
1503D
  8
0
 10
8717.0039221296792675
 20
2164.9025720538988935
 30
0.0
 40
0.0011579637185596
 50
214.8344270090543944
 51
240.7925326997041964
  0
ARC
  5
1503E
  8
0
 10
8717.0028782252556994
 20
2164.9026153582872212
 30
0.0
 40
0.0012664249951981
 50
301.9705303738822977
 51
348.4438447960866938
  0
ARC
  5
1503F
  8
0
 10
8716.9457815664372902
 20
2164.9126503947609308
 30
0.0
 40
0.0592377560371611
 50
349.9978306459163946
 51
2.2402578125139971
  0
ARC
  5
15040
  8
0
 10
8716.5847830740585778
 20
2164.906683412683833
 30
0.0
 40
0.4202725958197119
 50
1.1292376730510869
 51
8.2862531490167974
  0
ARC
  5
15041
  8
0
 10
8716.8405744530246011
 20
2164.9436605752498508
 30
0.0
 40
0.1618227046405434
 50
8.3829860539663414
 51
11.8845226636206593
  0
ARC
  5
15042
  8
0
 10
8716.9721005722258269
 20
2164.9721349668839139
 30
0.0
 40
0.0272629722764115
 50
10.2501759572922495
 51
24.5460711047548017
  0
ARC
  5
15043
  8
0
 10
8716.9960155637891148
 20
2164.9829721786240952
 30
0.0
 40
0.0010101343563646
 50
28.92092704704962
 51
78.4109672866568701
  0
ARC
  5
15044
  8
0
 10
8717.1247364485407161
 20
2164.9536577440180736
 30
0.0
 40
0.1271961937992413
 50
175.2013707840951042
 51
194.8019111458683028
  0
ARC
  5
15045
  8
0
 10
8716.8799476841686555
 20
2164.9322344376878391
 30
0.0
 40
0.1223157890504523
 50
354.8062425081354263
 51
15.1970394218541696
  0
LINE
  5
15046
  8
0
 10
8717.0462290397008474
 20
2165.0275750037981197
 30
0.0
 11
8717.1029329655411857
 21
2165.021444461126066
 31
0.0
  0
LINE
  5
15047
  8
0
 10
8717.0390483056762605
 20
2165.1097610410920424
 30
0.0
 11
8717.102507364250414
 21
2165.1281622518717995
 31
0.0
  0
ARC
  5
15048
  8
0
 10
8717.0507689106452744
 20
2165.0340521359180457
 30
0.0
 40
0.0079097198870455
 50
198.1222287319683915
 51
234.9730953352600125
  0
ARC
  5
15049
  8
0
 10
8717.1351971635613154
 20
2165.0658944865631383
 30
0.0
 40
0.098135957114537
 50
187.6491725472677103
 51
200.4592994382317102
  0
ARC
  5
1504A
  8
0
 10
8717.2569805742896278
 20
2165.0872027668688133
 30
0.0
 40
0.2217263174092978
 50
178.9033991284049137
 51
188.9176558823002097
  0
ARC
  5
1504B
  8
0
 10
8717.1391573412111029
 20
2165.0875193959441276
 30
0.0
 40
0.1039366799997546
 50
170.6182833331959898
 51
177.834811757175089
  0
ARC
  5
1504C
  8
0
 10
8717.0496672639474127
 20
2165.1023050444018736
 30
0.0
 40
0.0132333761536773
 50
152.5567025629464126
 51
170.6182833331702966
  0
ARC
  5
1504D
  8
0
 10
8717.0416189088355168
 20
2165.1064846346271224
 30
0.0
 40
0.0041644735456623
 50
128.1170233351328136
 51
152.5567025628521094
  0
ARC
  5
1504E
  8
0
 10
8717.0391016215417039
 20
2165.1070861358948605
 30
0.0
 40
0.0029254500565212
 50
33.018785059933812
 51
78.2084207288622224
  0
ARC
  5
1504F
  8
0
 10
8717.0089340592858207
 20
2165.0895184584810522
 30
0.0
 40
0.0378321729898433
 50
11.6953240626847208
 51
30.4306258503911202
  0
ARC
  5
15050
  8
0
 10
8716.8403851984730863
 20
2165.0506163360701066
 30
0.0
 40
0.2108042048445119
 50
0.9560210961367859
 51
12.7631076787065503
  0
ARC
  5
15051
  8
0
 10
8716.9534713640186965
 20
2165.0499883516181399
 30
0.0
 40
0.0977766029299182
 50
349.4187508807763152
 51
2.42978351406046
  0
ARC
  5
15052
  8
0
 10
8717.0416240724935051
 20
2165.0333634095750313
 30
0.0
 40
0.0080715393401374
 50
313.162664668175978
 51
350.5176028564868034
  0
ARC
  5
15053
  8
0
 10
8717.0898911698131997
 20
2165.0384358917690406
 30
0.0
 40
0.0281834242360516
 50
207.1727447410997911
 51
238.8989476535197127
  0
ARC
  5
15054
  8
0
 10
8717.0846761160701135
 20
2165.0297911573729834
 30
0.0
 40
0.0180874736458402
 50
238.8989476535197127
 51
263.9478130839930259
  0
ARC
  5
15055
  8
0
 10
8717.084712108498934
 20
2165.0301306278352058
 30
0.0
 40
0.0184288468279212
 50
263.9478130839930259
 51
292.6622399003921942
  0
ARC
  5
15056
  8
0
 10
8717.0727844391258259
 20
2165.050149324351878
 30
0.0
 40
0.0416281493445408
 50
297.2001948162680947
 51
326.9489653557068891
  0
ARC
  5
15057
  8
0
 10
8717.0432968996119598
 20
2165.0720577686770412
 30
0.0
 40
0.078325949045587
 50
325.2799882574241224
 51
348.877564265003798
  0
ARC
  5
15058
  8
0
 10
8717.0343508696641948
 20
2165.0746093707671207
 30
0.0
 40
0.0875996216767173
 50
348.3687406112010763
 51
16.1744484219610207
  0
ARC
  5
15059
  8
0
 10
8717.0446566361224541
 20
2165.0779642710908774
 30
0.0
 40
0.0767680312739871
 50
15.91225250902116
 51
34.6459651523414465
  0
ARC
  5
1505A
  8
0
 10
8717.0709268054451968
 20
2165.0971808475469516
 30
0.0
 40
0.0442400170467837
 50
33.5134329896610765
 51
60.0817383018926421
  0
ARC
  5
1505B
  8
0
 10
8717.0845443065081781
 20
2165.1174833675081572
 30
0.0
 40
0.0199218145104279
 50
64.9095104125129723
 51
103.3012821662026965
  0
ARC
  5
1505C
  8
0
 10
8717.0896988630083797
 20
2165.109851892073948
 30
0.0
 40
0.0287201586320659
 50
109.8199147303648004
 51
166.9536493412365132
  0
ARC
  5
1505D
  8
0
 10
8717.0620671808865154
 20
2165.0578899380689109
 30
0.0
 40
0.0207029914077528
 50
192.2132570877286071
 51
207.190194554048901
  0
ARC
  5
1505E
  8
0
 10
8717.0468202084357472
 20
2165.0500573568187974
 30
0.0
 40
0.0035618275618712
 50
207.1901945541428063
 51
229.720311098620698
  0
ARC
  5
1505F
  8
0
 10
8717.0450801796432643
 20
2165.0480041101900497
 30
0.0
 40
0.0008704483776159
 50
229.7203110987508126
 51
350.2050913307535893
  0
ARC
  5
15060
  8
0
 10
8716.9949593172677851
 20
2165.0604665624341578
 30
0.0
 40
0.052515193124652
 50
346.1057179341163987
 51
6.3382138798000991
  0
ARC
  5
15061
  8
0
 10
8716.94636996578447
 20
2165.0605564295251497
 30
0.0
 40
0.1009450393026873
 50
3.2413634908986451
 51
13.7067870506576508
  0
ARC
  5
15062
  8
0
 10
8717.025908812198395
 20
2165.0800930290629367
 30
0.0
 40
0.0190425807738631
 50
13.3059143862813496
 51
29.3053782225277111
  0
ARC
  5
15063
  8
0
 10
8717.0414531858350529
 20
2165.0888517686289561
 30
0.0
 40
0.0012007940738292
 50
27.9019825504336012
 51
151.5877971820293908
  0
ARC
  5
15064
  8
0
 10
8717.1013819093732309
 20
2165.0762926970119224
 30
0.0
 40
0.0623823968947787
 50
167.8493513226815139
 51
186.6688407539878938
  0
ARC
  5
15065
  8
0
 10
8717.1381654142678599
 20
2165.0764150582108414
 30
0.0
 40
0.0990182438227867
 50
184.2666958275499098
 51
193.3747727701228882
  0
LINE
  5
15066
  8
0
 10
8717.0179664120387315
 20
2165.02436062507104
 30
0.0
 11
8716.9877572548884928
 21
2165.0275357354348671
 31
0.0
  0
LINE
  5
15067
  8
0
 10
8716.9877572548884928
 20
2165.0275357354348671
 30
0.0
 11
8716.9805514650888654
 21
2165.1098982892349341
 31
0.0
  0
LINE
  5
15068
  8
0
 10
8716.9805514650888654
 20
2165.1098982892349341
 30
0.0
 11
8717.0182871292308846
 21
2165.1207188167909408
 31
0.0
  0
ARC
  5
15069
  8
0
 10
8716.4785757868103246
 20
2165.0743355545191662
 30
0.0
 40
0.5417007847106562
 50
352.5066288528927885
 51
7.4933711471072533
  0
LINE
  5
1506A
  8
0
 10
8717.0033570741597941
 20
2165.1548348791770877
 30
0.0
 11
8717.0440736207256123
 21
2165.1505250587588307
 31
0.0
  0
LINE
  5
1506B
  8
0
 10
8716.9961234058955597
 20
2165.2372081155181149
 30
0.0
 11
8717.0447716035941994
 21
2165.2511083189401688
 31
0.0
  0
ARC
  5
1506C
  8
0
 10
8717.0604460202102928
 20
2165.1573970250260572
 30
0.0
 40
0.0310054594744363
 50
189.978746470526886
 51
208.1834731063925119
  0
ARC
  5
1506D
  8
0
 10
8717.0401606797768181
 20
2165.1465276533081123
 30
0.0
 40
0.0079915880453366
 50
208.1834731063694903
 51
250.1750810790873913
  0
ARC
  5
1506E
  8
0
 10
8716.986501449275238
 20
2165.1759762996548488
 30
0.0
 40
0.0629469664767695
 50
324.0367807361569135
 51
350.6483864435176088
  0
ARC
  5
1506F
  8
0
 10
8716.8844654424174223
 20
2165.2019903317500393
 30
0.0
 40
0.1680998323065644
 50
347.5492230859168217
 51
11.5607962360849594
  0
ARC
  5
15070
  8
0
 10
8716.9679137278744747
 20
2165.220936397605783
 30
0.0
 40
0.0825680198182445
 50
10.2852427086115608
 51
30.8179168890437296
  0
ARC
  5
15071
  8
0
 10
8717.0367853361567541
 20
2165.2614900896078325
 30
0.0
 40
0.0026840364570035
 50
40.6041538186131703
 51
137.2180269868231051
  0
ARC
  5
15072
  8
0
 10
8717.0567687175807805
 20
2165.2467443376008305
 30
0.0
 40
0.0275040421028039
 50
142.957126888700401
 51
180.1391050375777922
  0
ARC
  5
15073
  8
0
 10
8717.0003878015322698
 20
2165.2344980682391906
 30
0.0
 40
0.00505266527856
 50
147.5638132782518142
 51
173.9220441623691045
  0
ARC
  5
15074
  8
0
 10
8717.0904301268565177
 20
2165.2249103570129591
 30
0.0
 40
0.0956040018592193
 50
173.9220441623691045
 51
180.2968122730426899
  0
ARC
  5
15075
  8
0
 10
8717.2653369703148201
 20
2165.2258164440331711
 30
0.0
 40
0.2705131922460366
 50
180.2968122730426899
 51
183.887563841341688
  0
ARC
  5
15076
  8
0
 10
8717.7273179262465419
 20
2165.2572104075879906
 30
0.0
 40
0.7335596095639341
 50
183.887563841341688
 51
185.074724932820402
  0
ARC
  5
15077
  8
0
 10
8717.3144001001546712
 20
2165.2205420687619153
 30
0.0
 40
0.3190168516064773
 50
185.074724932820402
 51
190.4100426749346013
  0
ARC
  5
15078
  8
0
 10
8717.0434844708724995
 20
2165.170770659702157
 30
0.0
 40
0.0435672711916421
 50
190.4100426749346013
 51
199.3045683704343105
  0
ARC
  5
15079
  8
0
 10
8717.0070091912748467
 20
2165.157993933409216
 30
0.0
 40
0.0049189755453497
 50
199.3045683704343105
 51
214.8344270090757959
  0
ARC
  5
1507A
  8
0
 10
8717.0039221296792675
 20
2165.1558456176371692
 30
0.0
 40
0.0011579637185596
 50
214.8344270090543944
 51
240.7925326997041964
  0
ARC
  5
1507B
  8
0
 10
8717.0028782252556994
 20
2165.1558889220250421
 30
0.0
 40
0.0012664249951981
 50
301.9705303738822977
 51
348.4438447960866938
  0
ARC
  5
1507C
  8
0
 10
8716.9457815664372902
 20
2165.1659239584992065
 30
0.0
 40
0.0592377560371611
 50
349.9978306459163946
 51
2.2402578125139971
  0
ARC
  5
1507D
  8
0
 10
8716.5847830740585778
 20
2165.1599569764221087
 30
0.0
 40
0.4202725958197119
 50
1.1292376730510869
 51
8.2862531490167974
  0
ARC
  5
1507E
  8
0
 10
8716.8405744530246011
 20
2165.196934138989036
 30
0.0
 40
0.1618227046405434
 50
8.3829860539663414
 51
11.8845226636206593
  0
ARC
  5
1507F
  8
0
 10
8716.9721005722258269
 20
2165.2254085306221896
 30
0.0
 40
0.0272629722764115
 50
10.2501759572922495
 51
24.5460711047548017
  0
ARC
  5
15080
  8
0
 10
8716.9960155637891148
 20
2165.2362457423610067
 30
0.0
 40
0.0010101343563646
 50
28.92092704704962
 51
78.4109672866568701
  0
ARC
  5
15081
  8
0
 10
8717.1247364485407161
 20
2165.206931307756804
 30
0.0
 40
0.1271961937992413
 50
175.2013707840951042
 51
194.8019111458683028
  0
ARC
  5
15082
  8
0
 10
8716.8799476841686555
 20
2165.1855080014261148
 30
0.0
 40
0.1223157890504523
 50
354.8062425081354263
 51
15.1970394218541696
  0
LINE
  5
15083
  8
0
 10
8717.0462290397008474
 20
2165.2808485675359407
 30
0.0
 11
8717.1029329655411857
 21
2165.274718024863887
 31
0.0
  0
LINE
  5
15084
  8
0
 10
8717.0390483056762605
 20
2165.3630346048298634
 30
0.0
 11
8717.102507364250414
 21
2165.3814358156100752
 31
0.0
  0
ARC
  5
15085
  8
0
 10
8717.0507689106452744
 20
2165.2873256996549571
 30
0.0
 40
0.0079097198870455
 50
198.1222287319683915
 51
234.9730953352600125
  0
ARC
  5
15086
  8
0
 10
8717.1351971635613154
 20
2165.3191680503009593
 30
0.0
 40
0.098135957114537
 50
187.6491725472677103
 51
200.4592994382317102
  0
ARC
  5
15087
  8
0
 10
8717.2569805742896278
 20
2165.340476330607089
 30
0.0
 40
0.2217263174092978
 50
178.9033991284049137
 51
188.9176558823002097
  0
ARC
  5
15088
  8
0
 10
8717.1391573412111029
 20
2165.3407929596819486
 30
0.0
 40
0.1039366799997546
 50
170.6182833331959898
 51
177.834811757175089
  0
ARC
  5
15089
  8
0
 10
8717.0496672639474127
 20
2165.3555786081401493
 30
0.0
 40
0.0132333761536773
 50
152.5567025629464126
 51
170.6182833331702966
  0
ARC
  5
1508A
  8
0
 10
8717.0416189088355168
 20
2165.3597581983649434
 30
0.0
 40
0.0041644735456623
 50
128.1170233351328136
 51
152.5567025628521094
  0
ARC
  5
1508B
  8
0
 10
8717.0391016215417039
 20
2165.3603596996322267
 30
0.0
 40
0.0029254500565212
 50
33.018785059933812
 51
78.2084207288622224
  0
ARC
  5
1508C
  8
0
 10
8717.0089340592858207
 20
2165.3427920222188732
 30
0.0
 40
0.0378321729898433
 50
11.6953240626847208
 51
30.4306258503911202
  0
ARC
  5
1508D
  8
0
 10
8716.8403851984730863
 20
2165.3038898998079276
 30
0.0
 40
0.2108042048445119
 50
0.9560210961367859
 51
12.7631076787065503
  0
ARC
  5
1508E
  8
0
 10
8716.9534713640186965
 20
2165.3032619153559608
 30
0.0
 40
0.0977766029299182
 50
349.4187508807763152
 51
2.42978351406046
  0
ARC
  5
1508F
  8
0
 10
8717.0416240724935051
 20
2165.2866369733128522
 30
0.0
 40
0.0080715393401374
 50
313.162664668175978
 51
350.5176028564868034
  0
ARC
  5
15090
  8
0
 10
8717.0898911698131997
 20
2165.2917094555068616
 30
0.0
 40
0.0281834242360516
 50
207.1727447410997911
 51
238.8989476535197127
  0
ARC
  5
15091
  8
0
 10
8717.0846761160701135
 20
2165.2830647211121686
 30
0.0
 40
0.0180874736458402
 50
238.8989476535197127
 51
263.9478130839930259
  0
ARC
  5
15092
  8
0
 10
8717.084712108498934
 20
2165.2834041915730268
 30
0.0
 40
0.0184288468279212
 50
263.9478130839930259
 51
292.6622399003921942
  0
ARC
  5
15093
  8
0
 10
8717.0727844391258259
 20
2165.3034228880901537
 30
0.0
 40
0.0416281493445408
 50
297.2001948162680947
 51
326.9489653557068891
  0
ARC
  5
15094
  8
0
 10
8717.0432968996119598
 20
2165.3253313324148621
 30
0.0
 40
0.078325949045587
 50
325.2799882574241224
 51
348.877564265003798
  0
ARC
  5
15095
  8
0
 10
8717.0343508696641948
 20
2165.3278829345049417
 30
0.0
 40
0.0875996216767173
 50
348.3687406112010763
 51
16.1744484219610207
  0
ARC
  5
15096
  8
0
 10
8717.0446566361224541
 20
2165.3312378348277889
 30
0.0
 40
0.0767680312739871
 50
15.91225250902116
 51
34.6459651523414465
  0
ARC
  5
15097
  8
0
 10
8717.0709268054451968
 20
2165.3504544112852273
 30
0.0
 40
0.0442400170467837
 50
33.5134329896610765
 51
60.0817383018926421
  0
ARC
  5
15098
  8
0
 10
8717.0845443065081781
 20
2165.3707569312459782
 30
0.0
 40
0.0199218145104279
 50
64.9095104125129723
 51
103.3012821662026965
  0
ARC
  5
15099
  8
0
 10
8717.0896988630083797
 20
2165.3631254558122237
 30
0.0
 40
0.0287201586320659
 50
109.8199147303648004
 51
166.9536493412365132
  0
ARC
  5
1509A
  8
0
 10
8717.0620671808865154
 20
2165.3111635018071865
 30
0.0
 40
0.0207029914077528
 50
192.2132570877286071
 51
207.190194554048901
  0
ARC
  5
1509B
  8
0
 10
8717.0468202084357472
 20
2165.3033309205570731
 30
0.0
 40
0.0035618275618712
 50
207.1901945541428063
 51
229.720311098620698
  0
ARC
  5
1509C
  8
0
 10
8717.0450801796432643
 20
2165.3012776739287801
 30
0.0
 40
0.0008704483776159
 50
229.7203110987508126
 51
350.2050913307535893
  0
ARC
  5
1509D
  8
0
 10
8716.9949593172677851
 20
2165.3137401261719788
 30
0.0
 40
0.052515193124652
 50
346.1057179341163987
 51
6.3382138798000991
  0
ARC
  5
1509E
  8
0
 10
8716.94636996578447
 20
2165.3138299932629707
 30
0.0
 40
0.1009450393026873
 50
3.2413634908986451
 51
13.7067870506576508
  0
ARC
  5
1509F
  8
0
 10
8717.025908812198395
 20
2165.3333665928012124
 30
0.0
 40
0.0190425807738631
 50
13.3059143862813496
 51
29.3053782225277111
  0
ARC
  5
150A0
  8
0
 10
8717.0414531858350529
 20
2165.3421253323681412
 30
0.0
 40
0.0012007940738292
 50
27.9019825504336012
 51
151.5877971820293908
  0
ARC
  5
150A1
  8
0
 10
8717.1013819093732309
 20
2165.3295662607511076
 30
0.0
 40
0.0623823968947787
 50
167.8493513226815139
 51
186.6688407539878938
  0
ARC
  5
150A2
  8
0
 10
8717.1381654142678599
 20
2165.3296886219491171
 30
0.0
 40
0.0990182438227867
 50
184.2666958275499098
 51
193.3747727701228882
  0
LINE
  5
150A3
  8
0
 10
8717.0179664120387315
 20
2165.2776341888088609
 30
0.0
 11
8716.9877572548884928
 21
2165.2808092991731428
 31
0.0
  0
LINE
  5
150A4
  8
0
 10
8716.9877572548884928
 20
2165.2808092991731428
 30
0.0
 11
8716.9805514650888654
 21
2165.3631718529732098
 31
0.0
  0
LINE
  5
150A5
  8
0
 10
8716.9805514650888654
 20
2165.3631718529732098
 30
0.0
 11
8717.0182871292308846
 21
2165.3739923805292165
 31
0.0
  0
ARC
  5
150A6
  8
0
 10
8716.4785757868103246
 20
2165.3276091182560776
 30
0.0
 40
0.5417007847106562
 50
352.5066288528927885
 51
7.4933711471072533
  0
LINE
  5
150A7
  8
0
 10
8717.0033570741597941
 20
2165.4080949415961186
 30
0.0
 11
8717.0440736207256123
 21
2165.4037851211778616
 31
0.0
  0
LINE
  5
150A8
  8
0
 10
8716.9961234058955597
 20
2165.4904681779371458
 30
0.0
 11
8717.0447716035941994
 21
2165.5043683813591997
 31
0.0
  0
ARC
  5
150A9
  8
0
 10
8717.0604460202102928
 20
2165.4106570874450881
 30
0.0
 40
0.0310054594744363
 50
189.978746470526886
 51
208.1834731063925119
  0
ARC
  5
150AA
  8
0
 10
8717.0401606797768181
 20
2165.3997877157271432
 30
0.0
 40
0.0079915880453366
 50
208.1834731063694903
 51
250.1750810790873913
  0
ARC
  5
150AB
  8
0
 10
8716.986501449275238
 20
2165.4292363620738797
 30
0.0
 40
0.0629469664767695
 50
324.0367807361569135
 51
350.6483864435176088
  0
ARC
  5
150AC
  8
0
 10
8716.8844654424174223
 20
2165.4552503941690702
 30
0.0
 40
0.1680998323065644
 50
347.5492230859168217
 51
11.5607962360849594
  0
ARC
  5
150AD
  8
0
 10
8716.9679137278744747
 20
2165.4741964600248139
 30
0.0
 40
0.0825680198182445
 50
10.2852427086115608
 51
30.8179168890437296
  0
ARC
  5
150AE
  8
0
 10
8717.0367853361567541
 20
2165.5147501520277729
 30
0.0
 40
0.0026840364570035
 50
40.6041538186131703
 51
137.2180269868231051
  0
ARC
  5
150AF
  8
0
 10
8717.0567687175807805
 20
2165.5000044000189519
 30
0.0
 40
0.0275040421028039
 50
142.957126888700401
 51
180.1391050375777922
  0
ARC
  5
150B0
  8
0
 10
8717.0003878015322698
 20
2165.4877581306582215
 30
0.0
 40
0.00505266527856
 50
147.5638132782518142
 51
173.9220441623691045
  0
ARC
  5
150B1
  8
0
 10
8717.0904301268565177
 20
2165.4781704194310805
 30
0.0
 40
0.0956040018592193
 50
173.9220441623691045
 51
180.2968122730426899
  0
ARC
  5
150B2
  8
0
 10
8717.2653369703148201
 20
2165.479076506452202
 30
0.0
 40
0.2705131922460366
 50
180.2968122730426899
 51
183.887563841341688
  0
ARC
  5
150B3
  8
0
 10
8717.7273179262465419
 20
2165.5104704700070215
 30
0.0
 40
0.7335596095639341
 50
183.887563841341688
 51
185.074724932820402
  0
ARC
  5
150B4
  8
0
 10
8717.3144001001546712
 20
2165.4738021311809462
 30
0.0
 40
0.3190168516064773
 50
185.074724932820402
 51
190.4100426749346013
  0
ARC
  5
150B5
  8
0
 10
8717.0434844708724995
 20
2165.4240307221211879
 30
0.0
 40
0.0435672711916421
 50
190.4100426749346013
 51
199.3045683704343105
  0
ARC
  5
150B6
  8
0
 10
8717.0070091912748467
 20
2165.4112539958277921
 30
0.0
 40
0.0049189755453497
 50
199.3045683704343105
 51
214.8344270090757959
  0
ARC
  5
150B7
  8
0
 10
8717.0039221296792675
 20
2165.4091056800562001
 30
0.0
 40
0.0011579637185596
 50
214.8344270090543944
 51
240.7925326997041964
  0
ARC
  5
150B8
  8
0
 10
8717.0028782252556994
 20
2165.409148984444073
 30
0.0
 40
0.0012664249951981
 50
301.9705303738822977
 51
348.4438447960866938
  0
ARC
  5
150B9
  8
0
 10
8716.9457815664372902
 20
2165.4191840209177826
 30
0.0
 40
0.0592377560371611
 50
349.9978306459163946
 51
2.2402578125139971
  0
ARC
  5
150BA
  8
0
 10
8716.5847830740585778
 20
2165.4132170388411396
 30
0.0
 40
0.4202725958197119
 50
1.1292376730510869
 51
8.2862531490167974
  0
ARC
  5
150BB
  8
0
 10
8716.8405744530246011
 20
2165.4501942014071574
 30
0.0
 40
0.1618227046405434
 50
8.3829860539663414
 51
11.8845226636206593
  0
ARC
  5
150BC
  8
0
 10
8716.9721005722258269
 20
2165.4786685930398562
 30
0.0
 40
0.0272629722764115
 50
10.2501759572922495
 51
24.5460711047548017
  0
ARC
  5
150BD
  8
0
 10
8716.9960155637891148
 20
2165.4895058047800376
 30
0.0
 40
0.0010101343563646
 50
28.92092704704962
 51
78.4109672866568701
  0
ARC
  5
150BE
  8
0
 10
8717.1247364485407161
 20
2165.4601913701758349
 30
0.0
 40
0.1271961937992413
 50
175.2013707840951042
 51
194.8019111458683028
  0
ARC
  5
150BF
  8
0
 10
8716.8799476841686555
 20
2165.4387680638451457
 30
0.0
 40
0.1223157890504523
 50
354.8062425081354263
 51
15.1970394218541696
  0
LINE
  5
150C0
  8
0
 10
8717.0462290397008474
 20
2165.5341086299549715
 30
0.0
 11
8717.1029329655411857
 21
2165.5279780872829178
 31
0.0
  0
LINE
  5
150C1
  8
0
 10
8717.0390483056762605
 20
2165.6162946672498038
 30
0.0
 11
8717.102507364250414
 21
2165.6346958780291061
 31
0.0
  0
ARC
  5
150C2
  8
0
 10
8717.0507689106452744
 20
2165.5405857620748975
 30
0.0
 40
0.0079097198870455
 50
198.1222287319683915
 51
234.9730953352600125
  0
ARC
  5
150C3
  8
0
 10
8717.1351971635613154
 20
2165.5724281127190807
 30
0.0
 40
0.098135957114537
 50
187.6491725472677103
 51
200.4592994382317102
  0
ARC
  5
150C4
  8
0
 10
8717.2569805742896278
 20
2165.5937363930261199
 30
0.0
 40
0.2217263174092978
 50
178.9033991284049137
 51
188.9176558823002097
  0
ARC
  5
150C5
  8
0
 10
8717.1391573412111029
 20
2165.5940530221000699
 30
0.0
 40
0.1039366799997546
 50
170.6182833331959898
 51
177.834811757175089
  0
ARC
  5
150C6
  8
0
 10
8717.0496672639474127
 20
2165.6088386705591802
 30
0.0
 40
0.0132333761536773
 50
152.5567025629464126
 51
170.6182833331702966
  0
ARC
  5
150C7
  8
0
 10
8717.0416189088355168
 20
2165.6130182607839743
 30
0.0
 40
0.0041644735456623
 50
128.1170233351328136
 51
152.5567025628521094
  0
ARC
  5
150C8
  8
0
 10
8717.0391016215417039
 20
2165.6136197620508028
 30
0.0
 40
0.0029254500565212
 50
33.018785059933812
 51
78.2084207288622224
  0
ARC
  5
150C9
  8
0
 10
8717.0089340592858207
 20
2165.596052084637904
 30
0.0
 40
0.0378321729898433
 50
11.6953240626847208
 51
30.4306258503911202
  0
ARC
  5
150CA
  8
0
 10
8716.8403851984730863
 20
2165.5571499622278679
 30
0.0
 40
0.2108042048445119
 50
0.9560210961367859
 51
12.7631076787065503
  0
ARC
  5
150CB
  8
0
 10
8716.9534713640186965
 20
2165.5565219777759012
 30
0.0
 40
0.0977766029299182
 50
349.4187508807763152
 51
2.42978351406046
  0
ARC
  5
150CC
  8
0
 10
8717.0416240724935051
 20
2165.5398970357318831
 30
0.0
 40
0.0080715393401374
 50
313.162664668175978
 51
350.5176028564868034
  0
ARC
  5
150CD
  8
0
 10
8717.0898911698131997
 20
2165.5449695179258924
 30
0.0
 40
0.0281834242360516
 50
207.1727447410997911
 51
238.8989476535197127
  0
ARC
  5
150CE
  8
0
 10
8717.0846761160701135
 20
2165.5363247835311995
 30
0.0
 40
0.0180874736458402
 50
238.8989476535197127
 51
263.9478130839930259
  0
ARC
  5
150CF
  8
0
 10
8717.084712108498934
 20
2165.5366642539920576
 30
0.0
 40
0.0184288468279212
 50
263.9478130839930259
 51
292.6622399003921942
  0
ARC
  5
150D0
  8
0
 10
8717.0727844391258259
 20
2165.5566829505091846
 30
0.0
 40
0.0416281493445408
 50
297.2001948162680947
 51
326.9489653557068891
  0
ARC
  5
150D1
  8
0
 10
8717.0432968996119598
 20
2165.5785913948329835
 30
0.0
 40
0.078325949045587
 50
325.2799882574241224
 51
348.877564265003798
  0
ARC
  5
150D2
  8
0
 10
8717.0343508696641948
 20
2165.5811429969239725
 30
0.0
 40
0.0875996216767173
 50
348.3687406112010763
 51
16.1744484219610207
  0
ARC
  5
150D3
  8
0
 10
8717.0446566361224541
 20
2165.5844978972468198
 30
0.0
 40
0.0767680312739871
 50
15.91225250902116
 51
34.6459651523414465
  0
ARC
  5
150D4
  8
0
 10
8717.0709268054451968
 20
2165.6037144737038034
 30
0.0
 40
0.0442400170467837
 50
33.5134329896610765
 51
60.0817383018926421
  0
ARC
  5
150D5
  8
0
 10
8717.0845443065081781
 20
2165.6240169936650091
 30
0.0
 40
0.0199218145104279
 50
64.9095104125129723
 51
103.3012821662026965
  0
ARC
  5
150D6
  8
0
 10
8717.0896988630083797
 20
2165.6163855182298903
 30
0.0
 40
0.0287201586320659
 50
109.8199147303648004
 51
166.9536493412365132
  0
ARC
  5
150D7
  8
0
 10
8717.0620671808865154
 20
2165.5644235642271269
 30
0.0
 40
0.0207029914077528
 50
192.2132570877286071
 51
207.190194554048901
  0
ARC
  5
150D8
  8
0
 10
8717.0468202084357472
 20
2165.556590982976104
 30
0.0
 40
0.0035618275618712
 50
207.1901945541428063
 51
229.720311098620698
  0
ARC
  5
150D9
  8
0
 10
8717.0450801796432643
 20
2165.554537736347811
 30
0.0
 40
0.0008704483776159
 50
229.7203110987508126
 51
350.2050913307535893
  0
ARC
  5
150DA
  8
0
 10
8716.9949593172677851
 20
2165.5670001885910096
 30
0.0
 40
0.052515193124652
 50
346.1057179341163987
 51
6.3382138798000991
  0
ARC
  5
150DB
  8
0
 10
8716.94636996578447
 20
2165.5670900556820015
 30
0.0
 40
0.1009450393026873
 50
3.2413634908986451
 51
13.7067870506576508
  0
ARC
  5
150DC
  8
0
 10
8717.025908812198395
 20
2165.5866266552197885
 30
0.0
 40
0.0190425807738631
 50
13.3059143862813496
 51
29.3053782225277111
  0
ARC
  5
150DD
  8
0
 10
8717.0414531858350529
 20
2165.5953853947858079
 30
0.0
 40
0.0012007940738292
 50
27.9019825504336012
 51
151.5877971820293908
  0
ARC
  5
150DE
  8
0
 10
8717.1013819093732309
 20
2165.5828263231701385
 30
0.0
 40
0.0623823968947787
 50
167.8493513226815139
 51
186.6688407539878938
  0
ARC
  5
150DF
  8
0
 10
8717.1381654142678599
 20
2165.582948684368148
 30
0.0
 40
0.0990182438227867
 50
184.2666958275499098
 51
193.3747727701228882
  0
LINE
  5
150E0
  8
0
 10
8717.0179664120387315
 20
2165.5308942512278918
 30
0.0
 11
8716.9877572548884928
 21
2165.5340693615921737
 31
0.0
  0
LINE
  5
150E1
  8
0
 10
8716.9877572548884928
 20
2165.5340693615921737
 30
0.0
 11
8716.9805514650888654
 21
2165.6164319153917859
 31
0.0
  0
LINE
  5
150E2
  8
0
 10
8716.9805514650888654
 20
2165.6164319153917859
 30
0.0
 11
8717.0182871292308846
 21
2165.6272524429477926
 31
0.0
  0
ARC
  5
150E3
  8
0
 10
8716.4785757868103246
 20
2165.5808691806751085
 30
0.0
 40
0.5417007847106562
 50
352.5066288528927885
 51
7.4933711471072533
  0
LINE
  5
150E4
  8
0
 10
8716.9988467768762348
 20
2165.6608209442729276
 30
0.0
 11
8717.044567672210178
 21
2165.6517201743699843
 31
0.0
  0
LINE
  5
150E5
  8
0
 10
8716.9989722441041522
 20
2165.7430570178089511
 30
0.0
 11
8717.0444771134152688
 21
2165.751937339943197
 31
0.0
  0
ARC
  5
150E6
  8
0
 10
8717.3214991689292219
 20
2165.7014468073571152
 30
0.0
 40
0.3251999797802187
 50
172.6486982376395076
 51
187.1764700388118001
  0
ARC
  5
150E7
  8
0
 10
8716.6622073236358119
 20
2165.7019264060731985
 30
0.0
 40
0.3412979642953963
 50
353.0111277818937765
 51
6.9876148137278529
  0
ARC
  5
150E8
  8
0
 10
8717.1250649500252621
 20
2165.7018942363279166
 30
0.0
 40
0.1270497892367372
 50
170.1885031112412889
 51
189.8117469734087877
  0
ARC
  5
150E9
  8
0
 10
8716.8785176979217795
 20
2165.7018936982640298
 30
0.0
 40
0.1232719241667984
 50
349.8846954093444879
 51
10.1155546753136107
  0
ARC
  5
150EA
  8
0
 10
8717.0599367761478788
 20
2165.6580186773940113
 30
0.0
 40
0.030706215215302
 50
186.1331384843321928
 51
214.0533061226180962
  0
ARC
  5
150EB
  8
0
 10
8717.037855268259591
 20
2165.6430946028731341
 30
0.0
 40
0.0040543674210908
 50
214.0533061226180962
 51
265.2675514589175805
  0
ARC
  5
150EC
  8
0
 10
8716.993689809272837
 20
2165.6717331433278559
 30
0.0
 40
0.0546724415369389
 50
323.292863145622789
 51
346.4226427396801
  0
ARC
  5
150ED
  8
0
 10
8716.8865959152408323
 20
2165.7021905995361521
 30
0.0
 40
0.1659836740884198
 50
344.8811381861880818
 51
10.3181884313850603
  0
ARC
  5
150EE
  8
0
 10
8716.9528494572841737
 20
2165.716393378650082
 30
0.0
 40
0.0982802144500788
 50
9.0902590498210003
 51
29.5651475290916999
  0
ARC
  5
150EF
  8
0
 10
8717.0552360332094395
 20
2165.7454346191038894
 30
0.0
 40
0.0257695299243297
 50
130.9899299040750122
 51
171.9171001185486034
  0
LINE
  5
150F0
  8
0
 10
8717.0425007020276098
 20
2165.8691011327759952
 30
0.0
 11
8717.102810054379006
 21
2165.8810119268100607
 31
0.0
  0
ARC
  5
150F1
  8
0
 10
8717.209367258090424
 20
2165.8303159415168011
 30
0.0
 40
0.173320516348323
 50
171.1767766198460947
 51
180.8058788647387019
  0
ARC
  5
150F2
  8
0
 10
8717.085700372035717
 20
2165.8495119166791483
 30
0.0
 40
0.0481726671102295
 50
159.8941809426011105
 51
171.1767766198717879
  0
ARC
  5
150F3
  8
0
 10
8717.0476428402434976
 20
2165.863443378557804
 30
0.0
 40
0.00764537561068
 50
132.2666204349856969
 51
159.8941809426011105
  0
ARC
  5
150F4
  8
0
 10
8717.039624660199479
 20
2165.8638858600429558
 30
0.0
 40
0.0066964367267747
 50
19.2026902076341806
 51
54.0812152937457782
  0
ARC
  5
150F5
  8
0
 10
8716.9807790432114416
 20
2165.8433905500078254
 30
0.0
 40
0.0690090708573426
 50
0.9596745299077548
 51
19.2026902076341806
  0
ARC
  5
150F6
  8
0
 10
8714.1538189847178728
 20
2165.7303202781949949
 30
0.0
 40
2.8982112986065278
 50
1.929022526171903
 51
2.2587614880545841
  0
ARC
  5
150F7
  8
0
 10
8717.1417890551565506
 20
2165.8285605288169791
 30
0.0
 40
0.1023331975792448
 50
173.2491637134392022
 51
180.3820195910610096
  0
ARC
  5
150F8
  8
0
 10
8717.0805222814578883
 20
2165.8358128361178387
 30
0.0
 40
0.0406386798285433
 50
163.7441723981989981
 51
173.2491637134392022
  0
ARC
  5
150F9
  8
0
 10
8717.0471592245248758
 20
2165.8455409621951731
 30
0.0
 40
0.0058862697681626
 50
141.9800288131571904
 51
163.7441723982240092
  0
ARC
  5
150FA
  8
0
 10
8717.0432164459907654
 20
2165.8486236121880211
 30
0.0
 40
0.0008814487376217
 50
32.1134243138099293
 51
141.9800288130956858
  0
ARC
  5
150FB
  8
0
 10
8717.0307098368102743
 20
2165.8416052168067836
 30
0.0
 40
0.0152217569224041
 50
7.1491870851872328
 51
29.4628969335049113
  0
ARC
  5
150FC
  8
0
 10
8716.9551847588227247
 20
2165.8290160907299651
 30
0.0
 40
0.0917785170102711
 50
359.2896328680142801
 51
9.0797761223068232
  0
LINE
  5
150FD
  8
0
 10
8717.0425007020276098
 20
2165.7866553218450463
 30
0.0
 11
8717.102810054379006
 21
2165.7747445278118903
 31
0.0
  0
ARC
  5
150FE
  8
0
 10
8717.209367258090424
 20
2165.8254405131037856
 30
0.0
 40
0.173320516348323
 50
179.1941211352612981
 51
188.8232233801539053
  0
ARC
  5
150FF
  8
0
 10
8717.085700372035717
 20
2165.8062445379428027
 30
0.0
 40
0.0481726671102295
 50
188.8232233801280984
 51
200.1058190573988895
  0
ARC
  5
15100
  8
0
 10
8717.0476428402434976
 20
2165.7923130760627828
 30
0.0
 40
0.00764537561068
 50
200.1058190573988895
 51
227.7333795650143031
  0
ARC
  5
15101
  8
0
 10
8717.039624660199479
 20
2165.7918705945780857
 30
0.0
 40
0.0066964367267747
 50
305.9187847062542005
 51
340.7973097923658088
  0
ARC
  5
15102
  8
0
 10
8716.9807790432114416
 20
2165.8123659046141256
 30
0.0
 40
0.0690090708573426
 50
340.7973097923658088
 51
359.0403254700922275
  0
ARC
  5
15103
  8
0
 10
8714.1538189847178728
 20
2165.9254361764269561
 30
0.0
 40
2.8982112986065278
 50
357.7412385119454257
 51
358.0709774738281226
  0
ARC
  5
15104
  8
0
 10
8717.1417890551565506
 20
2165.8271959258049719
 30
0.0
 40
0.1023331975792448
 50
179.6179804089389052
 51
186.7508362865607126
  0
ARC
  5
15105
  8
0
 10
8717.0805222814578883
 20
2165.8199436185032027
 30
0.0
 40
0.0406386798285433
 50
186.7508362865607126
 51
196.2558276018010019
  0
ARC
  5
15106
  8
0
 10
8717.0471592245248758
 20
2165.8102154924258684
 30
0.0
 40
0.0058862697681626
 50
196.2558276017759908
 51
218.0199711868428096
  0
ARC
  5
15107
  8
0
 10
8717.0432164459907654
 20
2165.8071328424330204
 30
0.0
 40
0.0008814487376217
 50
218.0199711869043142
 51
327.8865756861900991
  0
ARC
  5
15108
  8
0
 10
8717.0307098368102743
 20
2165.8141512378138032
 30
0.0
 40
0.0152217569224041
 50
330.5371030664950922
 51
352.8508129148128205
  0
ARC
  5
15109
  8
0
 10
8716.9551847588227247
 20
2165.8267403638910764
 30
0.0
 40
0.0917785170102711
 50
350.9202238776932177
 51
0.7103671319857189
  0
ARC
  5
1510A
  8
0
 10
8717.0939693551372329
 20
2165.8604967810069866
 30
0.0
 40
0.0335807616404724
 50
131.904698313875997
 51
157.9190423406114121
  0
ARC
  5
1510B
  8
0
 10
8717.0857333762305643
 20
2165.8696744153839973
 30
0.0
 40
0.0212494875231539
 50
104.5021267847644992
 51
131.904698313875997
  0
ARC
  5
1510C
  8
0
 10
8717.0848386296565877
 20
2165.8731336139708219
 30
0.0
 40
0.0176764459198114
 50
66.762672500590341
 51
104.5021267847644992
  0
ARC
  5
1510D
  8
0
 10
8717.076781014979133
 20
2165.8583038122760627
 30
0.0
 40
0.0345172425980859
 50
44.4866791810094
 51
64.1839340781874625
  0
ARC
  5
1510E
  8
0
 10
8717.0550680863216257
 20
2165.8371164908458013
 30
0.0
 40
0.0648544895300289
 50
23.2363673735824712
 51
44.3984460681144171
  0
ARC
  5
1510F
  8
0
 10
8717.0157966758633847
 20
2165.8237952134941224
 30
0.0
 40
0.1062457902026919
 50
2.2024127234761282
 51
21.48191597553242
  0
ARC
  5
15110
  8
0
 10
8717.0939693551372329
 20
2165.7952596736140549
 30
0.0
 40
0.0335807616404724
 50
202.0809576593885879
 51
228.095301686124003
  0
ARC
  5
15111
  8
0
 10
8717.0857333762305643
 20
2165.7860820392370442
 30
0.0
 40
0.0212494875231539
 50
228.095301686124003
 51
255.4978732152355008
  0
ARC
  5
15112
  8
0
 10
8717.0848386296565877
 20
2165.7826228406502196
 30
0.0
 40
0.0176764459198114
 50
255.4978732152355008
 51
293.2373274994096732
  0
ARC
  5
15113
  8
0
 10
8717.076781014979133
 20
2165.7974526423458883
 30
0.0
 40
0.0345172425980859
 50
295.8160659218124806
 51
315.5133208189906213
  0
ARC
  5
15114
  8
0
 10
8717.0550680863216257
 20
2165.8186399637747854
 30
0.0
 40
0.0648544895300289
 50
315.6015539318855758
 51
336.763632626417575
  0
ARC
  5
15115
  8
0
 10
8717.0157966758633847
 20
2165.831961241126919
 30
0.0
 40
0.1062457902026919
 50
338.5180840244676119
 51
357.7975872765239274
  0
LINE
  5
15116
  8
0
 10
8716.9841543599886791
 20
2165.7865396446100021
 30
0.0
 11
8716.9841543599886791
 21
2165.8692168100110393
 31
0.0
  0
LINE
  5
15117
  8
0
 10
8717.018201214958026
 20
2165.8758348481778739
 30
0.0
 11
8716.9841543599886791
 21
2165.8692168100110393
 31
0.0
  0
LINE
  5
15118
  8
0
 10
8717.018204128193247
 20
2165.7799210401672099
 30
0.0
 11
8716.9841543599886791
 21
2165.7865396446100021
 31
0.0
  0
ARC
  5
15119
  8
0
 10
8716.4853449285692477
 20
2165.827861759426014
 30
0.0
 40
0.5350114383714172
 50
352.3950156764043982
 51
7.6049843235955921
  0
ENDSEC
  0
EOF
