  0
SECTION
  2
HEADER
  9
$ACADVER
  1
AC1009
  9
$INSBASE
 10
6861.0201911857084269
 20
184.2504889238041983
 30
0.0
  9
$EXTMIN
 10
6858.6579864613086102
 20
173.8174739997041911
 30
0.0
  9
$EXTMAX
 10
6863.3823959101073342
 20
190.2929747032085004
 30
0.0
  9
$LIMMIN
 10
0.0
 20
0.0
  9
$LIMMAX
 10
11.6929133858000007
 20
8.2677165353999982
  9
$ORTHOMODE
 70
     0
  9
$REGENMODE
 70
     1
  9
$FILLMODE
 70
     1
  9
$QTEXTMODE
 70
     0
  9
$MIRRTEXT
 70
     0
  9
$DRAGMODE
 70
     2
  9
$LTSCALE
 40
0.6431102362
  9
$OSMODE
 70
  4095
  9
$ATTMODE
 70
     1
  9
$TEXTSIZE
 40
0.2
  9
$TRACEWID
 40
0.05
  9
$TEXTSTYLE
  7
STANDARD
  9
$CLAYER
  8
0
  9
$CELTYPE
  6
BYLAYER
  9
$CECOLOR
 62
   256
  9
$DIMSCALE
 40
1.0
  9
$DIMASZ
 40
0.1875
  9
$DIMEXO
 40
0.0625
  9
$DIMDLI
 40
0.4443307087
  9
$DIMRND
 40
0.0
  9
$DIMDLE
 40
0.0
  9
$DIMEXE
 40
0.125
  9
$DIMTP
 40
0.01
  9
$DIMTM
 40
0.01
  9
$DIMTXT
 40
2.0
  9
$DIMCEN
 40
0.1052362205
  9
$DIMTSZ
 40
0.0
  9
$DIMTOL
 70
     1
  9
$DIMLIM
 70
     0
  9
$DIMTIH
 70
     1
  9
$DIMTOH
 70
     1
  9
$DIMSE1
 70
     0
  9
$DIMSE2
 70
     0
  9
$DIMTAD
 70
     0
  9
$DIMZIN
 70
     0
  9
$DIMBLK
  1

  9
$DIMASO
 70
     1
  9
$DIMSHO
 70
     1
  9
$DIMPOST
  1
\X
  9
$DIMAPOST
  1

  9
$DIMALT
 70
     1
  9
$DIMALTD
 70
     2
  9
$DIMALTF
 40
25.3999999999999986
  9
$DIMLFAC
 40
1.0
  9
$DIMTOFL
 70
     0
  9
$DIMTVP
 40
0.0
  9
$DIMTIX
 70
     0
  9
$DIMSOXD
 70
     0
  9
$DIMSAH
 70
     0
  9
$DIMBLK1
  1

  9
$DIMBLK2
  1

  9
$DIMSTYLE
  2
STANDARD
  9
$DIMCLRD
 70
     0
  9
$DIMCLRE
 70
     0
  9
$DIMCLRT
 70
     0
  9
$DIMTFAC
 40
1.0
  9
$DIMGAP
 40
0.09
  9
$LUNITS
 70
     2
  9
$LUPREC
 70
     4
  9
$SKETCHINC
 40
0.1
  9
$FILLETRAD
 40
0.0
  9
$AUNITS
 70
     0
  9
$AUPREC
 70
     0
  9
$MENU
  1
.
  9
$ELEVATION
 40
0.0
  9
$PELEVATION
 40
0.0
  9
$THICKNESS
 40
0.0
  9
$LIMCHECK
 70
     0
  9
$BLIPMODE
 70
     0
  9
$CHAMFERA
 40
0.0
  9
$CHAMFERB
 40
0.0
  9
$SKPOLY
 70
     0
  9
$TDCREATE
 40
2458060.468368056230247
  9
$TDUPDATE
 40
2460579.3780671302229166
  9
$TDINDWG
 40
1.0000765046
  9
$TDUSRTIMER
 40
1.0000765046
  9
$USRTIMER
 70
     1
  9
$ANGBASE
 50
0.0
  9
$ANGDIR
 70
     0
  9
$PDMODE
 70
     0
  9
$PDSIZE
 40
0.3125
  9
$PLINEWID
 40
0.0
  9
$COORDS
 70
     1
  9
$SPLFRAME
 70
     0
  9
$SPLINETYPE
 70
     6
  9
$SPLINESEGS
 70
     8
  9
$ATTDIA
 70
     1
  9
$ATTREQ
 70
     1
  9
$HANDLING
 70
     1
  9
$HANDSEED
  5
327A2
  9
$SURFTAB1
 70
     6
  9
$SURFTAB2
 70
     6
  9
$SURFTYPE
 70
     6
  9
$SURFU
 70
     6
  9
$SURFV
 70
     6
  9
$UCSNAME
  2

  9
$UCSORG
 10
0.0
 20
0.0
 30
0.0
  9
$UCSXDIR
 10
1.0
 20
0.0
 30
0.0
  9
$UCSYDIR
 10
0.0
 20
1.0
 30
0.0
  9
$PUCSNAME
  2

  9
$PUCSORG
 10
0.0
 20
0.0
 30
0.0
  9
$PUCSXDIR
 10
1.0
 20
0.0
 30
0.0
  9
$PUCSYDIR
 10
0.0
 20
1.0
 30
0.0
  9
$USERI1
 70
     0
  9
$USERI2
 70
     0
  9
$USERI3
 70
     0
  9
$USERI4
 70
     0
  9
$USERI5
 70
     0
  9
$USERR1
 40
0.0
  9
$USERR2
 40
0.0
  9
$USERR3
 40
0.0
  9
$USERR4
 40
0.0
  9
$USERR5
 40
0.0
  9
$WORLDVIEW
 70
     1
  9
$SHADEDGE
 70
     3
  9
$SHADEDIF
 70
    70
  9
$TILEMODE
 70
     1
  9
$MAXACTVP
 70
    64
  9
$PLIMCHECK
 70
     0
  9
$PEXTMIN
 10
1.0000000000000000E+20
 20
1.0000000000000000E+20
 30
1.0000000000000000E+20
  9
$PEXTMAX
 10
-1.0000000000000000E+20
 20
-1.0000000000000000E+20
 30
-1.0000000000000000E+20
  9
$PLIMMIN
 10
0.0
 20
0.0
  9
$PLIMMAX
 10
12.0
 20
9.0
  9
$UNITMODE
 70
     0
  9
$VISRETAIN
 70
     1
  9
$PLINEGEN
 70
     0
  9
$PSLTSCALE
 70
     1
  0
ENDSEC
  0
SECTION
  2
TABLES
  0
TABLE
  2
VPORT
 70
     1
  0
VPORT
  2
*ACTIVE
 70
     0
 10
0.0
 20
0.0
 11
1.0
 21
1.0
 12
2949.6548347403959269
 22
49.4756192489172903
 13
0.0
 23
0.0
 14
1.0
 24
1.0
 15
0.0
 25
0.0
 16
0.0
 26
0.0
 36
60.4960186965801583
 17
3911.3653564453120453
 27
132.5796051025390057
 37
0.0
 40
16.6114620377078097
 41
2.558981233243967
 42
50.0
 43
0.0
 44
0.0
 50
0.0
 51
0.0
 71
     0
 72
   100
 73
     1
 74
     1
 75
     0
 76
     0
 77
     0
 78
     0
  0
ENDTAB
  0
TABLE
  2
LTYPE
 70
     2
  0
LTYPE
  2
CONTINUOUS
 70
     0
  3
Solid line
 72
    65
 73
     0
 40
0.0
  0
LTYPE
  2
PHANTOM2
 70
     0
  3
___ _ _ ___ _ _ ___ _ _ ___ _ _
 72
    65
 73
     6
 40
1.25
 49
0.625
 49
-0.125
 49
0.125
 49
-0.125
 49
0.125
 49
-0.125
  0
ENDTAB
  0
TABLE
  2
LAYER
 70
     2
  0
LAYER
  2
0
 70
     0
 62
   255
  6
CONTINUOUS
  0
LAYER
  2
DEFPOINTS
 70
     0
 62
     7
  6
CONTINUOUS
  0
ENDTAB
  0
TABLE
  2
STYLE
 70
     1
  0
STYLE
  2
STANDARD
 70
     0
 40
0.0
 41
0.8
 50
0.0
 71
     0
 42
0.2
  3
txt
  4

  0
ENDTAB
  0
TABLE
  2
VIEW
 70
     2
  0
ENDTAB
  0
TABLE
  2
UCS
 70
     0
  0
ENDTAB
  0
TABLE
  2
APPID
 70
    11
  0
APPID
  2
ACAD
 70
     0
  0
APPID
  2
ACAD_MLEADERVER
 70
     0
  0
APPID
  2
ACAD_EXEMPT_FROM_CAD_STANDARDS
 70
     0
  0
APPID
  2
ACAD_NAV_VCDISPLAY
 70
     0
  0
APPID
  2
ACAECLAYERSTANDARD
 70
     0
  0
APPID
  2
ACCMTRANSPARENCY
 70
     0
  0
APPID
  2
ACAD_DSTYLE_DIMJAG
 70
     0
  0
APPID
  2
ACAD_DSTYLE_DIMTALN
 70
     0
  0
APPID
  2
ACDBATTR
 70
     0
  0
APPID
  2
ACADANNOTATIVE
 70
     0
  0
APPID
  2
DCO15
 70
     0
  0
ENDTAB
  0
TABLE
  2
DIMSTYLE
 70
     1
  0
DIMSTYLE
  2
STANDARD
 70
     0
  3

  4

  5

  6

  7

 40
1.0
 41
0.1875
 42
0.0625
 43
0.38
 44
0.125
 45
0.0
 46
0.0
 47
0.01
 48
0.01
140
0.15625
141
0.09
142
0.0
143
25.3999999999999986
144
1.0
145
0.0
146
1.0
147
0.09
 71
     1
 72
     0
 73
     1
 74
     1
 75
     0
 76
     0
 77
     0
 78
     4
170
     0
171
     2
172
     0
173
     0
174
     0
175
     0
176
     0
177
     0
178
     0
  0
ENDTAB
  0
ENDSEC
  0
SECTION
  2
BLOCKS
  0
BLOCK
  8
0
  2
$MODEL_SPACE
 70
     0
 10
0.0
 20
0.0
 30
0.0
  3
$MODEL_SPACE
  1

  0
ENDBLK
  5
21
  8
0
  0
BLOCK
 67
     1
  8
0
  2
$PAPER_SPACE
 70
     0
 10
0.0
 20
0.0
 30
0.0
  3
$PAPER_SPACE
  1

  0
ENDBLK
  5
1D
 67
     1
  8
0
  0
BLOCK
  8
0
  2
_FILLED
 70
     0
 10
0.0
 20
0.0
 30
0.0
  3
_FILLED
  1

  0
SOLID
  5
2FD5F
  8
0
  6
BYBLOCK
 62
     0
 10
0.0
 20
0.0
 30
0.0
 11
-1.0
 21
0.1666666667
 31
0.0
 12
-1.0
 22
-0.1666666667
 32
0.0
 13
-1.0
 23
-0.1666666667
 33
0.0
  0
ENDBLK
  5
2FD60
  8
0
  6
BYBLOCK
 62
     0
  0
ENDSEC
  0
SECTION
  2
ENTITIES
  0
ATTDEF
  5
26A5B
  8
DEFPOINTS
 10
6861.0104519745264042
 20
184.2492823582340975
 30
0.0
 40
0.001
  1
EX36242T-9BLPT
  3

  2
MODELNUMBER
 70
     0
1001
ACDBATTR
1070
     0
1070
     1
  0
ATTDEF
  5
26A5C
  8
DEFPOINTS
 10
6861.0103261648691841
 20
184.2476155178549106
 30
0.0
 40
0.001
  1
ORIANA
  3

  2
TRADENAME
 70
     0
1001
ACDBATTR
1070
     0
1070
     1
  0
ATTDEF
  5
26A5D
  8
DEFPOINTS
 10
6861.0104519745264042
 20
184.2459490249007104
 30
0.0
 40
0.001
  1
BATH FAUCET
  3

  2
PRODUCT
 70
     0
1001
ACDBATTR
1070
     0
1070
     1
  0
ARC
  5
324C5
  8
0
 10
6861.0201911857084269
 20
184.2504889238041983
 30
0.0
 40
2.3622047244000002
 50
280.5639775880554794
 51
70.0215510197811568
  0
ARC
  5
324C6
  8
0
 10
6861.0201911857084269
 20
184.2504889238041983
 30
0.0
 40
2.3622047244000002
 50
109.9784489802188006
 51
259.4360224094538125
  0
ARC
  5
324C7
  8
0
 10
6861.0201911857084269
 20
184.2504889238041983
 30
0.0
 40
2.3145821611000001
 50
280.7839077584279721
 51
69.5923942831069695
  0
ARC
  5
324C8
  8
0
 10
6861.0201911857084269
 20
184.2504889238041983
 30
0.0
 40
2.3145821611000001
 50
110.4076057168930021
 51
259.2160922390265227
  0
LINE
  5
324C9
  8
0
 10
6860.5871203195074486
 20
174.2505448658041018
 30
0.0
 11
6860.5871203195074486
 21
182.7364035283509907
 31
0.0
  0
LINE
  5
324CA
  8
0
 10
6861.4532620518093609
 20
174.2505448658041018
 30
0.0
 11
6861.4532620518093609
 21
182.7364035283509907
 31
0.0
  0
ARC
  5
324CB
  8
0
 10
6861.0201911857084269
 20
174.2505448658041018
 30
0.0
 40
0.4330708661000032
 50
180.0
 51
0.0
  0
LINE
  5
324CC
  8
0
 10
6860.2131045715077562
 20
185.6027522698624068
 30
0.0
 11
6860.2131045715077562
 21
187.8725361679040873
 31
0.0
  0
LINE
  5
324CD
  8
0
 10
6860.2131045715077562
 20
187.8922212072041873
 30
0.0
 11
6860.2131045715077562
 21
188.2859219946041947
 31
0.0
  0
LINE
  5
324CE
  8
0
 10
6860.2131045715077562
 20
188.3154070340042097
 30
0.0
 11
6860.2131045715077562
 21
189.8474870340041889
 31
0.0
  0
LINE
  5
324CF
  8
0
 10
6860.2131045715077562
 20
187.8922212072041873
 30
0.0
 11
6861.8272777999100072
 21
187.8922212072041873
 31
0.0
  0
LINE
  5
324D0
  8
0
 10
6860.2131045715077562
 20
187.8725361679040873
 30
0.0
 11
6861.8272777999100072
 21
187.8725361679040873
 31
0.0
  0
LINE
  5
324D1
  8
0
 10
6860.2229045715093889
 20
188.305607034004197
 30
0.0
 11
6861.8174777999092839
 21
188.305607034004197
 31
0.0
  0
LINE
  5
324D2
  8
0
 10
6860.2131045715077562
 20
188.2859219946041947
 30
0.0
 11
6861.8272777999100072
 21
188.2859219946041947
 31
0.0
  0
ARC
  5
324D3
  8
0
 10
6860.2229045715093889
 20
188.3154070340042097
 30
0.0
 40
0.0098
 50
180.0
 51
270.0
  0
LINE
  5
324D4
  8
0
 10
6860.2918447290094264
 20
188.305607034004197
 30
0.0
 11
6860.2918447290094264
 21
188.2859219946041947
 31
0.0
  0
LINE
  5
324D5
  8
0
 10
6860.2918447290094264
 20
187.8922212072041873
 30
0.0
 11
6860.2918447290094264
 21
187.8725361679040873
 31
0.0
  0
LINE
  5
324D6
  8
0
 10
6860.2328045715075859
 20
189.8671870340041892
 30
0.0
 11
6860.5005443133422887
 21
189.8671870340041892
 31
0.0
  0
ARC
  5
324D7
  8
0
 10
6860.2328045715075859
 20
189.8474870340041889
 30
0.0
 40
0.0197
 50
90.0
 51
180.0
  0
ARC
  5
324D8
  8
0
 10
6861.0199041362147909
 20
189.6853610195975932
 30
0.0
 40
0.5495633364396088
 50
89.9689049250734456
 51
123.4422857023870961
  0
ARC
  5
324D9
  8
0
 10
6861.0218184238992762
 20
189.6824625069585863
 30
0.0
 40
0.5530369329698224
 50
123.4422857023870961
 51
160.4871397002139872
  0
ARC
  5
324DA
  8
0
 10
6861.0185892733106812
 20
189.6836068249072014
 30
0.0
 40
0.5496110203783507
 50
160.4871397002139872
 51
198.8247335192787091
  0
ARC
  5
324DB
  8
0
 10
6861.0209452676008368
 20
189.6844100058573872
 30
0.0
 40
0.5521001585288163
 50
198.8247335192787091
 51
240.5677192752197868
  0
ARC
  5
324DC
  8
0
 10
6861.0198264707532871
 20
189.6824270743574914
 30
0.0
 40
0.5498233792865213
 50
240.5677192752197868
 51
270.0368365122038199
  0
ARC
  5
324DD
  8
0
 10
6861.0201910955256608
 20
189.6057032057557876
 30
0.0
 40
0.5511986961516289
 50
262.6131981126383153
 51
270.0000222637215757
  0
ARC
  5
324DE
  8
0
 10
6861.0201775664090746
 20
189.6050194356041914
 30
0.0
 40
0.5511683914000269
 50
213.679888919271491
 51
262.6142078657762795
  0
ARC
  5
324DF
  8
0
 10
6861.0201730635426429
 20
189.605016434849091
 30
0.0
 40
0.551162980269788
 50
180.0006497400354135
 51
213.679888919271491
  0
LINE
  5
324E0
  8
0
 10
6860.469010083307694
 20
189.6050101846041969
 30
0.0
 11
6860.4689900080711595
 21
189.6800121942368094
 31
0.0
  0
LINE
  5
324E1
  8
0
 10
6860.9493250439081748
 20
189.0590790156041976
 30
0.0
 11
6860.9493250439081748
 21
189.0584240498444046
 31
0.0
  0
ARC
  5
324E2
  8
0
 10
6861.0201961425091213
 20
189.6830867599041994
 30
0.0
 40
0.5190082186321209
 50
101.9929260940995022
 51
144.9696756005401994
  0
ARC
  5
324E3
  8
0
 10
6861.0201961425091213
 20
189.6830867599041994
 30
0.0
 40
0.5190082186321209
 50
154.9660610464700881
 51
197.9625888414057044
  0
ARC
  5
324E4
  8
0
 10
6861.0201961425091213
 20
189.6830867599041994
 30
0.0
 40
0.5190082186321209
 50
221.9698035132967107
 51
264.9959226751226993
  0
ARC
  5
324E5
  8
0
 10
6861.020208446909237
 20
189.6837641170041877
 30
0.0
 40
0.5158262497032088
 50
90.0019173060437367
 51
269.9980826939562917
  0
LINE
  5
324E6
  8
0
 10
6860.9752610450168504
 20
189.1698998830414951
 30
0.0
 11
6860.97492480233268
 21
189.1660567445603931
 31
0.0
  0
LINE
  5
324E7
  8
0
 10
6860.6370309849990008
 20
189.3384487851932079
 30
0.0
 11
6860.634314895443822
 21
189.336005797920393
 31
0.0
  0
LINE
  5
324E8
  8
0
 10
6860.5264853780727208
 20
189.52302673338761
 30
0.0
 11
6860.5297217994020684
 21
189.5240782738590894
 31
0.0
  0
LINE
  5
324E9
  8
0
 10
6860.5499449616108905
 20
189.9027077012383984
 30
0.0
 11
6860.5525794879122259
 21
189.9014792441564907
 31
0.0
  0
LINE
  5
324EA
  8
0
 10
6860.5952071148121831
 20
189.9810026160531038
 30
0.0
 11
6860.5975045296208918
 21
189.9793958443140127
 31
0.0
  0
LINE
  5
324EB
  8
0
 10
6860.9123509450682832
 20
190.1907667224757006
 30
0.0
 11
6860.9128753107415832
 21
190.1882998617869021
 31
0.0
  0
ARC
  5
324EC
  8
0
 10
6861.0196266734974415
 20
189.802843049507004
 30
0.0
 40
0.4572232676857128
 50
89.929259565582413
 51
92.7870891917764737
  0
ARC
  5
324ED
  8
0
 10
6861.0077419702301995
 20
190.0500862781620981
 30
0.0
 40
0.2096946627668991
 50
92.8284795773376885
 51
95.5246520517076902
  0
ARC
  5
324EE
  8
0
 10
6860.9941636827506954
 20
190.1909804059077089
 30
0.0
 40
0.0681477883168743
 50
95.5660424372593269
 51
101.1023036552257963
  0
ARC
  5
324EF
  8
0
 10
6860.9824295008729678
 20
190.250777304579799
 30
0.0
 40
0.0072104425006821
 50
101.1023036552257963
 51
116.8963964779323987
  0
ARC
  5
324F0
  8
0
 10
6860.9794684473308735
 20
190.2566147698532859
 30
0.0
 40
0.0006649219787571
 50
116.8963964779317024
 51
143.7619344465720133
  0
ARC
  5
324F1
  8
0
 10
6860.9792071875699548
 20
190.2568062497716994
 30
0.0
 40
0.0003410065242577
 50
143.7619344461500077
 51
215.4756141832538958
  0
ARC
  5
324F2
  8
0
 10
6860.9794237127598535
 20
190.2569605566868916
 30
0.0
 40
0.0006068895469227
 50
215.4756141829510057
 51
241.2106546878318909
  0
ARC
  5
324F3
  8
0
 10
6860.9818631590960649
 20
190.2613998483676028
 30
0.0
 40
0.0056722828242864
 50
241.2106546878343067
 51
256.7590287734299181
  0
ARC
  5
324F4
  8
0
 10
6860.9903690089377051
 20
190.2975484330611948
 30
0.0
 40
0.0428081099577314
 50
256.7590287734299181
 51
264.9572278583310094
  0
ARC
  5
324F5
  8
0
 10
6861.0179592477115875
 20
190.6102177937827094
 30
0.0
 40
0.3566924045785788
 50
264.9572278583310094
 51
267.5180074795342193
  0
ARC
  5
324F6
  8
0
 10
6861.0174635243311059
 20
190.598781381776206
 30
0.0
 40
0.3452452537866253
 50
267.5180074795342193
 51
270.4526785124838284
  0
ARC
  5
324F7
  8
0
 10
6861.0200305348798793
 20
190.0100704110253105
 30
0.0
 40
0.248443451119611
 50
89.9629508759672234
 51
92.4836521266373239
  0
ARC
  5
324F8
  8
0
 10
6861.0145533859104034
 20
190.1363445108092094
 30
0.0
 40
0.1220506212712441
 50
92.4836521266373239
 51
95.2466434666059314
  0
ARC
  5
324F9
  8
0
 10
6861.0070804748484079
 20
190.2177239360028125
 30
0.0
 40
0.0403288050618339
 50
95.2466434666059314
 51
99.9031358167762562
  0
ARC
  5
324FA
  8
0
 10
6861.0014130487788862
 20
190.2501863330957121
 30
0.0
 40
0.0073753994220194
 50
99.9031358167762562
 51
109.4445370569386
  0
ARC
  5
324FB
  8
0
 10
6860.9993395024594065
 20
190.2560599103780987
 30
0.0
 40
0.0011465548711136
 50
109.4445370569423943
 51
130.0781649163974976
  0
ARC
  5
324FC
  8
0
 10
6860.9987099826630583
 20
190.2568080676633997
 30
0.0
 40
0.0001687847057567
 50
130.0781649169429102
 51
216.8033216483958938
  0
ARC
  5
324FD
  8
0
 10
6860.9988896402555838
 20
190.2569424849585005
 30
0.0
 40
0.0003931613076737
 50
216.8033216484753893
 51
240.5160276051379071
  0
ARC
  5
324FE
  8
0
 10
6860.9998784526351301
 20
190.2586913462166933
 30
0.0
 40
0.0024022072564527
 50
240.5160276051371966
 51
254.3223559354366046
  0
ARC
  5
324FF
  8
0
 10
6861.0027819331198771
 20
190.2690363000126013
 30
0.0
 40
0.0131468928249779
 50
254.3223559354366046
 51
263.3273310275192216
  0
ARC
  5
32500
  8
0
 10
6861.0142306140187429
 20
190.3668971150549112
 30
0.0
 40
0.1116751193139168
 50
263.3273310275192216
 51
266.964607913337602
  0
ARC
  5
32501
  8
0
 10
6861.0190026246737034
 20
190.4568888599777949
 30
0.0
 40
0.2017932986117958
 50
266.964607913337602
 51
270.3374736539814762
  0
LINE
  5
32502
  8
0
 10
6860.9742000933083546
 20
190.2329737490042021
 30
0.0
 11
6860.978866188594111
 21
190.2568085186908036
 31
0.0
  0
ARC
  5
32503
  8
0
 10
6860.9338323439596934
 20
189.7896694329855904
 30
0.0
 40
0.4572232676857128
 50
95.4814620155314344
 51
98.3392916417014931
  0
ARC
  5
32504
  8
0
 10
6860.898081967440703
 20
190.0346028338647102
 30
0.0
 40
0.2096946627668991
 50
98.3806820272441627
 51
101.076854501662595
  0
ARC
  5
32505
  8
0
 10
6860.8709355066621356
 20
190.1735222162103014
 30
0.0
 40
0.0681477883168743
 50
101.1182448871615946
 51
106.6545061051756988
  0
ARC
  5
32506
  8
0
 10
6860.8534708693969151
 20
190.2319032624521924
 30
0.0
 40
0.0072104425006821
 50
106.6545061051752015
 51
122.4485989278524016
  0
ARC
  5
32507
  8
0
 10
6860.8499589176799418
 20
190.2374268513260063
 30
0.0
 40
0.0006649219787571
 50
122.4485989278505969
 51
149.3141368964851097
  0
ARC
  5
32508
  8
0
 10
6860.8496803574462319
 20
190.2375921553417015
 30
0.0
 40
0.0003410065242577
 50
149.3141368960762918
 51
221.027816633172506
  0
ARC
  5
32509
  8
0
 10
6860.8498809371985772
 20
190.2377666876996898
 30
0.0
 40
0.0006068895469227
 50
221.027816632852705
 51
246.7628571377356934
  0
ARC
  5
3250A
  8
0
 10
6860.8518794256633555
 20
190.2424211750956999
 30
0.0
 40
0.0056722828242864
 50
246.762857137736404
 51
262.311231223334687
  0
ARC
  5
3250B
  8
0
 10
6860.8568478995921396
 20
190.2792231305288055
 30
0.0
 40
0.0428081099577314
 50
262.311231223334687
 51
270.5094303082349256
  0
ARC
  5
3250C
  8
0
 10
6860.8540571169642135
 20
190.5930950183141874
 30
0.0
 40
0.3566924045785788
 50
270.5094303082349256
 51
273.0702099294218783
  0
ARC
  5
3250D
  8
0
 10
6860.8546702221447049
 20
190.5816642981579037
 30
0.0
 40
0.3452452537866253
 50
273.0702099294218783
 51
276.0048809623809802
  0
ARC
  5
3250E
  8
0
 10
6860.9141845198910232
 20
189.995963653639393
 30
0.0
 40
0.248443451119611
 50
95.5151533259011956
 51
98.0358545765423202
  0
ARC
  5
3250F
  8
0
 10
6860.8965157168513542
 20
190.1211154048706931
 30
0.0
 40
0.1220506212712441
 50
98.0358545765423202
 51
100.7988459165289044
  0
ARC
  5
32510
  8
0
 10
6860.88120419243387
 20
190.2013900114691864
 30
0.0
 40
0.0403288050618339
 50
100.7988459165289044
 51
105.4553382666797035
  0
ARC
  5
32511
  8
0
 10
6860.8724225332643982
 20
190.2331517715826124
 30
0.0
 40
0.0073753994220194
 50
105.4553382666797035
 51
114.9967395068510996
  0
ARC
  5
32512
  8
0
 10
6860.8697904310620288
 20
190.238797171695694
 30
0.0
 40
0.0011465548711136
 50
114.996739506904504
 51
135.6303673663221048
  0
ARC
  5
32513
  8
0
 10
6860.8690914785038331
 20
190.2394809112797134
 30
0.0
 40
0.0001687847057567
 50
135.6303673668554097
 51
222.3555240983012027
  0
ARC
  5
32514
  8
0
 10
6860.8692572879990621
 20
190.2396320802938874
 30
0.0
 40
0.0003931613076737
 50
222.355524098378396
 51
246.0682300550606953
  0
ARC
  5
32515
  8
0
 10
6860.8700722544135715
 20
190.2414684068903057
 30
0.0
 40
0.0024022072564527
 50
246.0682300550600132
 51
259.8745583853619792
  0
ARC
  5
32516
  8
0
 10
6860.8719612116910866
 20
190.2520457462705963
 30
0.0
 40
0.0131468928249779
 50
259.8745583853619792
 51
268.8795334774482058
  0
ARC
  5
32517
  8
0
 10
6860.8738878901276621
 20
190.3505551332611958
 30
0.0
 40
0.1116751193139168
 50
268.8795334774482058
 51
272.5168103632220209
  0
ARC
  5
32518
  8
0
 10
6860.869930575359831
 20
190.4405863828349084
 30
0.0
 40
0.2017932986117958
 50
272.5168103632220209
 51
275.889676103918589
  0
LINE
  5
32519
  8
0
 10
6860.8473790765592639
 20
190.2172793733770106
 30
0.0
 11
6860.8493407387568368
 21
190.2375614210706942
 31
0.0
  0
ARC
  5
3251A
  8
0
 10
6860.9349560714208565
 20
189.7897786690500084
 30
0.0
 40
0.4572232676857128
 50
92.7651132580968607
 51
95.6229428842911631
  0
ARC
  5
3251B
  8
0
 10
6860.9228635863073578
 20
190.0370118223513032
 30
0.0
 40
0.2096946627668991
 50
90.0275503982044398
 51
92.7237228726217069
  0
ARC
  5
3251C
  8
0
 10
6860.9227462943217688
 20
190.178558674547503
 30
0.0
 40
0.0681477883168743
 50
84.4498987946940076
 51
89.9861600126986048
  0
ARC
  5
3251D
  8
0
 10
6860.9286399180364242
 20
190.2392103465330138
 30
0.0
 40
0.0072104425006821
 50
68.655805971977685
 51
84.4498987946941639
  0
ARC
  5
3251E
  8
0
 10
6860.9310222896019695
 20
190.2453069147993006
 30
0.0
 40
0.0006649219787571
 50
41.7902680033513576
 51
68.6558059719782534
  0
ARC
  5
3251F
  8
0
 10
6860.9312637974671816
 20
190.2455227739490056
 30
0.0
 40
0.0003410065242577
 50
330.0765882666515836
 51
41.790268003787979
  0
ARC
  5
32520
  8
0
 10
6860.9310333585171975
 20
190.24565540754719
 30
0.0
 40
0.0006068895469227
 50
304.3415477620737875
 51
330.0765882669722942
  0
ARC
  5
32521
  8
0
 10
6860.9281758438273755
 20
190.2498378492811923
 30
0.0
 40
0.0056722828242864
 50
288.7931736765111168
 51
304.3415477620720253
  0
ARC
  5
32522
  8
0
 10
6860.9162124291469809
 20
190.2849938781533865
 30
0.0
 40
0.0428081099577314
 50
280.5949745915963831
 51
288.7931736765111168
  0
ARC
  5
32523
  8
0
 10
6860.8585000504017444
 20
190.5935269100141056
 30
0.0
 40
0.3566924045785788
 50
278.0341949703811224
 51
280.5949745915963831
  0
ARC
  5
32524
  8
0
 10
6860.8600999509326357
 20
190.5821921149324112
 30
0.0
 40
0.3452452537866253
 50
275.0995239374594235
 51
278.0341949703811224
  0
ARC
  5
32525
  8
0
 10
6860.9145043140488269
 20
189.9959947404076956
 30
0.0
 40
0.248443451119611
 50
93.0685503232994762
 51
95.5892515739481183
  0
ARC
  5
32526
  8
0
 10
6860.9077384164211253
 20
190.1222063486945899
 30
0.0
 40
0.1220506212712441
 50
90.3055589833324461
 51
93.0685503232994762
  0
ARC
  5
32527
  8
0
 10
6860.9073025951965974
 20
190.2039270027817111
 30
0.0
 40
0.0403288050618339
 50
85.6490666331358028
 51
90.3055589833324461
  0
ARC
  5
32528
  8
0
 10
6860.9098026102501535
 20
190.2367854395673135
 30
0.0
 40
0.0073753994220194
 50
76.1076653929957558
 51
85.6490666331358028
  0
ARC
  5
32529
  8
0
 10
6860.91129814443957
 20
190.2428320817703025
 30
0.0
 40
0.0011465548711136
 50
55.4740375335117619
 51
76.1076653929432183
  0
ARC
  5
3252A
  8
0
 10
6860.9118523246379482
 20
190.2436376367367075
 30
0.0
 40
0.0001687847057567
 50
328.7488808015328914
 51
55.4740375329929378
  0
ARC
  5
3252B
  8
0
 10
6860.9116605046901896
 20
190.2437540410645909
 30
0.0
 40
0.0003931613076737
 50
305.0361748447861032
 51
328.7488808014501274
  0
ARC
  5
3252C
  8
0
 10
6860.9105071244503051
 20
190.2453990272786086
 30
0.0
 40
0.0024022072564527
 50
291.2298465144796751
 51
305.0361748447879222
  0
ARC
  5
3252D
  8
0
 10
6860.9066163643492473
 20
190.255414527955196
 30
0.0
 40
0.0131468928249779
 50
282.22487142239072
 51
291.2298465144796751
  0
ARC
  5
3252E
  8
0
 10
6860.8857531048843157
 20
190.3517085351390961
 30
0.0
 40
0.1116751193139168
 50
278.5875945366166775
 51
282.22487142239072
  0
ARC
  5
3252F
  8
0
 10
6860.8722965449651383
 20
190.4408163756197894
 30
0.0
 40
0.2017932986117958
 50
275.214728795937674
 51
278.5875945366166775
  0
LINE
  5
32530
  8
0
 10
6860.9366721518808845
 20
190.228585004287595
 30
0.0
 11
6860.9316029771089234
 21
190.2455580247685987
 31
0.0
  0
ARC
  5
32531
  8
0
 10
6860.8432788017507846
 20
189.7508639906899077
 30
0.0
 40
0.4572232676857128
 50
100.3255140178533935
 51
103.1833436440326039
  0
ARC
  5
32532
  8
0
 10
6860.7869729675303461
 20
189.9919036416193876
 30
0.0
 40
0.2096946627668991
 50
103.2247340295383964
 51
105.9209065039632947
  0
ARC
  5
32533
  8
0
 10
6860.7481925629126636
 20
190.1280344806743869
 30
0.0
 40
0.0681477883168743
 50
105.9622968894718014
 51
111.4985581074778054
  0
ARC
  5
32534
  8
0
 10
6860.7258603777536337
 20
190.1847322197926076
 30
0.0
 40
0.0072104425006821
 50
111.4985581074771943
 51
127.2926509301949949
  0
ARC
  5
32535
  8
0
 10
6860.7218945361282749
 20
190.1899395165094973
 30
0.0
 40
0.0006649219787571
 50
127.2926509301515949
 51
154.1581888988112894
  0
ARC
  5
32536
  8
0
 10
6860.7216030119188872
 20
190.1900807073637054
 30
0.0
 40
0.0003410065242577
 50
154.1581888983891986
 51
225.8718686355109071
  0
ARC
  5
32537
  8
0
 10
6860.7217881370406758
 20
190.1902715540838074
 30
0.0
 40
0.0006068895469227
 50
225.8718686351674023
 51
251.6069091400796083
  0
ARC
  5
32538
  8
0
 10
6860.7233864439467652
 20
190.1950781770246977
 30
0.0
 40
0.0056722828242864
 50
251.6069091400800914
 51
267.1552832256526244
  0
ARC
  5
32539
  8
0
 10
6860.7252294682348293
 20
190.2321682419795081
 30
0.0
 40
0.0428081099577314
 50
267.1552832256526244
 51
275.3534823105682108
  0
ARC
  5
3253A
  8
0
 10
6860.6959440639448076
 20
190.5446833864207861
 30
0.0
 40
0.3566924045785788
 50
275.3534823105682108
 51
277.9142619317590857
  0
ARC
  5
3253B
  8
0
 10
6860.6975202346957303
 20
190.533345267219687
 30
0.0
 40
0.3452452537866253
 50
277.9142619317590857
 51
280.8489329647138106
  0
ARC
  5
3253C
  8
0
 10
6860.8062808512977426
 20
189.9547622352336873
 30
0.0
 40
0.248443451119611
 50
100.3592053282318943
 51
102.8799065788851976
  0
ARC
  5
3253D
  8
0
 10
6860.7781068458880327
 20
190.077974949091697
 30
0.0
 40
0.1220506212712441
 50
102.8799065788851976
 51
105.6428979188122952
  0
ARC
  5
3253E
  8
0
 10
6860.7560713038947142
 20
190.1566698671846893
 30
0.0
 40
0.0403288050618339
 50
105.6428979188122952
 51
110.2993902690221972
  0
ARC
  5
3253F
  8
0
 10
6860.7446389215410818
 20
190.1875766233549996
 30
0.0
 40
0.0073753994220194
 50
110.2993902690221972
 51
119.8407915091851947
  0
ARC
  5
32540
  8
0
 10
6860.7415395005828032
 20
190.1929795942193948
 30
0.0
 40
0.0011465548711136
 50
119.8407915091924991
 51
140.4744193686345
  0
ARC
  5
32541
  8
0
 10
6860.7407853068352779
 20
190.1936018693101005
 30
0.0
 40
0.0001687847057567
 50
140.4744193691932139
 51
227.1995761006330952
  0
ARC
  5
32542
  8
0
 10
6860.7409377587837298
 20
190.1937664999958884
 30
0.0
 40
0.0003931613076737
 50
227.1995761007067074
 51
250.9122820573637966
  0
ARC
  5
32543
  8
0
 10
6860.7415947476083602
 20
190.1956650866569873
 30
0.0
 40
0.0024022072564527
 50
250.9122820573631998
 51
264.7186103876593961
  0
ARC
  5
32544
  8
0
 10
6860.7425837653863709
 20
190.2063641572615893
 30
0.0
 40
0.0131468928249779
 50
264.7186103876593961
 51
273.7235854797384036
  0
ARC
  5
32545
  8
0
 10
6860.7361850380011674
 20
190.3046843876462901
 30
0.0
 40
0.1116751193139168
 50
273.7235854797384036
 51
277.3608623655784982
  0
ARC
  5
32546
  8
0
 10
6860.7246392613124044
 20
190.3940598948090042
 30
0.0
 40
0.2017932986117958
 50
277.3608623655784982
 51
280.7337281062258967
  0
LINE
  5
32547
  8
0
 10
6860.7208869185178628
 20
190.1579979252367991
 30
0.0
 11
6860.7212672015939461
 21
190.1900214041166919
 31
0.0
  0
ARC
  5
32548
  8
0
 10
6860.8443892911873263
 20
189.7510677286011003
 30
0.0
 40
0.4572232676857128
 50
97.6091652604251436
 51
100.4669948866259972
  0
ARC
  5
32549
  8
0
 10
6860.8114626475617115
 20
189.9963966841428089
 30
0.0
 40
0.2096946627668991
 50
94.8716024005157834
 51
97.5677748749204028
  0
ARC
  5
3254A
  8
0
 10
6860.7993929957337969
 20
190.1374280587685064
 30
0.0
 40
0.0681477883168743
 50
89.2939507970094439
 51
94.8302120150018766
  0
ARC
  5
3254B
  8
0
 10
6860.8001439005292923
 20
190.1983607778701071
 30
0.0
 40
0.0072104425006821
 50
73.499857974282591
 51
89.2939507970094439
  0
ARC
  5
3254C
  8
0
 10
6860.8020029443532621
 20
190.2046367475132911
 30
0.0
 40
0.0006649219787571
 50
46.6343200056752707
 51
73.4998579743330254
  0
ARC
  5
3254D
  8
0
 10
6860.8022253616036323
 20
190.2048722295475045
 30
0.0
 40
0.0003410065242577
 50
334.9206402689819129
 51
46.6343200060948888
  0
ARC
  5
3254E
  8
0
 10
6860.8019845456201438
 20
190.2049849302279085
 30
0.0
 40
0.0006068895469227
 50
309.1855997644104832
 51
334.9206402693137079
  0
ARC
  5
3254F
  8
0
 10
6860.7987840553159913
 20
190.2089111333393987
 30
0.0
 40
0.0056722828242864
 50
293.6372256788421282
 51
309.1855997644084937
  0
ARC
  5
32550
  8
0
 10
6860.7838946564088474
 20
190.2429313546358003
 30
0.0
 40
0.0428081099577314
 50
285.4390265939238134
 51
293.6372256788421282
  0
ARC
  5
32551
  8
0
 10
6860.7003346575902469
 20
190.545488914460492
 30
0.0
 40
0.3566924045785788
 50
282.878246972712418
 51
285.4390265939238134
  0
ARC
  5
32552
  8
0
 10
6860.702885998788588
 20
190.5343297066330877
 30
0.0
 40
0.3452452537866253
 50
279.9435759397574088
 51
282.878246972712418
  0
ARC
  5
32553
  8
0
 10
6860.8065968781338597
 20
189.9548202156570085
 30
0.0
 40
0.248443451119611
 50
97.912602325611573
 51
100.4333035762747954
  0
ARC
  5
32554
  8
0
 10
6860.7891973369087282
 20
190.0800096856704045
 30
0.0
 40
0.1220506212712441
 50
95.1496109856328616
 51
97.912602325611573
  0
ARC
  5
32555
  8
0
 10
6860.7818622555059846
 20
190.1614016498031106
 30
0.0
 40
0.0403288050618339
 50
90.4931186354796324
 51
95.1496109856328616
  0
ARC
  5
32556
  8
0
 10
6860.7815786440787633
 20
190.1943538349783012
 30
0.0
 40
0.0073753994220194
 50
80.9517173953349811
 51
90.4931186354796324
  0
ARC
  5
32557
  8
0
 10
6860.7825582340610708
 20
190.2005051688097979
 30
0.0
 40
0.0011465548711136
 50
60.3180895358307083
 51
80.9517173952827278
  0
ARC
  5
32558
  8
0
 10
6860.7830424105923157
 20
190.2013546436967886
 30
0.0
 40
0.0001687847057567
 50
333.5929328038503172
 51
60.3180895352885926
  0
ARC
  5
32559
  8
0
 10
6860.7828414461382636
 20
190.2014544342162878
 30
0.0
 40
0.0003931613076737
 50
309.880226847107906
 51
333.5929328037659047
  0
ARC
  5
3255A
  8
0
 10
6860.7815532763343072
 20
190.2029961489043046
 30
0.0
 40
0.0024022072564527
 50
296.073898516838824
 51
309.8802268471100092
  0
ARC
  5
3255B
  8
0
 10
6860.776830664452973
 20
190.2126473252571941
 30
0.0
 40
0.0131468928249779
 50
287.0689234247255968
 51
296.073898516838824
  0
ARC
  5
3255C
  8
0
 10
6860.7479104750873375
 20
190.3068356157291987
 30
0.0
 40
0.1116751193139168
 50
283.4316465389380824
 51
287.0689234247255968
  0
ARC
  5
3255D
  8
0
 10
6860.7269773587086092
 20
190.3944888579893018
 30
0.0
 40
0.2017932986117958
 50
280.0587807982710729
 51
283.4316465389380824
  0
LINE
  5
3255E
  8
0
 10
6860.8038798127417977
 20
190.2015816960287111
 30
0.0
 11
6860.8025603530550143
 21
190.2049359961362995
 31
0.0
  0
ARC
  5
3255F
  8
0
 10
6861.0205171767493084
 20
189.7447326495000084
 30
0.0
 40
0.5089938930847675
 50
94.8014125932369041
 51
100.0849628001942051
  0
LINE
  5
32560
  8
0
 10
6860.8745218943086002
 20
190.2153457972063961
 30
0.0
 11
6860.8745218943086002
 21
190.2248911710042023
 31
0.0
  0
ARC
  5
32561
  8
0
 10
6860.9987565288929545
 20
189.7296843567104077
 30
0.0
 40
0.5105526744160084
 50
104.0833776908938972
 51
123.4895096438927027
  0
LINE
  5
32562
  8
0
 10
6860.7170415794089422
 20
190.1554785800040861
 30
0.0
 11
6860.7170415794089422
 21
190.1439394016042002
 31
0.0
  0
ARC
  5
32563
  8
0
 10
6861.0117114018003122
 20
189.7690882230328953
 30
0.0
 40
0.4829874768544534
 50
109.8159882207373954
 51
115.6388808363891059
  0
ARC
  5
32564
  8
0
 10
6861.0198510541158612
 20
189.7561102218705003
 30
0.0
 40
0.536864481338021
 50
89.9637001443083335
 51
119.9787272377402019
  0
ARC
  5
32565
  8
0
 10
6860.7600397449496086
 20
190.2065027087396913
 30
0.0
 40
0.0169074556148562
 50
119.9787272376925955
 51
140.4404126124406105
  0
ARC
  5
32566
  8
0
 10
6860.7562638235731356
 20
190.210080920503998
 30
0.0
 40
0.011722810344985
 50
142.1701700111387936
 51
179.5986690409563948
  0
LINE
  5
32567
  8
0
 10
6860.7445413008090327
 20
190.2101630328041892
 30
0.0
 11
6860.7444288149690692
 21
190.1972738882350882
 31
0.0
  0
LINE
  5
32568
  8
0
 10
6861.8272777999100072
 20
185.6027522698624068
 30
0.0
 11
6861.8272777999100072
 21
187.8725361679040873
 31
0.0
  0
LINE
  5
32569
  8
0
 10
6861.8272777999100072
 20
187.8922212072041873
 30
0.0
 11
6861.8272777999100072
 21
188.2859219946041947
 31
0.0
  0
LINE
  5
3256A
  8
0
 10
6861.8272777999100072
 20
188.3154070340042097
 30
0.0
 11
6861.8272777999100072
 21
189.8474870340041889
 31
0.0
  0
ARC
  5
3256B
  8
0
 10
6861.8174777999092839
 20
188.3154070340042097
 30
0.0
 40
0.0098
 50
270.0
 51
0.0
  0
LINE
  5
3256C
  8
0
 10
6861.7485376424092465
 20
188.305607034004197
 30
0.0
 11
6861.7485376424092465
 21
188.2859219946041947
 31
0.0
  0
LINE
  5
3256D
  8
0
 10
6861.7485376424092465
 20
187.8922212072041873
 30
0.0
 11
6861.7485376424092465
 21
187.8725361679040873
 31
0.0
  0
LINE
  5
3256E
  8
0
 10
6861.8075777999083584
 20
189.8671870340041892
 30
0.0
 11
6861.5398380580745652
 21
189.8671870340041892
 31
0.0
  0
ARC
  5
3256F
  8
0
 10
6861.8075777999083584
 20
189.8474870340041889
 30
0.0
 40
0.0197
 50
0.0
 51
90.0
  0
ARC
  5
32570
  8
0
 10
6861.0204782352029724
 20
189.6853610195975932
 30
0.0
 40
0.5495633364396088
 50
56.5577142976128613
 51
90.031095074926526
  0
ARC
  5
32571
  8
0
 10
6861.0185639475193966
 20
189.6824625069585863
 30
0.0
 40
0.5530369329698224
 50
19.5128602997860092
 51
56.5577142976128613
  0
ARC
  5
32572
  8
0
 10
6861.0217930981079917
 20
189.6836068249072014
 30
0.0
 40
0.5496110203783507
 50
341.1752664807211772
 51
19.5128602997860092
  0
ARC
  5
32573
  8
0
 10
6861.0194371038169265
 20
189.6844100058573872
 30
0.0
 40
0.5521001585288163
 50
299.4322807247801848
 51
341.1752664807211772
  0
ARC
  5
32574
  8
0
 10
6861.0205559006635667
 20
189.6824270743574914
 30
0.0
 40
0.5498233792865213
 50
269.9631634877961233
 51
299.4322807247801848
  0
ARC
  5
32575
  8
0
 10
6861.0201912758911931
 20
189.6057032057557876
 30
0.0
 40
0.5511986961516289
 50
269.9999777362784243
 51
277.3868018873617984
  0
ARC
  5
32576
  8
0
 10
6861.0202048050077792
 20
189.6050194356041914
 30
0.0
 40
0.5511683914000269
 50
277.3857921342237205
 51
326.320111080728509
  0
ARC
  5
32577
  8
0
 10
6861.0202093078742109
 20
189.605016434849091
 30
0.0
 40
0.551162980269788
 50
326.320111080728509
 51
359.9993502599629096
  0
LINE
  5
32578
  8
0
 10
6861.5713722881100693
 20
189.6050101846041969
 30
0.0
 11
6861.5713923633456943
 21
189.6800121942368094
 31
0.0
  0
LINE
  5
32579
  8
0
 10
6861.091057327508679
 20
189.0590790156041976
 30
0.0
 11
6861.091057327508679
 21
189.0584240498444046
 31
0.0
  0
ARC
  5
3257A
  8
0
 10
6861.0201862289086421
 20
189.6830867599041994
 30
0.0
 40
0.5190082186321209
 50
35.0303243994598006
 51
78.0070739059004978
  0
ARC
  5
3257B
  8
0
 10
6861.0201862289086421
 20
189.6830867599041994
 30
0.0
 40
0.5190082186321209
 50
342.0374111585927039
 51
25.033938953529919
  0
ARC
  5
3257C
  8
0
 10
6861.0201862289086421
 20
189.6830867599041994
 30
0.0
 40
0.5190082186321209
 50
275.0040773248774144
 51
318.0301964867031757
  0
ARC
  5
3257D
  8
0
 10
6861.0201739245076169
 20
189.6837641170041877
 30
0.0
 40
0.5158262497032088
 50
270.0019173060437083
 51
89.9980826939562633
  0
LINE
  5
3257E
  8
0
 10
6861.0651213264009129
 20
189.1698998830414951
 30
0.0
 11
6861.0654575690859929
 21
189.1660567445603931
 31
0.0
  0
LINE
  5
3257F
  8
0
 10
6861.4033513864178531
 20
189.3384487851932079
 30
0.0
 11
6861.4060674759721223
 21
189.336005797920393
 31
0.0
  0
LINE
  5
32580
  8
0
 10
6861.5138969933441331
 20
189.52302673338761
 30
0.0
 11
6861.5106605720138759
 21
189.5240782738590894
 31
0.0
  0
LINE
  5
32581
  8
0
 10
6861.4904374098059634
 20
189.9027077012383984
 30
0.0
 11
6861.487802883504628
 21
189.9014792441564907
 31
0.0
  0
LINE
  5
32582
  8
0
 10
6861.4451752566046707
 20
189.9810026160531038
 30
0.0
 11
6861.4428778417968715
 21
189.9793958443140127
 31
0.0
  0
LINE
  5
32583
  8
0
 10
6861.1280314263503897
 20
190.1907667224757006
 30
0.0
 11
6861.1275070606752706
 21
190.1882998617869021
 31
0.0
  0
ARC
  5
32584
  8
0
 10
6861.0207556979212313
 20
189.802843049507004
 30
0.0
 40
0.4572232676857128
 50
87.2129108082235263
 51
90.070740434417587
  0
ARC
  5
32585
  8
0
 10
6861.0326404011866543
 20
190.0500862781620981
 30
0.0
 40
0.2096946627668991
 50
84.475347948292324
 51
87.1715204226623115
  0
ARC
  5
32586
  8
0
 10
6861.0462186886679774
 20
190.1909804059077089
 30
0.0
 40
0.0681477883168743
 50
78.8976963447741468
 51
84.4339575627406731
  0
ARC
  5
32587
  8
0
 10
6861.0579528705438861
 20
190.250777304579799
 30
0.0
 40
0.0072104425006821
 50
63.1036035220675302
 51
78.8976963447744737
  0
ARC
  5
32588
  8
0
 10
6861.0609139240859804
 20
190.2566147698532859
 30
0.0
 40
0.0006649219787571
 50
36.2380655534279867
 51
63.1036035220682692
  0
ARC
  5
32589
  8
0
 10
6861.0611751838478085
 20
190.2568062497716994
 30
0.0
 40
0.0003410065242577
 50
324.5243858167460758
 51
36.2380655538499568
  0
ARC
  5
3258A
  8
0
 10
6861.0609586586579098
 20
190.2569605566868916
 30
0.0
 40
0.0006068895469227
 50
298.7893453121673133
 51
324.5243858170489943
  0
ARC
  5
3258B
  8
0
 10
6861.0585192123216984
 20
190.2613998483676028
 30
0.0
 40
0.0056722828242864
 50
283.2409712265700819
 51
298.7893453121657217
  0
ARC
  5
3258C
  8
0
 10
6861.0500133624791488
 20
190.2975484330611948
 30
0.0
 40
0.0428081099577314
 50
275.0427721416689906
 51
283.2409712265700819
  0
ARC
  5
3258D
  8
0
 10
6861.0224231237061758
 20
190.6102177937827094
 30
0.0
 40
0.3566924045785788
 50
272.4819925204657807
 51
275.0427721416689906
  0
ARC
  5
3258E
  8
0
 10
6861.0229188470866575
 20
190.598781381776206
 30
0.0
 40
0.3452452537866253
 50
269.5473214875161716
 51
272.4819925204657807
  0
ARC
  5
3258F
  8
0
 10
6861.0203518365378841
 20
190.0100704110253105
 30
0.0
 40
0.248443451119611
 50
87.5163478733626619
 51
90.0370491240327766
  0
ARC
  5
32590
  8
0
 10
6861.0258289855082694
 20
190.1363445108092094
 30
0.0
 40
0.1220506212712441
 50
84.7533565333940828
 51
87.5163478733626619
  0
ARC
  5
32591
  8
0
 10
6861.0333018965693554
 20
190.2177239360028125
 30
0.0
 40
0.0403288050618339
 50
80.0968641832237438
 51
84.7533565333940828
  0
ARC
  5
32592
  8
0
 10
6861.0389693226379677
 20
190.2501863330957121
 30
0.0
 40
0.0073753994220194
 50
70.5554629430613716
 51
80.0968641832237438
  0
ARC
  5
32593
  8
0
 10
6861.0410428689592663
 20
190.2560599103780987
 30
0.0
 40
0.0011465548711136
 50
49.9218350836025166
 51
70.5554629430575631
  0
ARC
  5
32594
  8
0
 10
6861.041672388754705
 20
190.2568080676633997
 30
0.0
 40
0.0001687847057567
 50
323.1966783516040778
 51
49.9218350830570685
  0
ARC
  5
32595
  8
0
 10
6861.0414927311639985
 20
190.2569424849585005
 30
0.0
 40
0.0003931613076737
 50
299.4839723948620076
 51
323.1966783515246107
  0
ARC
  5
32596
  8
0
 10
6861.0405039187826333
 20
190.2586913462166933
 30
0.0
 40
0.0024022072564527
 50
285.6776440645633102
 51
299.4839723948629171
  0
ARC
  5
32597
  8
0
 10
6861.0376004382969768
 20
190.2690363000126013
 30
0.0
 40
0.0131468928249779
 50
276.6726689724808921
 51
285.6776440645633102
  0
ARC
  5
32598
  8
0
 10
6861.0261517573990204
 20
190.3668971150549112
 30
0.0
 40
0.1116751193139168
 50
273.035392086662398
 51
276.6726689724808921
  0
ARC
  5
32599
  8
0
 10
6861.02137974674406
 20
190.4568888599777949
 30
0.0
 40
0.2017932986117958
 50
269.6625263460185238
 51
273.035392086662398
  0
LINE
  5
3259A
  8
0
 10
6861.0661822781075898
 20
190.2329737490042021
 30
0.0
 11
6861.0615161828227428
 21
190.2568085186908036
 31
0.0
  0
ARC
  5
3259B
  8
0
 10
6861.1065500274571605
 20
189.7896694329855904
 30
0.0
 40
0.4572232676857128
 50
81.6607083582985069
 51
84.5185379844685798
  0
ARC
  5
3259C
  8
0
 10
6861.1423004039779698
 20
190.0346028338647102
 30
0.0
 40
0.2096946627668991
 50
78.9231454983373766
 51
81.6193179727558515
  0
ARC
  5
3259D
  8
0
 10
6861.1694468647556278
 20
190.1735222162103014
 30
0.0
 40
0.0681477883168743
 50
73.3454938948242869
 51
78.8817551128387322
  0
ARC
  5
3259E
  8
0
 10
6861.1869115020208483
 20
190.2319032624521924
 30
0.0
 40
0.0072104425006821
 50
57.5514010721475984
 51
73.3454938948247559
  0
ARC
  5
3259F
  8
0
 10
6861.1904234537378215
 20
190.2374268513260063
 30
0.0
 40
0.0006649219787571
 50
30.6858631035148512
 51
57.5514010721493392
  0
ARC
  5
325A0
  8
0
 10
6861.1907020139706219
 20
190.2375921553417015
 30
0.0
 40
0.0003410065242577
 50
318.972183366827494
 51
30.6858631039237189
  0
ARC
  5
325A1
  8
0
 10
6861.1905014342173672
 20
190.2377666876996898
 30
0.0
 40
0.0006068895469227
 50
293.2371428622641929
 51
318.972183367147295
  0
ARC
  5
325A2
  8
0
 10
6861.1885029457553173
 20
190.2424211750956999
 30
0.0
 40
0.0056722828242864
 50
277.6887687766651993
 51
293.2371428622636245
  0
ARC
  5
325A3
  8
0
 10
6861.1835344718274428
 20
190.2792231305288055
 30
0.0
 40
0.0428081099577314
 50
269.4905696917650744
 51
277.6887687766651993
  0
ARC
  5
325A4
  8
0
 10
6861.1863252544553688
 20
190.5930950183141874
 30
0.0
 40
0.3566924045785788
 50
266.9297900705781217
 51
269.4905696917650744
  0
ARC
  5
325A5
  8
0
 10
6861.1857121492748774
 20
190.5816642981579037
 30
0.0
 40
0.3452452537866253
 50
263.9951190375671786
 51
266.9297900705781217
  0
ARC
  5
325A6
  8
0
 10
6861.1261978515267401
 20
189.995963653639393
 30
0.0
 40
0.248443451119611
 50
81.9641454234576941
 51
84.4848466740988471
  0
ARC
  5
325A7
  8
0
 10
6861.1438666545645901
 20
190.1211154048706931
 30
0.0
 40
0.1220506212712441
 50
79.2011540834711099
 51
81.9641454234576941
  0
ARC
  5
325A8
  8
0
 10
6861.1591781789857123
 20
190.2013900114691864
 30
0.0
 40
0.0403288050618339
 50
74.5446617333202539
 51
79.2011540834711099
  0
ARC
  5
325A9
  8
0
 10
6861.1679598381542746
 20
190.2331517715826124
 30
0.0
 40
0.0073753994220194
 50
65.0032604931489146
 51
74.5446617333202539
  0
ARC
  5
325AA
  8
0
 10
6861.1705919403557346
 20
190.238797171695694
 30
0.0
 40
0.0011465548711136
 50
44.369632633677881
 51
65.003260493095496
  0
ARC
  5
325AB
  8
0
 10
6861.1712908929130208
 20
190.2394809112797134
 30
0.0
 40
0.0001687847057567
 50
317.6444759016987973
 51
44.3696326331445903
  0
ARC
  5
325AC
  8
0
 10
6861.1711250834168823
 20
190.2396320802938874
 30
0.0
 40
0.0003931613076737
 50
293.9317699449392762
 51
317.644475901621604
  0
ARC
  5
325AD
  8
0
 10
6861.1703101170051013
 20
190.2414684068903057
 30
0.0
 40
0.0024022072564527
 50
280.1254416146380208
 51
293.9317699449400152
  0
ARC
  5
325AE
  8
0
 10
6861.1684211597257672
 20
190.2520457462705963
 30
0.0
 40
0.0131468928249779
 50
271.1204665225517942
 51
280.1254416146380208
  0
ARC
  5
325AF
  8
0
 10
6861.1664944812901012
 20
190.3505551332611958
 30
0.0
 40
0.1116751193139168
 50
267.4831896367779791
 51
271.1204665225517942
  0
ARC
  5
325B0
  8
0
 10
6861.1704517960570229
 20
190.4405863828349084
 30
0.0
 40
0.2017932986117958
 50
264.110323896081411
 51
267.4831896367779791
  0
LINE
  5
325B1
  8
0
 10
6861.1930032948594089
 20
190.2172793733770106
 30
0.0
 11
6861.1910416326609266
 21
190.2375614210706942
 31
0.0
  0
ARC
  5
325B2
  8
0
 10
6861.1054262999969069
 20
189.7897786690500084
 30
0.0
 40
0.4572232676857128
 50
84.3770571157088369
 51
87.2348867419031677
  0
ARC
  5
325B3
  8
0
 10
6861.1175187851113151
 20
190.0370118223513032
 30
0.0
 40
0.2096946627668991
 50
87.2762771273782931
 51
89.9724496017955744
  0
ARC
  5
325B4
  8
0
 10
6861.1176360770959946
 20
190.178558674547503
 30
0.0
 40
0.0681477883168743
 50
90.0138399873013952
 51
95.5501012053059782
  0
ARC
  5
325B5
  8
0
 10
6861.1117424533813391
 20
190.2392103465330138
 30
0.0
 40
0.0072104425006821
 50
95.5501012053058218
 51
111.3441940280223008
  0
ARC
  5
325B6
  8
0
 10
6861.1093600818157938
 20
190.2453069147993006
 30
0.0
 40
0.0006649219787571
 50
111.344194028021704
 51
138.2097319966485998
  0
ARC
  5
325B7
  8
0
 10
6861.1091185739487628
 20
190.2455227739490056
 30
0.0
 40
0.0003410065242577
 50
138.2097319962120139
 51
209.9234117333469953
  0
ARC
  5
325B8
  8
0
 10
6861.1093490129023849
 20
190.24565540754719
 30
0.0
 40
0.0006068895469227
 50
209.9234117330277058
 51
235.6584522379260989
  0
ARC
  5
325B9
  8
0
 10
6861.1122065275903879
 20
190.2498378492811923
 30
0.0
 40
0.0056722828242864
 50
235.6584522379280031
 51
251.2068263234889116
  0
ARC
  5
325BA
  8
0
 10
6861.1241699422707825
 20
190.2849938781533865
 30
0.0
 40
0.0428081099577314
 50
251.2068263234889116
 51
259.4050254084036169
  0
ARC
  5
325BB
  8
0
 10
6861.181882321016019
 20
190.5935269100141056
 30
0.0
 40
0.3566924045785788
 50
259.4050254084036169
 51
261.9658050296188776
  0
ARC
  5
325BC
  8
0
 10
6861.1802824204860372
 20
190.5821921149324112
 30
0.0
 40
0.3452452537866253
 50
261.9658050296188776
 51
264.9004760625405197
  0
ARC
  5
325BD
  8
0
 10
6861.1258780573707554
 20
189.9959947404076956
 30
0.0
 40
0.248443451119611
 50
84.4107484260518675
 51
86.931449676700538
  0
ARC
  5
325BE
  8
0
 10
6861.1326439549993665
 20
190.1222063486945899
 30
0.0
 40
0.1220506212712441
 50
86.931449676700538
 51
89.6944410166675681
  0
ARC
  5
325BF
  8
0
 10
6861.1330797762202565
 20
190.2039270027817111
 30
0.0
 40
0.0403288050618339
 50
89.6944410166675681
 51
94.350933366864183
  0
ARC
  5
325C0
  8
0
 10
6861.1305797611657908
 20
190.2367854395673135
 30
0.0
 40
0.0073753994220194
 50
94.350933366864183
 51
103.8923346070042015
  0
ARC
  5
325C1
  8
0
 10
6861.1290842269781933
 20
190.2428320817703025
 30
0.0
 40
0.0011465548711136
 50
103.8923346070567959
 51
124.5259624664881954
  0
ARC
  5
325C2
  8
0
 10
6861.1285300467798152
 20
190.2436376367367075
 30
0.0
 40
0.0001687847057567
 50
124.5259624670071048
 51
211.2511191984671086
  0
ARC
  5
325C3
  8
0
 10
6861.1287218667266643
 20
190.2437540410645909
 30
0.0
 40
0.0003931613076737
 50
211.2511191985499011
 51
234.9638251552138968
  0
ARC
  5
325C4
  8
0
 10
6861.1298752469683677
 20
190.2453990272786086
 30
0.0
 40
0.0024022072564527
 50
234.9638251552121062
 51
248.7701534855202965
  0
ARC
  5
325C5
  8
0
 10
6861.1337660070694255
 20
190.255414527955196
 30
0.0
 40
0.0131468928249779
 50
248.7701534855202965
 51
257.7751285776093937
  0
ARC
  5
325C6
  8
0
 10
6861.1546292665352667
 20
190.3517085351390961
 30
0.0
 40
0.1116751193139168
 50
257.7751285776093937
 51
261.4124054633833225
  0
ARC
  5
325C7
  8
0
 10
6861.1680858264517155
 20
190.4408163756197894
 30
0.0
 40
0.2017932986117958
 50
261.4124054633833225
 51
264.785271204062326
  0
LINE
  5
325C8
  8
0
 10
6861.1037102195368789
 20
190.228585004287595
 30
0.0
 11
6861.1087793943079305
 21
190.2455580247685987
 31
0.0
  0
ARC
  5
325C9
  8
0
 10
6861.1971035696669787
 20
189.7508639906899077
 30
0.0
 40
0.4572232676857128
 50
76.8166563559673961
 51
79.6744859821465639
  0
ARC
  5
325CA
  8
0
 10
6861.2534094038883268
 20
189.9919036416193876
 30
0.0
 40
0.2096946627668991
 50
74.0790934960366911
 51
76.7752659704615184
  0
ARC
  5
325CB
  8
0
 10
6861.2921898085050998
 20
190.1280344806743869
 30
0.0
 40
0.0681477883168743
 50
68.5014418925221946
 51
74.0377031105282271
  0
ARC
  5
325CC
  8
0
 10
6861.3145219936641297
 20
190.1847322197926076
 30
0.0
 40
0.0072104425006821
 50
52.7073490698049483
 51
68.5014418925227773
  0
ARC
  5
325CD
  8
0
 10
6861.3184878352913074
 20
190.1899395165094973
 30
0.0
 40
0.0006649219787571
 50
25.8418111011886786
 51
52.7073490698483766
  0
ARC
  5
325CE
  8
0
 10
6861.3187793594988761
 20
190.1900807073637054
 30
0.0
 40
0.0003410065242577
 50
314.1281313644892066
 51
25.8418111016107588
  0
ARC
  5
325CF
  8
0
 10
6861.3185942343761781
 20
190.1902715540838074
 30
0.0
 40
0.0006068895469227
 50
288.3930908599205054
 51
314.1281313648327114
  0
ARC
  5
325D0
  8
0
 10
6861.3169959274709981
 20
190.1950781770246977
 30
0.0
 40
0.0056722828242864
 50
272.8447167743473756
 51
288.3930908599198801
  0
ARC
  5
325D1
  8
0
 10
6861.3151529031820246
 20
190.2321682419795081
 30
0.0
 40
0.0428081099577314
 50
264.6465176894316755
 51
272.8447167743473756
  0
ARC
  5
325D2
  8
0
 10
6861.3444383074729558
 20
190.5446833864207861
 30
0.0
 40
0.3566924045785788
 50
262.0857380682409143
 51
264.6465176894316755
  0
ARC
  5
325D3
  8
0
 10
6861.342862136722033
 20
190.533345267219687
 30
0.0
 40
0.3452452537866253
 50
259.1510670352861894
 51
262.0857380682409143
  0
ARC
  5
325D4
  8
0
 10
6861.2341015201191112
 20
189.9547622352336873
 30
0.0
 40
0.248443451119611
 50
77.1200934211147455
 51
79.6407946717680915
  0
ARC
  5
325D5
  8
0
 10
6861.2622755255297307
 20
190.077974949091697
 30
0.0
 40
0.1220506212712441
 50
74.357102081187719
 51
77.1200934211147455
  0
ARC
  5
325D6
  8
0
 10
6861.2843110675230491
 20
190.1566698671846893
 30
0.0
 40
0.0403288050618339
 50
69.7006097309777886
 51
74.357102081187719
  0
ARC
  5
325D7
  8
0
 10
6861.2957434498757721
 20
190.1875766233549996
 30
0.0
 40
0.0073753994220194
 50
60.1592084908147768
 51
69.7006097309777886
  0
ARC
  5
325D8
  8
0
 10
6861.2988428708349602
 20
190.1929795942193948
 30
0.0
 40
0.0011465548711136
 50
39.5255806313654787
 51
60.1592084908075009
  0
ARC
  5
325D9
  8
0
 10
6861.2995970645806665
 20
190.1936018693101005
 30
0.0
 40
0.0001687847057567
 50
312.8004238993668764
 51
39.5255806308067505
  0
ARC
  5
325DA
  8
0
 10
6861.2994446126331241
 20
190.1937664999958884
 30
0.0
 40
0.0003931613076737
 50
289.0877179426361749
 51
312.800423899293321
  0
ARC
  5
325DB
  8
0
 10
6861.2987876238094032
 20
190.1956650866569873
 30
0.0
 40
0.0024022072564527
 50
275.2813896123407176
 51
289.0877179426368002
  0
ARC
  5
325DC
  8
0
 10
6861.2977986060313924
 20
190.2063641572615893
 30
0.0
 40
0.0131468928249779
 50
266.2764145202095278
 51
275.2813896123407176
  0
ARC
  5
325DD
  8
0
 10
6861.3041973334156864
 20
190.3046843876462901
 30
0.0
 40
0.1116751193139168
 50
262.6391376344212176
 51
266.2764145202095278
  0
ARC
  5
325DE
  8
0
 10
6861.3157431101062684
 20
190.3940598948090042
 30
0.0
 40
0.2017932986117958
 50
259.2662718937741033
 51
262.6391376344212176
  0
LINE
  5
325DF
  8
0
 10
6861.3194954528989911
 20
190.1579979252367991
 30
0.0
 11
6861.3191151698238173
 21
190.1900214041166919
 31
0.0
  0
ARC
  5
325E0
  8
0
 10
6861.1959930802313465
 20
189.7510677286011003
 30
0.0
 40
0.4572232676857128
 50
79.533005113373946
 51
82.3908347395748706
  0
ARC
  5
325E1
  8
0
 10
6861.2289197238551424
 20
189.9963966841428089
 30
0.0
 40
0.2096946627668991
 50
82.4322251250795972
 51
85.1283975994842166
  0
ARC
  5
325E2
  8
0
 10
6861.2409893756839665
 20
190.1374280587685064
 30
0.0
 40
0.0681477883168743
 50
85.1697879849981092
 51
90.7060492029905845
  0
ARC
  5
325E3
  8
0
 10
6861.2402384708875616
 20
190.1983607778701071
 30
0.0
 40
0.0072104425006821
 50
90.7060492029905845
 51
106.5001420257173947
  0
ARC
  5
325E4
  8
0
 10
6861.2383794270635917
 20
190.2046367475132911
 30
0.0
 40
0.0006649219787571
 50
106.5001420256670031
 51
133.3656799943246938
  0
ARC
  5
325E5
  8
0
 10
6861.238157009814131
 20
190.2048722295475045
 30
0.0
 40
0.0003410065242577
 50
133.3656799939051041
 51
205.0793597310166092
  0
ARC
  5
325E6
  8
0
 10
6861.2383978257976196
 20
190.2049849302279085
 30
0.0
 40
0.0006068895469227
 50
205.0793597306862921
 51
230.8144002355894884
  0
ARC
  5
325E7
  8
0
 10
6861.2415983161017721
 20
190.2089111333393987
 30
0.0
 40
0.0056722828242864
 50
230.8144002355915063
 51
246.3627743211579002
  0
ARC
  5
325E8
  8
0
 10
6861.256487715008916
 20
190.2429313546358003
 30
0.0
 40
0.0428081099577314
 50
246.3627743211579002
 51
254.5609734060761866
  0
ARC
  5
325E9
  8
0
 10
6861.3400477138266069
 20
190.545488914460492
 30
0.0
 40
0.3566924045785788
 50
254.5609734060761866
 51
257.1217530272875251
  0
ARC
  5
325EA
  8
0
 10
6861.3374963726291753
 20
190.5343297066330877
 30
0.0
 40
0.3452452537866253
 50
257.1217530272875251
 51
260.0564240602427049
  0
ARC
  5
325EB
  8
0
 10
6861.2337854932839036
 20
189.9548202156570085
 30
0.0
 40
0.248443451119611
 50
79.5666964237252188
 51
82.0873976743884555
  0
ARC
  5
325EC
  8
0
 10
6861.2511850345081257
 20
190.0800096856704045
 30
0.0
 40
0.1220506212712441
 50
82.0873976743884555
 51
84.8503890143669963
  0
ARC
  5
325ED
  8
0
 10
6861.2585201159099597
 20
190.1614016498031106
 30
0.0
 40
0.0403288050618339
 50
84.8503890143669963
 51
89.5068813645203534
  0
ARC
  5
325EE
  8
0
 10
6861.2588037273399095
 20
190.1943538349783012
 30
0.0
 40
0.0073753994220194
 50
89.5068813645203534
 51
99.0482826046650331
  0
ARC
  5
325EF
  8
0
 10
6861.2578241373548735
 20
190.2005051688097979
 30
0.0
 40
0.0011465548711136
 50
99.048282604717258
 51
119.6819104641693059
  0
ARC
  5
325F0
  8
0
 10
6861.2573399608254476
 20
190.2013546436967886
 30
0.0
 40
0.0001687847057567
 50
119.6819104647113932
 51
206.4070671961497112
  0
ARC
  5
325F1
  8
0
 10
6861.2575409252785903
 20
190.2014544342162878
 30
0.0
 40
0.0003931613076737
 50
206.4070671962340953
 51
230.119773152892094
  0
ARC
  5
325F2
  8
0
 10
6861.2588290950843657
 20
190.2029961489043046
 30
0.0
 40
0.0024022072564527
 50
230.1197731528899908
 51
243.9261014831612044
  0
ARC
  5
325F3
  8
0
 10
6861.2635517069647904
 20
190.2126473252571941
 30
0.0
 40
0.0131468928249779
 50
243.9261014831612044
 51
252.9310765752744032
  0
ARC
  5
325F4
  8
0
 10
6861.2924718963313353
 20
190.3068356157291987
 30
0.0
 40
0.1116751193139168
 50
252.9310765752744032
 51
256.568353461061804
  0
ARC
  5
325F5
  8
0
 10
6861.3134050127082446
 20
190.3944888579893018
 30
0.0
 40
0.2017932986117958
 50
256.568353461061804
 51
259.9412192017289271
  0
LINE
  5
325F6
  8
0
 10
6861.2365025586750562
 20
190.2015816960287111
 30
0.0
 11
6861.2378220183636586
 21
190.2049359961362995
 31
0.0
  0
ARC
  5
325F7
  8
0
 10
6861.0198651946693644
 20
189.7447326495000084
 30
0.0
 40
0.5089938930847675
 50
79.9150371998057949
 51
85.1985874067630817
  0
LINE
  5
325F8
  8
0
 10
6861.1658604771091632
 20
190.2153457972063961
 30
0.0
 11
6861.1658604771091632
 21
190.2248911710042023
 31
0.0
  0
ARC
  5
325F9
  8
0
 10
6861.0416258425238993
 20
189.7296843567104077
 30
0.0
 40
0.5105526744160084
 50
56.5104903561072334
 51
75.9166223091060886
  0
LINE
  5
325FA
  8
0
 10
6861.3233407920088212
 20
190.1554785800040861
 30
0.0
 11
6861.3233407920088212
 21
190.1439394016042002
 31
0.0
  0
ARC
  5
325FB
  8
0
 10
6861.0286709696156322
 20
189.7690882230328953
 30
0.0
 40
0.4829874768544534
 50
64.3611191636109083
 51
70.1840117792625904
  0
ARC
  5
325FC
  8
0
 10
6861.0205313173019022
 20
189.7561102218705003
 30
0.0
 40
0.536864481338021
 50
60.0212727622597981
 51
90.0362998556916665
  0
ARC
  5
325FD
  8
0
 10
6861.2803426264681548
 20
190.2065027087396913
 30
0.0
 40
0.0169074556148562
 50
39.5595873875593327
 51
60.0212727623073832
  0
ARC
  5
325FE
  8
0
 10
6861.2841185478437183
 20
190.210080920503998
 30
0.0
 40
0.011722810344985
 50
0.4013309590435578
 51
37.8298299888611567
  0
LINE
  5
325FF
  8
0
 10
6861.2958410706078212
 20
190.2101630328041892
 30
0.0
 11
6861.2959535564486941
 21
190.1972738882350882
 31
0.0
  0
LINE
  5
32600
  8
0
 10
6860.9217659888090566
 20
188.2859219946041947
 30
0.0
 11
6860.9217659888090566
 21
187.8922212072041873
 31
0.0
  0
LINE
  5
32601
  8
0
 10
6861.1186163825077529
 20
188.2859219946041947
 30
0.0
 11
6861.1186163825077529
 21
187.8922212072041873
 31
0.0
  0
ARC
  5
32603
  8
0
 10
6861.0280157035522279
 20
184.149676933656707
 30
0.0
 40
1.679582308988145
 50
90.2669196194507748
 51
98.6093036572930401
  0
ARC
  5
32604
  8
0
 10
6861.0201911857084269
 20
184.2504889238038004
 30
0.0
 40
1.5787520930562009
 50
98.8762232767927571
 51
261.8493327134572155
  0
ARC
  5
32605
  8
0
 10
6861.0279369055469942
 20
184.3588431867684108
 30
0.0
 40
1.6871275452011421
 50
262.1106633225613791
 51
269.7369501692782023
  0
ARC
  5
32606
  8
0
 10
6861.0366365684303673
 20
183.6004679788487124
 30
0.0
 40
2.225639037056975
 50
90.4233658653023866
 51
93.6236163931399687
  0
ARC
  5
32607
  8
0
 10
6861.0501227114791618
 20
184.0599012231870972
 30
0.0
 40
1.7684873182183529
 50
95.0005495880244837
 51
101.9612179228849982
  0
ARC
  5
32608
  8
0
 10
6861.048302473494914
 20
184.1571429524460086
 30
0.0
 40
1.6730805279073779
 50
102.5904123424875962
 51
111.5029944650055
  0
ARC
  5
32609
  8
0
 10
6861.0550751929686157
 20
184.1838979721553926
 30
0.0
 40
1.650748835816944
 50
112.0621083573687002
 51
122.7299335307873065
  0
ARC
  5
3260A
  8
0
 10
6861.0597126871325599
 20
184.2000340371207017
 30
0.0
 40
1.6397307274269779
 50
123.1711052958533941
 51
132.3706800997208859
  0
ARC
  5
3260B
  8
0
 10
6861.1418444207210996
 20
184.1314279923849995
 30
0.0
 40
1.745827223282312
 50
132.8447076973498895
 51
139.6358040867457078
  0
ARC
  5
3260C
  8
0
 10
6861.0320355196026867
 20
184.2449035052019894
 30
0.0
 40
1.588741464303137
 50
140.1892028407177975
 51
154.3867844137793952
  0
ARC
  5
3260D
  8
0
 10
6861.0191768834556569
 20
184.2492872028988984
 30
0.0
 40
1.5752521831564781
 50
154.3283781120042875
 51
167.8637866093125126
  0
ARC
  5
3260E
  8
0
 10
6861.0940435620450444
 20
184.2413326000371967
 30
0.0
 40
1.650137193894293
 50
168.1402737162248116
 51
177.4144302963022142
  0
ARC
  5
3260F
  8
0
 10
6860.9017385694842233
 20
184.250016586131693
 30
0.0
 40
1.457636228238903
 50
177.4144302963022142
 51
184.7864444491819995
  0
ARC
  5
32610
  8
0
 10
6861.123415790699255
 20
184.268578527328998
 30
0.0
 40
1.6800892256711959
 50
184.7864444491819995
 51
195.3273311514228112
  0
ARC
  5
32611
  8
0
 10
6860.923340110510253
 20
184.2137414190239895
 30
0.0
 40
1.472634685468283
 50
195.3273311514228112
 51
205.6614821779758131
  0
ARC
  5
32612
  8
0
 10
6861.0915210510947873
 20
184.2945422357356904
 30
0.0
 40
1.659218716825986
 50
205.6614821779758131
 51
218.3618103450997125
  0
ARC
  5
32613
  8
0
 10
6861.0227074212616571
 20
184.2533260595170077
 30
0.0
 40
1.579715812065831
 50
218.7386395310149112
 51
243.3639953691597952
  0
ARC
  5
32614
  8
0
 10
6861.0209296628527227
 20
184.25176634040929
 30
0.0
 40
1.577524866859723
 50
243.3963377589963955
 51
250.1591408754258907
  0
ARC
  5
32615
  8
0
 10
6861.0190854981910888
 20
184.2466554147682984
 30
0.0
 40
1.5720914053284989
 50
250.1591408754258907
 51
258.6102587037103717
  0
ARC
  5
32616
  8
0
 10
6861.0221629230909457
 20
184.2619318577463048
 30
0.0
 40
1.587674737901601
 50
258.6102587037103717
 51
264.9785491654694169
  0
ARC
  5
32617
  8
0
 10
6861.0184732606003308
 20
184.2199398988385894
 30
0.0
 40
1.5455209928461351
 50
264.9785491654694169
 51
268.4623830810655818
  0
ARC
  5
32618
  8
0
 10
6860.8379623706114216
 20
170.3242965627950127
 30
0.0
 40
12.3514614531004305
 50
89.1546489566023155
 51
89.3550118380157841
  0
LINE
  5
32619
  8
0
 10
6861.0112126204458036
 20
182.6980388225570096
 30
0.0
 11
6860.9077807979228965
 21
185.7976003041283946
 31
0.0
  0
LINE
  5
3261A
  8
0
 10
6860.8880053138345829
 20
185.7960177451670063
 30
0.0
 11
6861.0009720872858452
 21
182.6983567430511073
 31
0.0
  0
LINE
  5
3261B
  8
0
 10
6860.9828607558820295
 20
182.6982372198148994
 30
0.0
 11
6860.6656302308419981
 21
185.7623351347382936
 31
0.0
  0
LINE
  5
3261C
  8
0
 10
6860.6463444844503101
 20
185.7563417495777003
 30
0.0
 11
6860.9724410444259775
 21
182.6991994546307012
 31
0.0
  0
LINE
  5
3261D
  8
0
 10
6860.9540116188763932
 20
182.6989737755957037
 30
0.0
 11
6860.43178452637585
 21
185.6880338243661868
 31
0.0
  0
LINE
  5
3261E
  8
0
 10
6860.4134626605164158
 20
185.6780459690612872
 30
0.0
 11
6860.9432238822200816
 21
182.70060517165129
 31
0.0
  0
LINE
  5
3261F
  8
0
 10
6860.9242384249237148
 20
182.7003019505349926
 30
0.0
 11
6860.2117423895160755
 21
185.5773199989677948
 31
0.0
  0
LINE
  5
32620
  8
0
 10
6860.1948890141629818
 20
185.563351106599697
 30
0.0
 11
6860.9128745152602278
 21
182.7026465414755023
 31
0.0
  0
LINE
  5
32621
  8
0
 10
6860.8930478737438534
 20
182.7023150305890056
 30
0.0
 11
6860.0108505439757209
 21
185.432259282368392
 31
0.0
  0
LINE
  5
32622
  8
0
 10
6859.9959995565732243
 20
185.4143142886080113
 30
0.0
 11
6860.8808615098732844
 21
182.7054427419946876
 31
0.0
  0
LINE
  5
32623
  8
0
 10
6860.8465248965012506
 20
182.7091774125586028
 30
0.0
 11
6860.8598321310410029
 21
182.7051625986015893
 31
0.0
  0
LINE
  5
32624
  8
0
 10
6860.8598321310410029
 20
182.7051625986015893
 30
0.0
 11
6859.8342195065342821
 21
185.2555048251319931
 31
0.0
  0
LINE
  5
32625
  8
0
 10
6859.8342195065342821
 20
185.2555048251319931
 30
0.0
 11
6859.82195466315261
 21
185.2335758833442867
 31
0.0
  0
LINE
  5
32626
  8
0
 10
6859.82195466315261
 20
185.2335758833442867
 30
0.0
 11
6860.8465248965012506
 21
182.7091774125586028
 31
0.0
  0
LINE
  5
32627
  8
0
 10
6860.8089988637157148
 20
182.7141342837402931
 30
0.0
 11
6860.8238125591678909
 21
182.7090777022652048
 31
0.0
  0
LINE
  5
32628
  8
0
 10
6860.8238125591678909
 20
182.7090777022652048
 30
0.0
 11
6859.6867058915076996
 21
185.0502292982677943
 31
0.0
  0
LINE
  5
32629
  8
0
 10
6859.6867058915076996
 20
185.0502292982677943
 30
0.0
 11
6859.6776894999693468
 21
185.0242780463127872
 31
0.0
  0
LINE
  5
3262A
  8
0
 10
6859.6776894999693468
 20
185.0242780463127872
 30
0.0
 11
6860.8089988637157148
 21
182.7141342837402931
 31
0.0
  0
LINE
  5
3262B
  8
0
 10
6859.5729395704111084
 20
184.8200031074759124
 30
0.0
 11
6860.7839191966122598
 21
182.7144266021616943
 31
0.0
  0
LINE
  5
3262C
  8
0
 10
6860.7839191966122598
 20
182.7144266021616943
 30
0.0
 11
6860.767073846473977
 21
182.7207626347293115
 31
0.0
  0
LINE
  5
3262D
  8
0
 10
6860.767073846473977
 20
182.7207626347293115
 30
0.0
 11
6859.5679642976429022
 21
184.7899299126169979
 31
0.0
  0
LINE
  5
3262E
  8
0
 10
6859.5679642976429022
 20
184.7899299126169979
 30
0.0
 11
6859.5729395704111084
 21
184.8200031074759124
 31
0.0
  0
LINE
  5
3262F
  8
0
 10
6859.4975453444258164
 20
184.5342011465158123
 30
0.0
 11
6859.4974588785426022
 21
184.5686184648388917
 31
0.0
  0
LINE
  5
32630
  8
0
 10
6859.4974588785426022
 20
184.5686184648388917
 30
0.0
 11
6860.7385908259066127
 21
182.7218111916594978
 31
0.0
  0
LINE
  5
32631
  8
0
 10
6860.7385908259066127
 20
182.7218111916594978
 30
0.0
 11
6860.7189488297108255
 21
182.7298069711621906
 31
0.0
  0
LINE
  5
32632
  8
0
 10
6860.7189488297108255
 20
182.7298069711621906
 30
0.0
 11
6859.4975453444258164
 21
184.5342011465158123
 31
0.0
  0
LINE
  5
32633
  8
0
 10
6859.4716664914785724
 20
184.2605458614359861
 30
0.0
 11
6859.4650610149228669
 21
184.2997877849294071
 31
0.0
  0
LINE
  5
32634
  8
0
 10
6859.4650610149228669
 20
184.2997877849294071
 30
0.0
 11
6860.6853668983058014
 21
182.732283702557595
 31
0.0
  0
LINE
  5
32635
  8
0
 10
6860.6853668983058014
 20
182.732283702557595
 30
0.0
 11
6860.661712006183734
 21
182.7425989722916881
 31
0.0
  0
LINE
  5
32636
  8
0
 10
6860.661712006183734
 20
182.7425989722916881
 30
0.0
 11
6859.4716664914785724
 21
184.2605458614359861
 31
0.0
  0
LINE
  5
32637
  8
0
 10
6859.4972560282303675
 20
183.9713530566176019
 30
0.0
 11
6859.4817055919784252
 21
184.0165169949414974
 31
0.0
  0
LINE
  5
32638
  8
0
 10
6859.4817055919784252
 20
184.0165169949414974
 30
0.0
 11
6860.6199391380323505
 21
182.7478807352474917
 31
0.0
  0
LINE
  5
32639
  8
0
 10
6860.6199391380323505
 20
182.7478807352474917
 30
0.0
 11
6860.5900678115422124
 21
182.761812923499491
 31
0.0
  0
LINE
  5
3263A
  8
0
 10
6860.5900678115422124
 20
182.761812923499491
 30
0.0
 11
6859.4972560282303675
 21
183.9713530566176019
 31
0.0
  0
LINE
  5
3263B
  8
0
 10
6859.5869494887610927
 20
183.6652804993763084
 30
0.0
 11
6859.5573129704362145
 21
183.7192083615971967
 31
0.0
  0
LINE
  5
3263C
  8
0
 10
6859.5573129704362145
 20
183.7192083615971967
 30
0.0
 11
6860.5333996829231182
 21
182.7732743830356981
 31
0.0
  0
LINE
  5
3263D
  8
0
 10
6860.5333996829231182
 20
182.7732743830356981
 30
0.0
 11
6860.49209778093973
 21
182.7941350450198001
 31
0.0
  0
LINE
  5
3263E
  8
0
 10
6860.49209778093973
 20
182.7941350450198001
 30
0.0
 11
6859.5869494887610927
 21
183.6652804993763084
 31
0.0
  0
LINE
  5
3263F
  8
0
 10
6859.7819129462850469
 20
183.3214833709874938
 30
0.0
 11
6859.717683212639713
 21
183.3983209292711933
 31
0.0
  0
LINE
  5
32640
  8
0
 10
6859.717683212639713
 20
183.3983209292711933
 30
0.0
 11
6860.3999851263879464
 21
182.8236796587262063
 31
0.0
  0
LINE
  5
32641
  8
0
 10
6860.3999851263879464
 20
182.8236796587262063
 30
0.0
 11
6860.3275237465477403
 21
182.8653369765571028
 31
0.0
  0
LINE
  5
32642
  8
0
 10
6860.3275237465477403
 20
182.8653369765571028
 30
0.0
 11
6859.7819129462850469
 21
183.3214833709874938
 31
0.0
  0
ARC
  5
32643
  8
0
 10
6861.0365096019722841
 20
184.0646717910454981
 30
0.0
 40
1.737703178465037
 50
90.5380608923704671
 51
102.3234817754660071
  0
LINE
  5
32644
  8
0
 10
6860.6656302308419981
 20
185.7623351347382936
 30
0.0
 11
6860.6463444844503101
 21
185.7563417495777003
 31
0.0
  0
LINE
  5
32645
  8
0
 10
6860.43178452637585
 20
185.6880338243661868
 30
0.0
 11
6860.4134626605164158
 21
185.6780459690612872
 31
0.0
  0
LINE
  5
32646
  8
0
 10
6860.2117423895160755
 20
185.5773199989677948
 30
0.0
 11
6860.1948890141629818
 21
185.563351106599697
 31
0.0
  0
LINE
  5
32647
  8
0
 10
6860.0108505439757209
 20
185.432259282368392
 30
0.0
 11
6859.9959995565732243
 21
185.4143142886080113
 31
0.0
  0
LINE
  5
32648
  8
0
 10
6860.8808615098732844
 20
182.7054427419946876
 30
0.0
 11
6860.8930478737438534
 21
182.7023150305890056
 31
0.0
  0
LINE
  5
32649
  8
0
 10
6860.9128745152602278
 20
182.7026465414755023
 30
0.0
 11
6860.9242384249237148
 21
182.7003019505349926
 31
0.0
  0
LINE
  5
3264A
  8
0
 10
6860.9432238822200816
 20
182.70060517165129
 30
0.0
 11
6860.9540116188763932
 21
182.6989737755957037
 31
0.0
  0
LINE
  5
3264B
  8
0
 10
6860.9724410444259775
 20
182.6991994546307012
 30
0.0
 11
6860.9828607558820295
 21
182.6982372198148994
 31
0.0
  0
LINE
  5
3264C
  8
0
 10
6861.0009720872858452
 20
182.6983567430511073
 30
0.0
 11
6861.0112126204458036
 21
182.6980388225570096
 31
0.0
  0
ARC
  5
3264D
  8
0
 10
6861.1086007123931267
 20
183.9332348314592878
 30
0.0
 40
1.8807976114302321
 50
104.2277388453436942
 51
111.091348863417295
  0
ARC
  5
3264E
  8
0
 10
6861.1488643064458302
 20
183.952931646098591
 30
0.0
 40
1.875322641074648
 50
113.0881414721704061
 51
119.980972215441497
  0
ARC
  5
3264F
  8
0
 10
6861.181684225315621
 20
183.9832686361052936
 30
0.0
 40
1.8629077814859589
 50
121.9856571974641071
 51
128.9393891517636916
  0
ARC
  5
32650
  8
0
 10
6861.206238689383099
 20
184.0196293765310998
 30
0.0
 40
1.8465710824550869
 50
130.9498410047739014
 51
137.9883825198097895
  0
ARC
  5
32651
  8
0
 10
6861.219895416394138
 20
184.0608031815029051
 30
0.0
 40
1.824728516727617
 50
140.0057456269748002
 51
147.1642924509878014
  0
ARC
  5
32652
  8
0
 10
6861.2244222269928287
 20
184.1021358370809935
 30
0.0
 40
1.8007577246520969
 50
149.1971453170307882
 51
156.5063558595442998
  0
ARC
  5
32653
  8
0
 10
6861.2226140555130769
 20
184.1409049227000878
 30
0.0
 40
1.7773855121379609
 50
158.5827470198244953
 51
166.0755672597115051
  0
ARC
  5
32654
  8
0
 10
6861.1208016181881248
 20
184.189797487112088
 30
0.0
 40
1.6593898911689
 50
168.0212812403599116
 51
176.1994443431894126
  0
ARC
  5
32655
  8
0
 10
6861.1733919566286204
 20
184.2083321916788918
 30
0.0
 40
1.7025263070069101
 50
178.2425575118153063
 51
186.4689664522043131
  0
ARC
  5
32656
  8
0
 10
6861.1249759768606964
 20
184.2258259540629126
 30
0.0
 40
1.647491634792255
 50
188.8855265277119884
 51
197.9091418582021902
  0
ARC
  5
32657
  8
0
 10
6861.0632566780150228
 20
184.222757337778404
 30
0.0
 40
1.578056824832033
 50
200.6873259515153052
 51
211.495911395134101
  0
ARC
  5
32658
  8
0
 10
6860.916594883068683
 20
184.1243273368448001
 30
0.0
 40
1.3899861622263201
 50
215.2813078315174096
 51
244.9254965650773102
  0
ARC
  5
32659
  8
0
 10
6860.8204171566503646
 20
183.9761163783684026
 30
0.0
 40
1.2267328498295691
 50
249.9570162645289031
 51
254.4762837812606051
  0
LINE
  5
3265A
  8
0
 10
6860.5333996829231182
 20
182.7732743830356981
 30
0.0
 11
6860.5900678115422124
 21
182.761812923499491
 31
0.0
  0
LINE
  5
3265B
  8
0
 10
6860.6199391380323505
 20
182.7478807352474917
 30
0.0
 11
6860.661712006183734
 21
182.7425989722916881
 31
0.0
  0
LINE
  5
3265C
  8
0
 10
6860.6853668983058014
 20
182.732283702557595
 30
0.0
 11
6860.7189488297108255
 21
182.7298069711621906
 31
0.0
  0
LINE
  5
3265D
  8
0
 10
6860.7385908259066127
 20
182.7218111916594978
 30
0.0
 11
6860.767073846473977
 21
182.7207626347293115
 31
0.0
  0
LINE
  5
3265E
  8
0
 10
6860.7839191966122598
 20
182.7144266021616943
 30
0.0
 11
6860.8089988637157148
 21
182.7141342837402931
 31
0.0
  0
LINE
  5
3265F
  8
0
 10
6860.8238125591678909
 20
182.7090777022652048
 30
0.0
 11
6860.8465248965012506
 21
182.7091774125586028
 31
0.0
  0
LINE
  5
32660
  8
0
 10
6860.8598321310410029
 20
182.7051625986015893
 30
0.0
 11
6860.8808615098732844
 21
182.7054427419946876
 31
0.0
  0
LINE
  5
32661
  8
0
 10
6860.8930478737438534
 20
182.7023150305890056
 30
0.0
 11
6860.9128745152602278
 21
182.7026465414755023
 31
0.0
  0
LINE
  5
32662
  8
0
 10
6860.9242384249237148
 20
182.7003019505349926
 30
0.0
 11
6860.9432238822200816
 21
182.70060517165129
 31
0.0
  0
LINE
  5
32663
  8
0
 10
6860.9540116188763932
 20
182.6989737755957037
 30
0.0
 11
6860.9724410444259775
 21
182.6991994546307012
 31
0.0
  0
LINE
  5
32664
  8
0
 10
6860.9828607558820295
 20
182.6982372198148994
 30
0.0
 11
6861.0009720872858452
 21
182.6983567430511073
 31
0.0
  0
ARC
  5
32665
  8
0
 10
6860.9769518989205608
 20
185.8046686789076034
 30
0.0
 40
0.0695313104676336
 50
165.151844299083308
 51
185.8346210405941861
  0
ARC
  5
32666
  8
0
 10
6860.8245127363015854
 20
185.7934551174537035
 30
0.0
 40
0.0635442716748397
 50
2.3112638950777682
 51
25.0750983731977293
  0
ARC
  5
32667
  8
0
 10
6860.730265328468704
 20
185.7786561532325038
 30
0.0
 40
0.066663869448514
 50
174.1271532617215883
 51
194.1715245061936059
  0
ARC
  5
32668
  8
0
 10
6860.5822874822297308
 20
185.742958914175091
 30
0.0
 40
0.0654400475010203
 50
11.8005402975759601
 51
33.2891501810543886
  0
ARC
  5
32669
  8
0
 10
6860.5083035776706311
 20
185.7187687614434992
 30
0.0
 40
0.082460909334667
 50
185.9641355153555082
 51
201.8835449210168917
  0
ARC
  5
3266A
  8
0
 10
6860.3363127545380848
 20
185.6466352514422908
 30
0.0
 40
0.0832991066810324
 50
22.1531437282737009
 51
39.3277608425409397
  0
ARC
  5
3266B
  8
0
 10
6860.2717338835527698
 20
185.6143212031070959
 30
0.0
 40
0.0704845264198959
 50
193.5085661848542884
 51
211.6652135169769053
  0
ARC
  5
3266C
  8
0
 10
6860.129300073856939
 20
185.5249390650236023
 30
0.0
 40
0.0760091706870414
 50
30.3552940055254297
 51
49.5299069232310103
  0
ARC
  5
3266D
  8
0
 10
6860.0617406136270802
 20
185.4764819494332926
 30
0.0
 40
0.0674199041191831
 50
202.3783800414965128
 51
220.9901256134743903
  0
ARC
  5
3266E
  8
0
 10
6859.9367962592450567
 20
185.3662742071664979
 30
0.0
 40
0.076242244453832
 50
39.057349002784747
 51
58.424365312407069
  0
ARC
  5
3266F
  8
0
 10
6859.8799973075947491
 20
185.3097771500428053
 30
0.0
 40
0.0710006501469229
 50
212.2852578404418011
 51
229.8529268571749071
  0
ARC
  5
32670
  8
0
 10
6859.7629710605888249
 20
185.1655834531910898
 30
0.0
 40
0.0900113100089407
 50
49.0582801755941915
 51
65.8611038213823861
  0
ARC
  5
32671
  8
0
 10
6859.7260053864547444
 20
185.1153782327455986
 30
0.0
 40
0.0760843871418313
 50
223.034641170108614
 51
238.9005512614097881
  0
ARC
  5
32672
  8
0
 10
6859.6205807470469153
 20
184.9296310555160971
 30
0.0
 40
0.1105416777836743
 50
58.8937697375268101
 51
72.5472794636267224
  0
ARC
  5
32673
  8
0
 10
6859.6049275550649327
 20
184.8992553149244031
 30
0.0
 40
0.0854642822917353
 50
234.1433351261528912
 51
248.0198819283320972
  0
ARC
  5
32674
  8
0
 10
6859.5259275553162297
 20
184.6850944985770013
 30
0.0
 40
0.1129493326336812
 50
68.1502780939296571
 51
81.73587495229323
  0
ARC
  5
32675
  8
0
 10
6859.5185976116381426
 20
184.6631875628949047
 30
0.0
 40
0.0969028397107387
 50
245.2519533324210954
 51
257.3999796791417793
  0
ARC
  5
32676
  8
0
 10
6859.4723595624382142
 20
184.4172775279174061
 30
0.0
 40
0.1196054187757822
 50
77.8440124149402237
 51
90.8490568076316833
  0
ARC
  5
32677
  8
0
 10
6859.4687220789710409
 20
184.3950728871172089
 30
0.0
 40
0.0953554093321297
 50
255.6289162781696973
 51
267.7996519628475198
  0
ARC
  5
32678
  8
0
 10
6859.4671875792873834
 20
184.1247245989675889
 30
0.0
 40
0.1358950918648223
 50
88.1112691789867171
 51
99.7696408954352165
  0
ARC
  5
32679
  8
0
 10
6859.4648458075689632
 20
184.1359191925502898
 30
0.0
 40
0.1205866374192139
 50
268.8944383290240125
 51
278.037123819369981
  0
ARC
  5
3267A
  8
0
 10
6859.5240187693389089
 20
183.8048664825925869
 30
0.0
 40
0.1686239118342843
 50
99.1321793902123147
 51
108.3283249006992008
  0
ARC
  5
3267B
  8
0
 10
6859.4706596065107078
 20
183.9933338695605016
 30
0.0
 40
0.2874953905644245
 50
283.5748583203259159
 51
287.5421807326638941
  0
ARC
  5
3267C
  8
0
 10
6859.6681112812839274
 20
183.456329237785809
 30
0.0
 40
0.224160358417229
 50
111.2273904831340019
 51
118.4151719394555045
  0
ARC
  5
3267D
  8
0
 10
6859.5539161337446785
 20
183.6603717912589957
 30
0.0
 40
0.3090150650011751
 50
298.4937038710854722
 51
302.0030703648956205
  0
ARC
  5
3267E
  8
0
 10
6860.0254344655922978
 20
182.9906410732565973
 30
0.0
 40
0.4108033061382057
 50
126.3554932562180966
 51
130.2185159465863933
  0
ARC
  5
3267F
  8
0
 10
6859.8900292775188063
 20
183.0804849518077049
 30
0.0
 40
0.4875346774183587
 50
330.596263540993391
 51
333.813285461925318
  0
ARC
  5
32680
  8
0
 10
6860.681864201672397
 20
182.7023191599915037
 30
0.0
 40
0.3068944178981087
 50
156.7061403364654097
 51
160.4960011883256925
  0
ARC
  5
32681
  8
0
 10
6860.3127127290526914
 20
182.851244698990314
 30
0.0
 40
0.1882564990037781
 50
334.1339597067970999
 51
342.3404233639747076
  0
ARC
  5
32682
  8
0
 10
6860.7176096430757752
 20
182.7125541796995947
 30
0.0
 40
0.1939594094468227
 50
161.7564894441024137
 51
167.8898253396793052
  0
ARC
  5
32683
  8
0
 10
6860.3713426102040103
 20
182.8220342940244905
 30
0.0
 40
0.2268641160867276
 50
337.8995139764945748
 51
344.6062302167503049
  0
ARC
  5
32684
  8
0
 10
6860.7965607286596423
 20
182.7012174164717067
 30
0.0
 40
0.1826818315955645
 50
165.2006423610050092
 51
171.8267754284966884
  0
ARC
  5
32685
  8
0
 10
6860.4719384747304503
 20
182.7848939162819022
 30
0.0
 40
0.1944295644397732
 50
339.7098898802861981
 51
347.4357951360544803
  0
ARC
  5
32686
  8
0
 10
6860.8385160354346226
 20
182.6983519093091957
 30
0.0
 40
0.1568630765852984
 50
167.5073292495260944
 51
175.342026444995696
  0
ARC
  5
32687
  8
0
 10
6860.5462468662481115
 20
182.761400530019813
 30
0.0
 40
0.1755679957885654
 50
341.1799290345924192
 51
349.633120020918625
  0
ARC
  5
32688
  8
0
 10
6860.8920462578407751
 20
182.6935803662939861
 30
0.0
 40
0.1560306030576699
 50
169.5759878541292096
 51
177.5573676380437007
  0
ARC
  5
32689
  8
0
 10
6860.5972384396009147
 20
182.7467664616306138
 30
0.0
 40
0.1718146223155092
 50
342.7546035751495879
 51
351.2949375333918169
  0
ARC
  5
3268A
  8
0
 10
6860.9252852894951502
 20
182.6924478070691862
 30
0.0
 40
0.1430644597754254
 50
171.1627308039257116
 51
179.9819696652390064
  0
ARC
  5
3268B
  8
0
 10
6860.6464017679827521
 20
182.7344366269632872
 30
0.0
 40
0.1638596981618301
 50
344.0205189586375241
 51
352.882718766512312
  0
ARC
  5
3268C
  8
0
 10
6860.903217474916346
 20
182.694828903188295
 30
0.0
 40
0.0806732230664252
 50
169.8268416601833906
 51
185.7078087763821941
  0
ARC
  5
3268D
  8
0
 10
6860.6827258281091417
 20
182.7259602821320925
 30
0.0
 40
0.1646566109138837
 50
345.4172643250449255
 51
354.1498831295687069
  0
ARC
  5
3268E
  8
0
 10
6861.0107651259741033
 20
182.6894408530754106
 30
0.0
 40
0.1517496037611669
 50
174.0533027248455085
 51
182.5663546127302084
  0
ARC
  5
3268F
  8
0
 10
6860.7296807740076474
 20
182.7173199872507041
 30
0.0
 40
0.1516465754678169
 50
346.1104433624647072
 51
355.5078860097158895
  0
ARC
  5
32690
  8
0
 10
6861.0306933089968879
 20
182.6903605063183988
 30
0.0
 40
0.1381635860001757
 50
175.0363092436946033
 51
184.4983658659064076
  0
ARC
  5
32691
  8
0
 10
6860.7695211540176388
 20
182.7108964134262123
 30
0.0
 40
0.1435905518024281
 50
346.8689300860169737
 51
356.7063063825655149
  0
ARC
  5
32692
  8
0
 10
6861.0557058192507611
 20
182.6912325472673047
 30
0.0
 40
0.1317798537213728
 50
176.0536485272347136
 51
186.0828576810226025
  0
ARC
  5
32693
  8
0
 10
6860.8040187836850237
 20
182.7058854702760016
 30
0.0
 40
0.1393052081304341
 50
347.7819170448842101
 51
357.8277099447831233
  0
ARC
  5
32694
  8
0
 10
6861.0833940304837597
 20
182.6923120238780882
 30
0.0
 40
0.1295538010622977
 50
177.0525090044912133
 51
187.3551175368691872
  0
ARC
  5
32695
  8
0
 10
6860.8322181387520686
 20
182.7021226737529105
 30
0.0
 40
0.1402533724570292
 50
348.9261521063713758
 51
358.805731056244781
  0
ARC
  5
32696
  8
0
 10
6861.11144723014786
 20
182.6938320945162104
 30
0.0
 40
0.1286619076988394
 50
178.0379241248830908
 51
188.4649793475716137
  0
ARC
  5
32697
  8
0
 10
6860.854468603625719
 20
182.6993710126980943
 30
0.0
 40
0.1465069946009055
 50
350.3093352542787215
 51
359.603337475835076
  0
ARC
  5
32698
  8
0
 10
6861.1666271666708781
 20
182.696938832172691
 30
0.0
 40
0.1554184389229702
 50
179.5944796952381921
 51
188.293733220978595
  0
ARC
  5
32699
  8
0
 10
6861.0123666678664449
 20
184.149676933656707
 30
0.0
 40
1.679582308988145
 50
81.3906963427069883
 51
89.7330803805492252
  0
ARC
  5
3269A
  8
0
 10
6861.0201911857084269
 20
184.2504889238041983
 30
0.0
 40
1.5787520930561469
 50
278.1506503034568141
 51
81.1237588095445403
  0
ARC
  5
3269B
  8
0
 10
6861.0124454658698596
 20
184.3588431867684108
 30
0.0
 40
1.6871275452011421
 50
270.263049830721684
 51
277.8893366774386209
  0
ARC
  5
3269C
  8
0
 10
6861.0037458029883055
 20
183.6004679788487124
 30
0.0
 40
2.225639037056975
 50
86.3763836068600455
 51
89.5766341346976134
  0
ARC
  5
3269D
  8
0
 10
6860.9902596599386015
 20
184.0599012231870972
 30
0.0
 40
1.7684873182183529
 50
78.0387820771149734
 51
84.9994504119755447
  0
ARC
  5
3269E
  8
0
 10
6860.9920798979228493
 20
184.1571429524460086
 30
0.0
 40
1.6730805279073779
 50
68.4970055349944431
 51
77.4095876575123754
  0
ARC
  5
3269F
  8
0
 10
6860.9853071784473286
 20
184.1838979721553926
 30
0.0
 40
1.650748835816944
 50
57.2700664692126793
 51
67.9378916426313282
  0
ARC
  5
326A0
  8
0
 10
6860.9806696842852034
 20
184.2000340371207017
 30
0.0
 40
1.6397307274269779
 50
47.6293199002790715
 51
56.828894704146613
  0
ARC
  5
326A1
  8
0
 10
6860.8985379506957543
 20
184.1314279923849995
 30
0.0
 40
1.745827223282312
 50
40.3641959132542709
 51
47.1552923026500395
  0
ARC
  5
326A2
  8
0
 10
6861.0083468518141672
 20
184.2449035052019894
 30
0.0
 40
1.588741464303137
 50
25.6132155862206012
 51
39.8107971592821173
  0
ARC
  5
326A3
  8
0
 10
6861.0212054879611969
 20
184.2492872028988984
 30
0.0
 40
1.5752521831564781
 50
12.1362133906874998
 51
25.6716218879956593
  0
ARC
  5
326A4
  8
0
 10
6860.946338809372719
 20
184.2413326000371967
 30
0.0
 40
1.650137193894293
 50
2.585569703697784
 51
11.8597262837751298
  0
ARC
  5
326A5
  8
0
 10
6861.1386438019326306
 20
184.250016586131693
 30
0.0
 40
1.457636228238903
 50
355.2135555508164089
 51
2.585569703697784
  0
ARC
  5
326A6
  8
0
 10
6860.9169665807194178
 20
184.268578527328998
 30
0.0
 40
1.6800892256711959
 50
344.6726688485771888
 51
355.2135555508164089
  0
ARC
  5
326A7
  8
0
 10
6861.1170422609093293
 20
184.2137414190239895
 30
0.0
 40
1.472634685468283
 50
334.338517822022709
 51
344.6726688485771888
  0
ARC
  5
326A8
  8
0
 10
6860.9488613203229761
 20
184.2945422357356904
 30
0.0
 40
1.659218716825986
 50
321.6381896548990085
 51
334.338517822022709
  0
ARC
  5
326A9
  8
0
 10
6861.0176749501561062
 20
184.2533260595170077
 30
0.0
 40
1.579715812065827
 50
296.6359811270115756
 51
321.2613318428496996
  0
ARC
  5
326AA
  8
0
 10
6861.0194527085650407
 20
184.25176634040929
 30
0.0
 40
1.577524866859723
 50
289.8408591245740809
 51
296.6036622410035193
  0
ARC
  5
326AB
  8
0
 10
6861.021296873229403
 20
184.2466554147682984
 30
0.0
 40
1.5720914053284989
 50
281.3897412962896283
 51
289.8408591245740809
  0
ARC
  5
326AC
  8
0
 10
6861.0182194483268177
 20
184.2619318577463048
 30
0.0
 40
1.587674737901601
 50
275.0214508345305262
 51
281.3897412962896283
  0
ARC
  5
326AD
  8
0
 10
6861.0219091108174325
 20
184.2199398988385894
 30
0.0
 40
1.5455209928461351
 50
271.5376169189344182
 51
275.0214508345305262
  0
ARC
  5
326AE
  8
0
 10
6861.2024200008054322
 20
170.3242965627950127
 30
0.0
 40
12.3514614531004305
 50
90.6449881619842301
 51
90.8453510433977129
  0
LINE
  5
326AF
  8
0
 10
6861.0291697509737787
 20
182.6980388225570096
 30
0.0
 11
6861.1326015734939574
 21
185.7976003041283946
 31
0.0
  0
LINE
  5
326B0
  8
0
 10
6861.1523770575831804
 20
185.7960177451670063
 30
0.0
 11
6861.0394102841319182
 21
182.6983567430511073
 31
0.0
  0
LINE
  5
326B1
  8
0
 10
6861.0575216155348244
 20
182.6982372198148994
 30
0.0
 11
6861.3747521405757652
 21
185.7623351347382936
 31
0.0
  0
LINE
  5
326B2
  8
0
 10
6861.3940378869674532
 20
185.7563417495777003
 30
0.0
 11
6861.0679413269917859
 21
182.6991994546307012
 31
0.0
  0
LINE
  5
326B3
  8
0
 10
6861.0863707525422797
 20
182.6989737755957037
 30
0.0
 11
6861.6085978450410039
 21
185.6880338243661868
 31
0.0
  0
LINE
  5
326B4
  8
0
 10
6861.6269197109022571
 20
185.6780459690612872
 30
0.0
 11
6861.0971584891967723
 21
182.70060517165129
 31
0.0
  0
LINE
  5
326B5
  8
0
 10
6861.1161439464931391
 20
182.7003019505349926
 30
0.0
 11
6861.8286399819007784
 21
185.5773199989677948
 31
0.0
  0
LINE
  5
326B6
  8
0
 10
6861.8454933572547816
 20
185.563351106599697
 30
0.0
 11
6861.1275078561566261
 21
182.7026465414755023
 31
0.0
  0
LINE
  5
326B7
  8
0
 10
6861.1473344976730004
 20
182.7023150305890056
 30
0.0
 11
6862.0295318274420424
 21
185.432259282368392
 31
0.0
  0
LINE
  5
326B8
  8
0
 10
6862.0443828148454486
 20
185.4143142886080113
 30
0.0
 11
6861.1595208615453885
 21
182.7054427419946876
 31
0.0
  0
LINE
  5
326B9
  8
0
 10
6861.1938574749156032
 20
182.7091774125586028
 30
0.0
 11
6861.180550240375851
 21
182.7051625986015893
 31
0.0
  0
LINE
  5
326BA
  8
0
 10
6861.180550240375851
 20
182.7051625986015893
 30
0.0
 11
6862.2061628648853002
 21
185.2555048251319931
 31
0.0
  0
LINE
  5
326BB
  8
0
 10
6862.2061628648853002
 20
185.2555048251319931
 30
0.0
 11
6862.2184277082651533
 21
185.2335758833442867
 31
0.0
  0
LINE
  5
326BC
  8
0
 10
6862.2184277082651533
 20
185.2335758833442867
 30
0.0
 11
6861.1938574749156032
 21
182.7091774125586028
 31
0.0
  0
LINE
  5
326BD
  8
0
 10
6861.2313835077020485
 20
182.7141342837402931
 30
0.0
 11
6861.216569812248963
 21
182.7090777022652048
 31
0.0
  0
LINE
  5
326BE
  8
0
 10
6861.216569812248963
 20
182.7090777022652048
 30
0.0
 11
6862.3536764799100638
 21
185.0502292982677943
 31
0.0
  0
LINE
  5
326BF
  8
0
 10
6862.3536764799100638
 20
185.0502292982677943
 30
0.0
 11
6862.362692871449326
 21
185.0242780463127872
 31
0.0
  0
LINE
  5
326C0
  8
0
 10
6862.362692871449326
 20
185.0242780463127872
 30
0.0
 11
6861.2313835077020485
 21
182.7141342837402931
 31
0.0
  0
LINE
  5
326C1
  8
0
 10
6862.4674428010066549
 20
184.8200031074759124
 30
0.0
 11
6861.2564631748073225
 21
182.7144266021616943
 31
0.0
  0
LINE
  5
326C2
  8
0
 10
6861.2564631748073225
 20
182.7144266021616943
 30
0.0
 11
6861.2733085249428768
 21
182.7207626347293115
 31
0.0
  0
LINE
  5
326C3
  8
0
 10
6861.2733085249428768
 20
182.7207626347293115
 30
0.0
 11
6862.4724180737748611
 21
184.7899299126169979
 31
0.0
  0
LINE
  5
326C4
  8
0
 10
6862.4724180737748611
 20
184.7899299126169979
 30
0.0
 11
6862.4674428010066549
 21
184.8200031074759124
 31
0.0
  0
LINE
  5
326C5
  8
0
 10
6862.5428370269901279
 20
184.5342011465158123
 30
0.0
 11
6862.5429234928760707
 21
184.5686184648388917
 31
0.0
  0
LINE
  5
326C6
  8
0
 10
6862.5429234928760707
 20
184.5686184648388917
 30
0.0
 11
6861.3017915455111506
 21
182.7218111916594978
 31
0.0
  0
LINE
  5
326C7
  8
0
 10
6861.3017915455111506
 20
182.7218111916594978
 30
0.0
 11
6861.3214335417069378
 21
182.7298069711621906
 31
0.0
  0
LINE
  5
326C8
  8
0
 10
6861.3214335417069378
 20
182.7298069711621906
 30
0.0
 11
6862.5428370269901279
 21
184.5342011465158123
 31
0.0
  0
LINE
  5
326C9
  8
0
 10
6862.5687158799373719
 20
184.2605458614359861
 30
0.0
 11
6862.575321356493987
 21
184.2997877849294071
 31
0.0
  0
LINE
  5
326CA
  8
0
 10
6862.575321356493987
 20
184.2997877849294071
 30
0.0
 11
6861.3550154731119619
 21
182.732283702557595
 31
0.0
  0
LINE
  5
326CB
  8
0
 10
6861.3550154731119619
 20
182.732283702557595
 30
0.0
 11
6861.3786703652331198
 21
182.7425989722916881
 31
0.0
  0
LINE
  5
326CC
  8
0
 10
6861.3786703652331198
 20
182.7425989722916881
 30
0.0
 11
6862.5687158799373719
 21
184.2605458614359861
 31
0.0
  0
LINE
  5
326CD
  8
0
 10
6862.5431263431873958
 20
183.9713530566176019
 30
0.0
 11
6862.5586767794402476
 21
184.0165169949414974
 31
0.0
  0
LINE
  5
326CE
  8
0
 10
6862.5586767794402476
 20
184.0165169949414974
 30
0.0
 11
6861.4204432333835939
 21
182.7478807352474917
 31
0.0
  0
LINE
  5
326CF
  8
0
 10
6861.4204432333835939
 20
182.7478807352474917
 30
0.0
 11
6861.4503145598755509
 21
182.761812923499491
 31
0.0
  0
LINE
  5
326D0
  8
0
 10
6861.4503145598755509
 20
182.761812923499491
 30
0.0
 11
6862.5431263431873958
 21
183.9713530566176019
 31
0.0
  0
LINE
  5
326D1
  8
0
 10
6862.4534328826557612
 20
183.6652804993763084
 30
0.0
 11
6862.4830694009806393
 21
183.7192083615971967
 31
0.0
  0
LINE
  5
326D2
  8
0
 10
6862.4830694009806393
 20
183.7192083615971967
 30
0.0
 11
6861.5069826884946451
 21
182.7732743830356981
 31
0.0
  0
LINE
  5
326D3
  8
0
 10
6861.5069826884946451
 20
182.7732743830356981
 30
0.0
 11
6861.5482845904780334
 21
182.7941350450198001
 31
0.0
  0
LINE
  5
326D4
  8
0
 10
6861.5482845904780334
 20
182.7941350450198001
 30
0.0
 11
6862.4534328826557612
 21
183.6652804993763084
 31
0.0
  0
LINE
  5
326D5
  8
0
 10
6862.2584694251336259
 20
183.3214833709874938
 30
0.0
 11
6862.3226991587780503
 21
183.3983209292711933
 31
0.0
  0
LINE
  5
326D6
  8
0
 10
6862.3226991587780503
 20
183.3983209292711933
 30
0.0
 11
6861.6403972450307265
 21
182.8236796587262063
 31
0.0
  0
LINE
  5
326D7
  8
0
 10
6861.6403972450307265
 20
182.8236796587262063
 30
0.0
 11
6861.7128586248691136
 21
182.8653369765571028
 31
0.0
  0
LINE
  5
326D8
  8
0
 10
6861.7128586248691136
 20
182.8653369765571028
 30
0.0
 11
6862.2584694251336259
 21
183.3214833709874938
 31
0.0
  0
ARC
  5
326D9
  8
0
 10
6861.0038727694463887
 20
184.0646717910454981
 30
0.0
 40
1.737703178465037
 50
77.6765182245339361
 51
89.4619391076295472
  0
LINE
  5
326DA
  8
0
 10
6861.3747521405757652
 20
185.7623351347382936
 30
0.0
 11
6861.3940378869674532
 21
185.7563417495777003
 31
0.0
  0
LINE
  5
326DB
  8
0
 10
6861.6085978450410039
 20
185.6880338243661868
 30
0.0
 11
6861.6269197109022571
 21
185.6780459690612872
 31
0.0
  0
LINE
  5
326DC
  8
0
 10
6861.8286399819007784
 20
185.5773199989677948
 30
0.0
 11
6861.8454933572547816
 21
185.563351106599697
 31
0.0
  0
LINE
  5
326DD
  8
0
 10
6862.0295318274420424
 20
185.432259282368392
 30
0.0
 11
6862.0443828148454486
 21
185.4143142886080113
 31
0.0
  0
LINE
  5
326DE
  8
0
 10
6861.1595208615453885
 20
182.7054427419946876
 30
0.0
 11
6861.1473344976730004
 21
182.7023150305890056
 31
0.0
  0
LINE
  5
326DF
  8
0
 10
6861.1275078561566261
 20
182.7026465414755023
 30
0.0
 11
6861.1161439464931391
 21
182.7003019505349926
 31
0.0
  0
LINE
  5
326E0
  8
0
 10
6861.0971584891967723
 20
182.70060517165129
 30
0.0
 11
6861.0863707525422797
 21
182.6989737755957037
 31
0.0
  0
LINE
  5
326E1
  8
0
 10
6861.0679413269917859
 20
182.6991994546307012
 30
0.0
 11
6861.0575216155348244
 21
182.6982372198148994
 31
0.0
  0
LINE
  5
326E2
  8
0
 10
6861.0394102841319182
 20
182.6983567430511073
 30
0.0
 11
6861.0291697509737787
 21
182.6980388225570096
 31
0.0
  0
ARC
  5
326E3
  8
0
 10
6860.9317816590246366
 20
183.9332348314592878
 30
0.0
 40
1.8807976114302321
 50
68.908651136582634
 51
75.7722611546563201
  0
ARC
  5
326E4
  8
0
 10
6860.8915180649710237
 20
183.952931646098591
 30
0.0
 40
1.875322641074648
 50
60.0190277845584532
 51
66.9118585278296081
  0
ARC
  5
326E5
  8
0
 10
6860.8586981461003234
 20
183.9832686361052936
 30
0.0
 40
1.8629077814859589
 50
51.0606108482362586
 51
58.0143428025367811
  0
ARC
  5
326E6
  8
0
 10
6860.8341436820346644
 20
184.0196293765310998
 30
0.0
 40
1.8465710824550869
 50
42.0116174801901892
 51
49.0501589952260417
  0
ARC
  5
326E7
  8
0
 10
6860.8204869550236253
 20
184.0608031815029051
 30
0.0
 40
1.824728516727617
 50
32.8357075490122128
 51
39.9942543730264219
  0
ARC
  5
326E8
  8
0
 10
6860.8159601444249347
 20
184.1021358370809935
 30
0.0
 40
1.8007577246520969
 50
23.4936441404557215
 51
30.8028546829692296
  0
ARC
  5
326E9
  8
0
 10
6860.817768315903777
 20
184.1409049227000878
 30
0.0
 40
1.7773855121379609
 50
13.92443274028847
 51
21.4172529801755012
  0
ARC
  5
326EA
  8
0
 10
6860.9195807532296385
 20
184.189797487112088
 30
0.0
 40
1.6593898911689
 50
3.8005556568106171
 51
11.9787187596400493
  0
ARC
  5
326EB
  8
0
 10
6860.8669904147882335
 20
184.2083321916788918
 30
0.0
 40
1.7025263070069101
 50
353.5310335477955732
 51
1.7574424881847019
  0
ARC
  5
326EC
  8
0
 10
6860.915406394557067
 20
184.2258259540629126
 30
0.0
 40
1.647491634792255
 50
342.0908581417962182
 51
351.11447347228642
  0
ARC
  5
326ED
  8
0
 10
6860.9771256934018311
 20
184.222757337778404
 30
0.0
 40
1.578056824832033
 50
328.5040886048644779
 51
339.3126740484831885
  0
ARC
  5
326EE
  8
0
 10
6861.1237874883490804
 20
184.1243273368448001
 30
0.0
 40
1.3899861622263201
 50
295.0745034349226898
 51
324.7186921684825052
  0
ARC
  5
326EF
  8
0
 10
6861.2199652147683082
 20
183.9761163783684026
 30
0.0
 40
1.2267328498295691
 50
285.5237162187394233
 51
290.0429837354711253
  0
LINE
  5
326F0
  8
0
 10
6861.5069826884946451
 20
182.7732743830356981
 30
0.0
 11
6861.4503145598755509
 21
182.761812923499491
 31
0.0
  0
LINE
  5
326F1
  8
0
 10
6861.4204432333835939
 20
182.7478807352474917
 30
0.0
 11
6861.3786703652331198
 21
182.7425989722916881
 31
0.0
  0
LINE
  5
326F2
  8
0
 10
6861.3550154731119619
 20
182.732283702557595
 30
0.0
 11
6861.3214335417069378
 21
182.7298069711621906
 31
0.0
  0
LINE
  5
326F3
  8
0
 10
6861.3017915455111506
 20
182.7218111916594978
 30
0.0
 11
6861.2733085249428768
 21
182.7207626347293115
 31
0.0
  0
LINE
  5
326F4
  8
0
 10
6861.2564631748073225
 20
182.7144266021616943
 30
0.0
 11
6861.2313835077020485
 21
182.7141342837402931
 31
0.0
  0
LINE
  5
326F5
  8
0
 10
6861.216569812248963
 20
182.7090777022652048
 30
0.0
 11
6861.1938574749156032
 21
182.7091774125586028
 31
0.0
  0
LINE
  5
326F6
  8
0
 10
6861.180550240375851
 20
182.7051625986015893
 30
0.0
 11
6861.1595208615453885
 21
182.7054427419946876
 31
0.0
  0
LINE
  5
326F7
  8
0
 10
6861.1473344976730004
 20
182.7023150305890056
 30
0.0
 11
6861.1275078561566261
 21
182.7026465414755023
 31
0.0
  0
LINE
  5
326F8
  8
0
 10
6861.1161439464931391
 20
182.7003019505349926
 30
0.0
 11
6861.0971584891967723
 21
182.70060517165129
 31
0.0
  0
LINE
  5
326F9
  8
0
 10
6861.0863707525422797
 20
182.6989737755957037
 30
0.0
 11
6861.0679413269917859
 21
182.6991994546307012
 31
0.0
  0
LINE
  5
326FA
  8
0
 10
6861.0575216155348244
 20
182.6982372198148994
 30
0.0
 11
6861.0394102841319182
 21
182.6983567430511073
 31
0.0
  0
ARC
  5
326FB
  8
0
 10
6861.0634304724972026
 20
185.8046686789076034
 30
0.0
 40
0.0695313104676336
 50
354.1653789594058139
 51
14.84815570091666
  0
ARC
  5
326FC
  8
0
 10
6861.215869635116178
 20
185.7934551174537035
 30
0.0
 40
0.0635442716748397
 50
154.9249016268022956
 51
177.6887361049222136
  0
ARC
  5
326FD
  8
0
 10
6861.3101170429490594
 20
185.7786561532325038
 30
0.0
 40
0.066663869448514
 50
345.828475493804774
 51
5.8728467382800247
  0
ARC
  5
326FE
  8
0
 10
6861.458094889187123
 20
185.742958914175091
 30
0.0
 40
0.0654400475010203
 50
146.7108498189456043
 51
168.1994597024240079
  0
ARC
  5
326FF
  8
0
 10
6861.5320787937471323
 20
185.7187687614434992
 30
0.0
 40
0.082460909334667
 50
338.1164550789831083
 51
354.0358644846429002
  0
ARC
  5
32700
  8
0
 10
6861.7040696168796785
 20
185.6466352514422908
 30
0.0
 40
0.0832991066810324
 50
140.6722391574589892
 51
157.8468562717262955
  0
ARC
  5
32701
  8
0
 10
6861.768648487864084
 20
185.6143212031070959
 30
0.0
 40
0.0704845264198959
 50
328.3347864830230947
 51
346.4914338151440916
  0
ARC
  5
32702
  8
0
 10
6861.9110822975608244
 20
185.5249390650236023
 30
0.0
 40
0.0760091706870414
 50
130.4700930767689897
 51
149.6447059944746059
  0
ARC
  5
32703
  8
0
 10
6861.9786417577906832
 20
185.4764819494332926
 30
0.0
 40
0.0674199041191831
 50
319.009874386525496
 51
337.6216199585019808
  0
ARC
  5
32704
  8
0
 10
6862.1035861121727066
 20
185.3662742071664979
 30
0.0
 40
0.076242244453832
 50
121.5756346875928955
 51
140.9426509972151962
  0
ARC
  5
32705
  8
0
 10
6862.1603850638221047
 20
185.3097771500428053
 30
0.0
 40
0.0710006501469229
 50
310.1470731428252066
 51
327.7147421595582273
  0
ARC
  5
32706
  8
0
 10
6862.2774113108289384
 20
185.1655834531910898
 30
0.0
 40
0.0900113100089407
 50
114.1388961786175997
 51
130.941719824406789
  0
ARC
  5
32707
  8
0
 10
6862.3143769849611999
 20
185.1153782327455986
 30
0.0
 40
0.0760843871418313
 50
301.0994487385901266
 51
316.965358829891386
  0
ARC
  5
32708
  8
0
 10
6862.419801624370848
 20
184.9296310555160971
 30
0.0
 40
0.1105416777836743
 50
107.4527205363732065
 51
121.1062302624732041
  0
ARC
  5
32709
  8
0
 10
6862.4354548163528307
 20
184.8992553149244031
 30
0.0
 40
0.0854642822917353
 50
291.9801180716679028
 51
305.8566648738470803
  0
ARC
  5
3270A
  8
0
 10
6862.5144548161024431
 20
184.6850944985770013
 30
0.0
 40
0.1129493326336812
 50
98.2641250477067842
 51
111.8497219060703003
  0
ARC
  5
3270B
  8
0
 10
6862.5217847597787113
 20
184.6631875628949047
 30
0.0
 40
0.0969028397107387
 50
282.6000203208582207
 51
294.7480466675788762
  0
ARC
  5
3270C
  8
0
 10
6862.5680228089786397
 20
184.4172775279174061
 30
0.0
 40
0.1196054187757822
 50
89.1509431923683024
 51
102.1559875850597052
  0
ARC
  5
3270D
  8
0
 10
6862.5716602924467225
 20
184.3950728871172089
 30
0.0
 40
0.0953554093321297
 50
272.2003480371525939
 51
284.3710837218303027
  0
ARC
  5
3270E
  8
0
 10
6862.5731947921312894
 20
184.1247245989675889
 30
0.0
 40
0.1358950918648223
 50
80.2303591045647977
 51
91.8887308210132829
  0
ARC
  5
3270F
  8
0
 10
6862.5755365638478906
 20
184.1359191925502898
 30
0.0
 40
0.1205866374192139
 50
261.962876180630019
 51
271.1055616709761011
  0
ARC
  5
32710
  8
0
 10
6862.5163636020788545
 20
183.8048664825925869
 30
0.0
 40
0.1686239118342843
 50
71.6716750993007423
 51
80.8678206097876853
  0
ARC
  5
32711
  8
0
 10
6862.5697227649070555
 20
183.9933338695605016
 30
0.0
 40
0.2874953905644245
 50
252.4578192673361059
 51
256.4251416796740273
  0
ARC
  5
32712
  8
0
 10
6862.372271090133836
 20
183.456329237785809
 30
0.0
 40
0.224160358417229
 50
61.5848280605445026
 51
68.772609516865927
  0
ARC
  5
32713
  8
0
 10
6862.4864662376721753
 20
183.6603717912589957
 30
0.0
 40
0.3090150650011751
 50
237.9969296351044932
 51
241.5062961289144141
  0
ARC
  5
32714
  8
0
 10
6862.0149479058263751
 20
182.9906410732565973
 30
0.0
 40
0.4108033061382057
 50
49.7814840534135428
 51
53.6445067437828698
  0
ARC
  5
32715
  8
0
 10
6862.150353093898957
 20
183.0804849518077049
 30
0.0
 40
0.4875346774183587
 50
206.1867145380745967
 51
209.4037364590053016
  0
ARC
  5
32716
  8
0
 10
6861.3585181697462758
 20
182.7023191599915037
 30
0.0
 40
0.3068944178981087
 50
19.5039988116742897
 51
23.2938596635346009
  0
ARC
  5
32717
  8
0
 10
6861.7276696423641624
 20
182.851244698990314
 30
0.0
 40
0.1882564990037781
 50
197.6595766360252924
 51
205.8660402932013938
  0
ARC
  5
32718
  8
0
 10
6861.3227727283419881
 20
182.7125541796995947
 30
0.0
 40
0.1939594094468227
 50
12.1101746603206895
 51
18.2435105558976289
  0
ARC
  5
32719
  8
0
 10
6861.6690397612128436
 20
182.8220342940244905
 30
0.0
 40
0.2268641160867276
 50
195.3937697832496951
 51
202.1004860235038052
  0
ARC
  5
3271A
  8
0
 10
6861.243821642758121
 20
182.7012174164717067
 30
0.0
 40
0.1826818315955645
 50
8.1732245715048695
 51
14.7993576389950192
  0
ARC
  5
3271B
  8
0
 10
6861.5684438966882226
 20
182.7848939162819022
 30
0.0
 40
0.1944295644397732
 50
192.5642048639454913
 51
200.2901101197138019
  0
ARC
  5
3271C
  8
0
 10
6861.2018663359849597
 20
182.6983519093091957
 30
0.0
 40
0.1568630765852984
 50
4.6579735550042862
 51
12.4926707504738808
  0
ARC
  5
3271D
  8
0
 10
6861.4941355051696519
 20
182.761400530019813
 30
0.0
 40
0.1755679957885654
 50
190.3668799790796982
 51
198.8200709654074956
  0
ARC
  5
3271E
  8
0
 10
6861.1483361135760788
 20
182.6935803662939861
 30
0.0
 40
0.1560306030576699
 50
2.442632361957898
 51
10.4240121458707495
  0
ARC
  5
3271F
  8
0
 10
6861.4431439318168486
 20
182.7467664616306138
 30
0.0
 40
0.1718146223155092
 50
188.7050624666080978
 51
197.2453964248502984
  0
ARC
  5
32720
  8
0
 10
6861.1150970819217036
 20
182.6924478070691862
 30
0.0
 40
0.1430644597754254
 50
0.0180303347609515
 51
8.837269196074315
  0
ARC
  5
32721
  8
0
 10
6861.3939806034368303
 20
182.7344366269632872
 30
0.0
 40
0.1638596981618301
 50
187.1172812334860964
 51
195.9794810413609127
  0
ARC
  5
32722
  8
0
 10
6861.1371648965023269
 20
182.694828903188295
 30
0.0
 40
0.0806732230664252
 50
354.2921912236178059
 51
10.1731583398166094
  0
ARC
  5
32723
  8
0
 10
6861.3576565433086216
 20
182.7259602821320925
 30
0.0
 40
0.1646566109138837
 50
185.8501168704297015
 51
194.5827356749551029
  0
ARC
  5
32724
  8
0
 10
6861.0296172454463886
 20
182.6894408530754106
 30
0.0
 40
0.1517496037611669
 50
357.4336453872696779
 51
5.9466972751544889
  0
ARC
  5
32725
  8
0
 10
6861.3107015974092064
 20
182.7173199872507041
 30
0.0
 40
0.1516465754678169
 50
184.4921139902824905
 51
193.8895566375352928
  0
ARC
  5
32726
  8
0
 10
6861.0096890624199659
 20
182.6903605063183988
 30
0.0
 40
0.1381635860001757
 50
355.5016341340935924
 51
4.9636907563054429
  0
ARC
  5
32727
  8
0
 10
6861.2708612174019436
 20
182.7108964134262123
 30
0.0
 40
0.1435905518024281
 50
183.2936936174328082
 51
193.1310699139829978
  0
ARC
  5
32728
  8
0
 10
6860.9846765521670022
 20
182.6912325472673047
 30
0.0
 40
0.1317798537213728
 50
353.9171423189757775
 51
3.9463514727652651
  0
ARC
  5
32729
  8
0
 10
6861.2363635877336492
 20
182.7058854702760016
 30
0.0
 40
0.1393052081304341
 50
182.1722900552153135
 51
192.2180829551141983
  0
ARC
  5
3272A
  8
0
 10
6860.9569883409340036
 20
182.6923120238780882
 30
0.0
 40
0.1295538010622977
 50
352.6448824631307843
 51
2.9474909955103801
  0
ARC
  5
3272B
  8
0
 10
6861.2081642326638757
 20
182.7021226737529105
 30
0.0
 40
0.1402533724570292
 50
181.1942689437551905
 51
191.0738478936270042
  0
ARC
  5
3272C
  8
0
 10
6860.9289351412699034
 20
182.6938320945162104
 30
0.0
 40
0.1286619076988394
 50
351.5350206524282726
 51
1.962075875118531
  0
ARC
  5
3272D
  8
0
 10
6861.1859137677911349
 20
182.6993710126980943
 30
0.0
 40
0.1465069946009055
 50
180.3966625241633039
 51
189.6906647457211932
  0
ARC
  5
3272E
  8
0
 10
6860.8737552047468853
 20
182.696938832172691
 30
0.0
 40
0.1554184389229702
 50
351.7062667790196997
 51
0.4055203047618193
  0
LINE
  5
3272F
  8
0
 10
6861.0112126204458036
 20
182.6980388225570096
 30
0.0
 11
6861.0291697509737787
 21
182.6980388225570096
 31
0.0
  0
ENDSEC
  0
EOF
