  0
SECTION
  2
HEADER
  9
$ACADVER
  1
AC1009
  9
$INSBASE
 10
6879.2901679021333621
 20
176.9123827113411096
 30
0.0
  9
$EXTMIN
 10
6868.4404078811776344
 20
176.8948074359396969
 30
-0.0015258207003583
  9
$EXTMAX
 10
6885.7761908593929547
 20
217.437485840697093
 30
0.0000000349246037
  9
$LIMMIN
 10
0.0
 20
0.0
  9
$LIMMAX
 10
11.6929133858000007
 20
8.2677165353999982
  9
$ORTHOMODE
 70
     0
  9
$REGENMODE
 70
     1
  9
$FILLMODE
 70
     1
  9
$QTEXTMODE
 70
     0
  9
$MIRRTEXT
 70
     0
  9
$DRAGMODE
 70
     2
  9
$LTSCALE
 40
0.6431102362
  9
$OSMODE
 70
  4095
  9
$ATTMODE
 70
     1
  9
$TEXTSIZE
 40
0.2
  9
$TRACEWID
 40
0.05
  9
$TEXTSTYLE
  7
STANDARD
  9
$CLAYER
  8
0
  9
$CELTYPE
  6
BYLAYER
  9
$CECOLOR
 62
   256
  9
$DIMSCALE
 40
1.0
  9
$DIMASZ
 40
0.1875
  9
$DIMEXO
 40
0.0625
  9
$DIMDLI
 40
0.4443307087
  9
$DIMRND
 40
0.0
  9
$DIMDLE
 40
0.0
  9
$DIMEXE
 40
0.125
  9
$DIMTP
 40
0.01
  9
$DIMTM
 40
0.01
  9
$DIMTXT
 40
2.0
  9
$DIMCEN
 40
0.1052362205
  9
$DIMTSZ
 40
0.0
  9
$DIMTOL
 70
     1
  9
$DIMLIM
 70
     0
  9
$DIMTIH
 70
     1
  9
$DIMTOH
 70
     1
  9
$DIMSE1
 70
     0
  9
$DIMSE2
 70
     0
  9
$DIMTAD
 70
     0
  9
$DIMZIN
 70
     0
  9
$DIMBLK
  1

  9
$DIMASO
 70
     1
  9
$DIMSHO
 70
     1
  9
$DIMPOST
  1
\X
  9
$DIMAPOST
  1

  9
$DIMALT
 70
     1
  9
$DIMALTD
 70
     2
  9
$DIMALTF
 40
25.3999999999999986
  9
$DIMLFAC
 40
1.0
  9
$DIMTOFL
 70
     0
  9
$DIMTVP
 40
0.0
  9
$DIMTIX
 70
     0
  9
$DIMSOXD
 70
     0
  9
$DIMSAH
 70
     0
  9
$DIMBLK1
  1

  9
$DIMBLK2
  1

  9
$DIMSTYLE
  2
STANDARD
  9
$DIMCLRD
 70
     0
  9
$DIMCLRE
 70
     0
  9
$DIMCLRT
 70
     0
  9
$DIMTFAC
 40
1.0
  9
$DIMGAP
 40
0.09
  9
$LUNITS
 70
     2
  9
$LUPREC
 70
     4
  9
$SKETCHINC
 40
0.1
  9
$FILLETRAD
 40
0.0
  9
$AUNITS
 70
     0
  9
$AUPREC
 70
     0
  9
$MENU
  1
.
  9
$ELEVATION
 40
0.0
  9
$PELEVATION
 40
0.0
  9
$THICKNESS
 40
0.0
  9
$LIMCHECK
 70
     0
  9
$BLIPMODE
 70
     0
  9
$CHAMFERA
 40
0.0
  9
$CHAMFERB
 40
0.0
  9
$SKPOLY
 70
     0
  9
$TDCREATE
 40
2458060.468368056230247
  9
$TDUPDATE
 40
2460584.4537384258583188
  9
$TDINDWG
 40
1.0024954860999999
  9
$TDUSRTIMER
 40
1.0024954860999999
  9
$USRTIMER
 70
     1
  9
$ANGBASE
 50
0.0
  9
$ANGDIR
 70
     0
  9
$PDMODE
 70
     0
  9
$PDSIZE
 40
0.3125
  9
$PLINEWID
 40
0.0
  9
$COORDS
 70
     1
  9
$SPLFRAME
 70
     0
  9
$SPLINETYPE
 70
     6
  9
$SPLINESEGS
 70
     8
  9
$ATTDIA
 70
     1
  9
$ATTREQ
 70
     1
  9
$HANDLING
 70
     1
  9
$HANDSEED
  5
32A61
  9
$SURFTAB1
 70
     6
  9
$SURFTAB2
 70
     6
  9
$SURFTYPE
 70
     6
  9
$SURFU
 70
     6
  9
$SURFV
 70
     6
  9
$UCSNAME
  2

  9
$UCSORG
 10
0.0
 20
0.0
 30
0.0
  9
$UCSXDIR
 10
1.0
 20
0.0
 30
0.0
  9
$UCSYDIR
 10
0.0
 20
1.0
 30
0.0
  9
$PUCSNAME
  2

  9
$PUCSORG
 10
0.0
 20
0.0
 30
0.0
  9
$PUCSXDIR
 10
1.0
 20
0.0
 30
0.0
  9
$PUCSYDIR
 10
0.0
 20
1.0
 30
0.0
  9
$USERI1
 70
     0
  9
$USERI2
 70
     0
  9
$USERI3
 70
     0
  9
$USERI4
 70
     0
  9
$USERI5
 70
     0
  9
$USERR1
 40
0.0
  9
$USERR2
 40
0.0
  9
$USERR3
 40
0.0
  9
$USERR4
 40
0.0
  9
$USERR5
 40
0.0
  9
$WORLDVIEW
 70
     1
  9
$SHADEDGE
 70
     3
  9
$SHADEDIF
 70
    70
  9
$TILEMODE
 70
     1
  9
$MAXACTVP
 70
    64
  9
$PLIMCHECK
 70
     0
  9
$PEXTMIN
 10
1.0000000000000000E+20
 20
1.0000000000000000E+20
 30
1.0000000000000000E+20
  9
$PEXTMAX
 10
-1.0000000000000000E+20
 20
-1.0000000000000000E+20
 30
-1.0000000000000000E+20
  9
$PLIMMIN
 10
0.0
 20
0.0
  9
$PLIMMAX
 10
12.0
 20
9.0
  9
$UNITMODE
 70
     0
  9
$VISRETAIN
 70
     1
  9
$PLINEGEN
 70
     0
  9
$PSLTSCALE
 70
     1
  0
ENDSEC
  0
SECTION
  2
TABLES
  0
TABLE
  2
VPORT
 70
     1
  0
VPORT
  2
*ACTIVE
 70
     0
 10
0.0
 20
0.0
 11
1.0
 21
1.0
 12
2965.7429429249727946
 22
64.5865415357793609
 13
0.0
 23
0.0
 14
1.0
 24
1.0
 15
0.0
 25
0.0
 16
0.0
 26
0.0
 36
60.4960186965801583
 17
3911.3653564453120453
 27
132.5796051025390057
 37
0.0
 40
40.8690872668766403
 41
2.558981233243967
 42
50.0
 43
0.0
 44
0.0
 50
0.0
 51
0.0
 71
     0
 72
   100
 73
     1
 74
     1
 75
     0
 76
     0
 77
     0
 78
     0
  0
ENDTAB
  0
TABLE
  2
LTYPE
 70
     2
  0
LTYPE
  2
CONTINUOUS
 70
     0
  3
Solid line
 72
    65
 73
     0
 40
0.0
  0
LTYPE
  2
PHANTOM2
 70
     0
  3
___ _ _ ___ _ _ ___ _ _ ___ _ _
 72
    65
 73
     6
 40
1.25
 49
0.625
 49
-0.125
 49
0.125
 49
-0.125
 49
0.125
 49
-0.125
  0
ENDTAB
  0
TABLE
  2
LAYER
 70
     2
  0
LAYER
  2
0
 70
     0
 62
   255
  6
CONTINUOUS
  0
LAYER
  2
DEFPOINTS
 70
     0
 62
     7
  6
CONTINUOUS
  0
ENDTAB
  0
TABLE
  2
STYLE
 70
     1
  0
STYLE
  2
STANDARD
 70
     0
 40
0.0
 41
0.8
 50
0.0
 71
     0
 42
0.2
  3
txt
  4

  0
ENDTAB
  0
TABLE
  2
VIEW
 70
     2
  0
ENDTAB
  0
TABLE
  2
UCS
 70
     0
  0
ENDTAB
  0
TABLE
  2
APPID
 70
    11
  0
APPID
  2
ACAD
 70
     0
  0
APPID
  2
ACAD_MLEADERVER
 70
     0
  0
APPID
  2
ACAD_EXEMPT_FROM_CAD_STANDARDS
 70
     0
  0
APPID
  2
ACAD_NAV_VCDISPLAY
 70
     0
  0
APPID
  2
ACAECLAYERSTANDARD
 70
     0
  0
APPID
  2
ACCMTRANSPARENCY
 70
     0
  0
APPID
  2
ACAD_DSTYLE_DIMJAG
 70
     0
  0
APPID
  2
ACAD_DSTYLE_DIMTALN
 70
     0
  0
APPID
  2
ACDBATTR
 70
     0
  0
APPID
  2
ACADANNOTATIVE
 70
     0
  0
APPID
  2
DCO15
 70
     0
  0
ENDTAB
  0
TABLE
  2
DIMSTYLE
 70
     1
  0
DIMSTYLE
  2
STANDARD
 70
     0
  3

  4

  5

  6

  7

 40
1.0
 41
0.1875
 42
0.0625
 43
0.38
 44
0.125
 45
0.0
 46
0.0
 47
0.01
 48
0.01
140
0.15625
141
0.09
142
0.0
143
25.3999999999999986
144
1.0
145
0.0
146
1.0
147
0.09
 71
     1
 72
     0
 73
     1
 74
     1
 75
     0
 76
     0
 77
     0
 78
     4
170
     0
171
     2
172
     0
173
     0
174
     0
175
     0
176
     0
177
     0
178
     0
  0
ENDTAB
  0
ENDSEC
  0
SECTION
  2
BLOCKS
  0
BLOCK
  8
0
  2
$MODEL_SPACE
 70
     0
 10
0.0
 20
0.0
 30
0.0
  3
$MODEL_SPACE
  1

  0
ENDBLK
  5
21
  8
0
  0
BLOCK
 67
     1
  8
0
  2
$PAPER_SPACE
 70
     0
 10
0.0
 20
0.0
 30
0.0
  3
$PAPER_SPACE
  1

  0
ENDBLK
  5
1D
 67
     1
  8
0
  0
BLOCK
  8
0
  2
_FILLED
 70
     0
 10
0.0
 20
0.0
 30
0.0
  3
_FILLED
  1

  0
SOLID
  5
2FD5F
  8
0
  6
BYBLOCK
 62
     0
 10
0.0
 20
0.0
 30
0.0
 11
-1.0
 21
0.1666666667
 31
0.0
 12
-1.0
 22
-0.1666666667
 32
0.0
 13
-1.0
 23
-0.1666666667
 33
0.0
  0
ENDBLK
  5
2FD60
  8
0
  6
BYBLOCK
 62
     0
  0
ENDSEC
  0
SECTION
  2
ENTITIES
  0
ATTDEF
  5
26A5B
  8
DEFPOINTS
 10
6879.2862677591547254
 20
176.9101870470310871
 30
0.0
 40
0.001
  1
EX36242T-9WPL
  3

  2
MODELNUMBER
 70
     0
1001
ACDBATTR
1070
     0
1070
     1
  0
ATTDEF
  5
26A5C
  8
DEFPOINTS
 10
6879.2861419494984148
 20
176.9085202066519003
 30
0.0
 40
0.001
  1
ORIANA
  3

  2
TRADENAME
 70
     0
1001
ACDBATTR
1070
     0
1070
     1
  0
ATTDEF
  5
26A5D
  8
DEFPOINTS
 10
6879.2862677591547254
 20
176.9068537136977
 30
0.0
 40
0.001
  1
BATH FAUCET
  3

  2
PRODUCT
 70
     0
1001
ACDBATTR
1070
     0
1070
     1
  0
LINE
  5
3261D
  8
0
 10
6876.9279631776817041
 20
176.9123827113411096
 30
0.0
 11
6881.6523726265822916
 21
176.9123827113411096
 31
0.0
  0
LINE
  5
3261E
  8
0
 10
6876.9756151445626529
 20
177.4241937349414115
 30
0.0
 11
6881.6047206597013428
 21
177.4241937349414115
 31
0.0
  0
LINE
  5
3261F
  8
0
 10
6878.1084137333109538
 20
178.0934850735415012
 30
0.0
 11
6880.4719220709539513
 21
178.0934850735415012
 31
0.0
  0
LINE
  5
32620
  8
0
 10
6868.8748529780368699
 20
210.8297055459414935
 30
0.0
 11
6880.3531450674818188
 21
210.8297055459414935
 31
0.0
  0
LINE
  5
32621
  8
0
 10
6868.8748529780368699
 20
209.6486031837414998
 30
0.0
 11
6878.1209778406437181
 21
209.6486031837414998
 31
0.0
  0
LINE
  5
32622
  8
0
 10
6878.0586886643932303
 20
177.4629061101275909
 30
0.0
 11
6878.0690197341209569
 21
178.0547726983552934
 31
0.0
  0
LINE
  5
32623
  8
0
 10
6876.9362211453753844
 20
177.3854813597606039
 30
0.0
 11
6876.9279631776817041
 21
176.9123827113411096
 31
0.0
  0
ARC
  5
32624
  8
0
 10
6876.9756151445626529
 20
177.384793734941411
 30
0.0
 40
0.0394
 50
90.0
 51
178.9999999919330946
  0
ARC
  5
32625
  8
0
 10
6878.0192946652041428
 20
177.4635937349414121
 30
0.0
 40
0.0394
 50
270.0
 51
358.9999999997194209
  0
ARC
  5
32626
  8
0
 10
6878.1084137333109538
 20
178.0540850735415006
 30
0.0
 40
0.0394
 50
90.0
 51
178.9999999997241957
  0
LINE
  5
32627
  8
0
 10
6878.2074907367832566
 20
178.0934850735415012
 30
0.0
 11
6878.2074907367832566
 21
203.5659110577414879
 31
0.0
  0
LINE
  5
32628
  8
0
 10
6878.2074907367832566
 20
203.6053110577414884
 30
0.0
 11
6878.2074907367832566
 21
209.4907031837414877
 31
0.0
  0
LINE
  5
32629
  8
0
 10
6880.5216471398716749
 20
177.4629061101275909
 30
0.0
 11
6880.5113160701439483
 21
178.0547726983552934
 31
0.0
  0
LINE
  5
3262A
  8
0
 10
6881.6441146588904303
 20
177.3854813597606039
 30
0.0
 11
6881.6523726265822916
 21
176.9123827113411096
 31
0.0
  0
ARC
  5
3262B
  8
0
 10
6881.6047206597013428
 20
177.384793734941411
 30
0.0
 40
0.0394
 50
1.000000008066861
 51
90.0
  0
ARC
  5
3262C
  8
0
 10
6880.5610411390625814
 20
177.4635937349414121
 30
0.0
 40
0.0394
 50
181.0000000002789875
 51
270.0
  0
ARC
  5
3262D
  8
0
 10
6880.4719220709539513
 20
178.0540850735415006
 30
0.0
 40
0.0394
 50
1.0000000002741249
 51
90.0
  0
LINE
  5
3262E
  8
0
 10
6880.3728450674825581
 20
178.0934850735415012
 30
0.0
 11
6880.3728450674825581
 21
203.5659110577414879
 31
0.0
  0
LINE
  5
3262F
  8
0
 10
6880.3728450674825581
 20
203.6053110577414884
 30
0.0
 11
6880.3728450674825581
 21
206.2785244394414974
 31
0.0
  0
LINE
  5
32630
  8
0
 10
6880.3728450674825581
 20
207.9005716835415001
 30
0.0
 11
6880.3728450674825581
 21
210.8100055459414932
 31
0.0
  0
LINE
  5
32631
  8
0
 10
6868.8551529780370402
 20
210.8100055459414932
 30
0.0
 11
6868.8551529780370402
 21
209.6683031837415001
 31
0.0
  0
ARC
  5
32632
  8
0
 10
6868.8748529780368699
 20
210.8100055459414932
 30
0.0
 40
0.0197
 50
90.0
 51
179.9999999999951115
  0
ARC
  5
32633
  8
0
 10
6868.8748529780368699
 20
209.6683031837415001
 30
0.0
 40
0.0197
 50
179.9999999999836859
 51
270.0
  0
ARC
  5
32634
  8
0
 10
6878.0495907367821928
 20
209.4907031837414877
 30
0.0
 40
0.1579
 50
359.9999999999984084
 51
90.0
  0
LINE
  5
32635
  8
0
 10
6878.3756107594826972
 20
210.8100204983414869
 30
0.0
 11
6878.3756107656827226
 21
209.4907182370415057
 31
0.0
  0
ARC
  5
32636
  8
0
 10
6878.1187192012357627
 20
209.4291134441446047
 30
0.0
 40
0.2195013604520075
 50
70.2607267084926548
 51
89.4104237484946367
  0
ARC
  5
32637
  8
0
 10
6878.0837152758676893
 20
209.3315620161667141
 30
0.0
 40
0.323142838112834
 50
53.1331973300716172
 51
70.2607267084921006
  0
ARC
  5
32638
  8
0
 10
6877.9961032467908808
 20
209.2147328303823031
 30
0.0
 40
0.469173404399677
 50
41.9225265828829805
 51
53.1331973300716172
  0
ARC
  5
32639
  8
0
 10
6877.9852569265212878
 20
209.2049932836484061
 30
0.0
 40
0.4837508333214472
 50
36.2027842789156509
 51
41.9225265828829805
  0
ARC
  5
3263A
  8
0
 10
6878.3953703474080612
 20
210.8105873413080076
 30
0.0
 40
0.0197677167605333
 50
104.7281900138954995
 51
181.6431924109973011
  0
LINE
  5
3263B
  8
0
 10
6878.2074907366823027
 20
210.8494055459414938
 30
0.0
 11
6878.2074907366823027
 21
210.876719983771892
 31
0.0
  0
LINE
  5
3263C
  8
0
 10
6878.6203708324146646
 20
211.052818323575309
 30
0.0
 11
6879.9599649716501517
 21
211.052818323575309
 31
0.0
  0
ARC
  5
3263D
  8
0
 10
6878.2271907366821324
 20
210.8494055459414938
 30
0.0
 40
0.0197
 50
180.0
 51
270.0
  0
ARC
  5
3263E
  8
0
 10
6879.2901679020833399
 20
208.7892794625417139
 30
0.0
 40
2.3622047243996929
 50
106.7596192951564973
 51
114.2872427472180021
  0
ARC
  5
3263F
  8
0
 10
6879.2901679020833399
 20
208.7892794625417139
 30
0.0
 40
2.3622047243996929
 50
115.6792886206172
 51
116.9863376812464963
  0
ARC
  5
32640
  8
0
 10
6878.2271907366821324
 20
210.876719983771892
 30
0.0
 40
0.0197
 50
116.9863376812399025
 51
179.9999999999951115
  0
ARC
  5
32641
  8
0
 10
6878.6203708324146646
 20
211.0134183235751095
 30
0.0
 40
0.0394
 50
90.0000000000521254
 51
106.7596192951018992
  0
LINE
  5
32642
  8
0
 10
6878.944058076118381
 20
211.2784903690123883
 30
0.0
 11
6879.6362777279464353
 21
211.2784903690123883
 31
0.0
  0
ARC
  5
32643
  8
0
 10
6879.2901679020833399
 20
210.6289181443414975
 30
0.0
 40
0.7086614173000332
 50
113.9165340149859986
 51
143.261036243291187
  0
ARC
  5
32644
  8
0
 10
6878.9948923399888372
 20
211.2947265388093001
 30
0.0
 40
0.0196849808608352
 50
293.9165340149859844
 51
304.4317928059380733
  0
LINE
  5
32645
  8
0
 10
6878.2182513096076946
 20
210.894274944425689
 30
0.0
 11
6880.3620844944571218
 21
210.894274944425689
 31
0.0
  0
LINE
  5
32646
  8
0
 10
6880.3728450673834232
 20
210.8494055459414938
 30
0.0
 11
6880.3728450673834232
 21
210.876719983771892
 31
0.0
  0
ARC
  5
32647
  8
0
 10
6880.3531450673826839
 20
210.8494055459414938
 30
0.0
 40
0.0197
 50
270.0
 51
0.0
  0
ARC
  5
32648
  8
0
 10
6879.290167901982386
 20
208.7892794625417139
 30
0.0
 40
2.3622047243996929
 50
63.0136623187534468
 51
73.2403807048434743
  0
ARC
  5
32649
  8
0
 10
6880.3531450673826839
 20
210.876719983771892
 30
0.0
 40
0.0197
 50
0.0000000000048853
 51
63.0136623187600975
  0
ARC
  5
3264A
  8
0
 10
6879.9599649716501517
 20
211.0134183235751095
 30
0.0
 40
0.0394
 50
73.2403807048980724
 51
89.9999999999478888
  0
ARC
  5
3264B
  8
0
 10
6879.290167901982386
 20
210.6289181443414975
 30
0.0
 40
0.7086614173000332
 50
36.738963756708813
 51
66.0834659850140156
  0
ARC
  5
3264C
  8
0
 10
6879.5854434640768886
 20
211.2947265388093001
 30
0.0
 40
0.0196849808608352
 50
235.5682071940618982
 51
246.0834659850139872
  0
LINE
  5
3264D
  8
0
 10
6878.3137899494731755
 20
210.9424169748415068
 30
0.0
 11
6878.5028870499791083
 21
210.9424169748415068
 31
0.0
  0
LINE
  5
3264E
  8
0
 10
6878.463580657282364
 20
210.918178019141493
 30
0.0
 11
6878.2665458547990056
 21
210.918178019141493
 31
0.0
  0
LINE
  5
3264F
  8
0
 10
6878.463580657282364
 20
210.920362041441507
 30
0.0
 11
6878.2665458548826791
 21
210.920362041441507
 31
0.0
  0
ARC
  5
32650
  8
0
 10
6878.4591032852958961
 20
210.9805951755990918
 30
0.0
 40
0.0603993154792782
 50
274.2512079788421033
 51
290.7584979607885884
  0
ARC
  5
32651
  8
0
 10
6878.4475119810986143
 20
211.0181560444931961
 30
0.0
 40
0.0996608440103841
 50
289.3361101923978254
 51
299.4455638585724273
  0
ARC
  5
32652
  8
0
 10
6878.4793162126861716
 20
210.9636647630956077
 30
0.0
 40
0.0365850013187159
 50
298.0231760902004225
 51
311.7999395171303263
  0
ARC
  5
32653
  8
0
 10
6878.4952699438208583
 20
210.9458214479309106
 30
0.0
 40
0.0126495582848503
 50
311.7999395171270862
 51
325.6418872917216731
  0
ARC
  5
32654
  8
0
 10
6878.5029983195390741
 20
210.9405380133848951
 30
0.0
 40
0.003287802476049
 50
325.641887291725709
 51
355.9211791953098896
  0
ARC
  5
32655
  8
0
 10
6878.5049902799028132
 20
210.9403959679758884
 30
0.0
 40
0.0012907839500059
 50
355.9211791953991906
 51
43.2787769982421935
  0
ARC
  5
32656
  8
0
 10
6878.5039111040996431
 20
210.9393797585998129
 30
0.0
 40
0.0027731138421938
 50
43.2787769981791968
 51
73.1478033129234575
  0
ARC
  5
32657
  8
0
 10
6878.5016168140864465
 20
210.9318056476228094
 30
0.0
 40
0.0106870840065865
 50
73.1478033129747445
 51
83.1738523957932756
  0
ARC
  5
32658
  8
0
 10
6878.4595086855597401
 20
210.9773432716017112
 30
0.0
 40
0.0593052110052625
 50
273.9370992160095852
 51
292.4735784231954767
  0
ARC
  5
32659
  8
0
 10
6878.4145002574387036
 20
211.0861451135176026
 30
0.0
 40
0.1770489981286448
 50
292.4735784231954767
 51
297.8223513737503936
  0
ARC
  5
3265A
  8
0
 10
6878.4831607319383693
 20
210.9560419839629901
 30
0.0
 40
0.0299399056893025
 50
297.8223513737497115
 51
316.9315982877927809
  0
ARC
  5
3265B
  8
0
 10
6878.5014916974696462
 20
210.9389071221777101
 30
0.0
 40
0.0048475206747449
 50
316.9315982877988063
 51
350.8696764125700724
  0
LINE
  5
3265C
  8
0
 10
6878.506281063852839
 20
210.9403959679758884
 30
0.0
 11
6878.5062777998828096
 21
210.9381379145414996
 31
0.0
  0
LINE
  5
3265D
  8
0
 10
6878.2665458549408868
 20
210.9181780191613882
 30
0.0
 11
6878.2665458548826791
 21
210.9203620413478006
 31
0.0
  0
LINE
  5
3265E
  8
0
 10
6878.2665458548826791
 20
210.9203620413478006
 30
0.0
 11
6878.3137899494731755
 21
210.9424169748415068
 31
0.0
  0
ARC
  5
3265F
  8
0
 10
6880.3531450674818188
 20
210.8100055459414932
 30
0.0
 40
0.0197
 50
359.9999999999885745
 51
90.0
  0
LINE
  5
32660
  8
0
 10
6885.1958511200837165
 20
207.9707005127415016
 30
0.0
 11
6885.2281354903689135
 21
211.5384138616659868
 31
0.0
  0
LINE
  5
32661
  8
0
 10
6885.228135490364366
 20
212.1447303962542037
 30
0.0
 11
6885.2281354903616375
 21
212.3258160988999919
 31
0.0
  0
LINE
  5
32662
  8
0
 10
6885.2281354903579995
 20
212.9321390086849988
 30
0.0
 11
6885.2425020762511849
 21
213.5664978907470015
 31
0.0
  0
LINE
  5
32663
  8
0
 10
6885.2547841637733654
 20
214.6673701597428874
 30
0.0
 11
6885.254784163770637
 21
214.8317101061444987
 31
0.0
  0
LINE
  5
32664
  8
0
 10
6885.2547841637697275
 20
214.9207301533706982
 30
0.0
 11
6885.2547841637697275
 21
214.9596043984678886
 31
0.0
  0
LINE
  5
32665
  8
0
 10
6885.2547841637697275
 20
215.0283390956699066
 30
0.0
 11
6885.2547841637697275
 21
215.083678610110212
 31
0.0
  0
LINE
  5
32666
  8
0
 10
6885.254784163768818
 20
215.1726986573372074
 30
0.0
 11
6885.254784163768818
 21
215.2017490092773073
 31
0.0
  0
LINE
  5
32667
  8
0
 10
6885.254784163768818
 20
215.2901189006354912
 30
0.0
 11
6885.254784163768818
 21
215.3339932824497964
 31
0.0
  0
LINE
  5
32668
  8
0
 10
6885.254784163766999
 20
215.4242229227783127
 30
0.0
 11
6885.254784163766999
 21
215.4471849692662886
 31
0.0
  0
LINE
  5
32669
  8
0
 10
6885.2633997627654026
 20
215.5486999395203895
 30
0.0
 11
6885.2633997627654026
 21
215.5879844939269958
 31
0.0
  0
LINE
  5
3266A
  8
0
 10
6885.2633997627626741
 20
215.6770632578353002
 30
0.0
 11
6885.2633997627626741
 21
215.6936917284448043
 31
0.0
  0
LINE
  5
3266B
  8
0
 10
6885.2633997627626741
 20
215.8118549948677014
 30
0.0
 11
6885.2633997627617646
 21
215.8402424602377891
 31
0.0
  0
LINE
  5
3266C
  8
0
 10
6885.2633997627617646
 20
215.9293730948371035
 30
0.0
 11
6885.2633997627617646
 21
215.9409261334324128
 31
0.0
  0
LINE
  5
3266D
  8
0
 10
6885.2633997627599456
 20
216.0714222626043863
 30
0.0
 11
6885.2633997627599456
 21
216.0912818596546003
 31
0.0
  0
LINE
  5
3266E
  8
0
 10
6885.2645790845690499
 20
216.1810403203585906
 30
0.0
 11
6885.2645790845690499
 21
216.1894710691736066
 31
0.0
  0
LINE
  5
3266F
  8
0
 10
6885.2645790845690499
 20
216.331203352773997
 30
0.0
 11
6885.2645790845690499
 21
216.3441050582111984
 31
0.0
  0
LINE
  5
32670
  8
0
 10
6885.2745947026560316
 20
216.4330840969741132
 30
0.0
 11
6885.2745947026469366
 21
217.419194502676703
 31
0.0
  0
ARC
  5
32671
  8
0
 10
6885.2397899750585566
 20
217.1617725591146097
 30
0.0
 40
0.0140598250577133
 50
58.1384151157036229
 51
90.173734469521861
  0
ARC
  5
32672
  8
0
 10
6885.2357789562820471
 20
217.1553189471532903
 30
0.0
 40
0.021658336687869
 50
33.2361029139898392
 51
58.1384151157036229
  0
ARC
  5
32673
  8
0
 10
6885.2074605783509469
 20
217.1367624245494881
 30
0.0
 40
0.0555150208095513
 50
13.0123002104999301
 51
33.2361029139884678
  0
ARC
  5
32674
  8
0
 10
6885.0468173204399136
 20
217.0996386794676027
 30
0.0
 40
0.2203920318252074
 50
0.4601187326381658
 51
13.0123002104999301
  0
ARC
  5
32675
  8
0
 10
6881.3033358490501996
 20
217.0695756801875973
 30
0.0
 40
3.9639942156270251
 50
359.6010413968297144
 51
0.4601187326381658
  0
ARC
  5
32676
  8
0
 10
6885.175847919388616
 20
217.0426103960174089
 30
0.0
 40
0.0913882633678599
 50
352.4372953840253899
 51
359.6010413968297144
  0
ARC
  5
32677
  8
0
 10
6885.2314891606993115
 20
217.0352231293562966
 30
0.0
 40
0.0352587751887761
 50
338.3434827736110719
 51
352.4372953840302216
  0
ARC
  5
32678
  8
0
 10
6885.2558515519549474
 20
217.0255495669497066
 30
0.0
 40
0.0090461080723431
 50
316.0896174766186846
 51
338.3434827736202237
  0
ARC
  5
32679
  8
0
 10
6885.2601866526501908
 20
217.021376293034109
 30
0.0
 40
0.0030286905855118
 50
273.0895229117588201
 51
316.0896174766808144
  0
ARC
  5
3267A
  8
0
 10
6885.2403442173972508
 20
217.0385564308816129
 30
0.0
 40
0.020213240747524
 50
233.481116530195294
 51
268.3078718361006167
  0
ARC
  5
3267B
  8
0
 10
6885.2619842159201653
 20
217.0677810617065973
 30
0.0
 40
0.0565776269371782
 50
213.3226565589623931
 51
233.481116530195294
  0
ARC
  5
3267C
  8
0
 10
6885.2959889950288925
 20
217.0901372801465072
 30
0.0
 40
0.0972731488670178
 50
190.8937333712146938
 51
213.3226565589623931
  0
ARC
  5
3267D
  8
0
 10
6885.3341510844256845
 20
217.0974818116386871
 30
0.0
 40
0.1361355627140465
 50
172.2120659544767136
 51
190.8937333712146938
  0
ARC
  5
3267E
  8
0
 10
6885.3002817063370458
 20
217.10211407312201
 30
0.0
 40
0.1019508787376103
 50
153.0930778690515979
 51
172.2120659544783052
  0
ARC
  5
3267F
  8
0
 10
6885.2874760650147437
 20
217.1086126911762904
 30
0.0
 40
0.0875906389665835
 50
141.2731253991483129
 51
153.0930778690515979
  0
ARC
  5
32680
  8
0
 10
6885.2511126017298011
 20
217.137773332999501
 30
0.0
 40
0.0409790042221696
 50
119.6407076904221043
 51
141.2731253991470055
  0
ARC
  5
32681
  8
0
 10
6885.2401637762814062
 20
217.1570149073533003
 30
0.0
 40
0.0188404640187502
 50
98.5133522881910153
 51
119.6407076904221043
  0
ARC
  5
32682
  8
0
 10
6885.2398590607417646
 20
217.1590505613997948
 30
0.0
 40
0.0167821299939967
 50
90.3814198625513257
 51
98.5133522881910153
  0
ARC
  5
32683
  8
0
 10
6885.2160723348360989
 20
217.1605769216276087
 30
0.0
 40
0.0237173897279034
 50
40.0265647657669419
 51
64.6348715622358441
  0
ARC
  5
32684
  8
0
 10
6885.2186597987729328
 20
217.1660346783419016
 30
0.0
 40
0.017677350160056
 50
64.6348715622365546
 51
91.4596888946972939
  0
ARC
  5
32685
  8
0
 10
6885.2186185583987026
 20
217.1676530973196861
 30
0.0
 40
0.0160584058261217
 50
91.4596888946452111
 51
109.0395704688125988
  0
ARC
  5
32686
  8
0
 10
6885.2266125362184539
 20
217.1491945791890998
 30
0.0
 40
0.0361475378032514
 50
111.473513985170996
 51
132.5305386290170873
  0
ARC
  5
32687
  8
0
 10
6885.2742073039044044
 20
217.1037130692639039
 30
0.0
 40
0.1019288552769219
 50
134.9644821453881036
 51
160.9099556149014916
  0
ARC
  5
32688
  8
0
 10
6885.2933302622823248
 20
217.0970948721922014
 30
0.0
 40
0.1221646668395876
 50
160.9099556149014916
 51
198.4811829478823881
  0
ARC
  5
32689
  8
0
 10
6885.276807024961272
 20
217.0915723077372945
 30
0.0
 40
0.1047429536720949
 50
198.4811829478823881
 51
222.9978857521209932
  0
ARC
  5
3268A
  8
0
 10
6885.2245026483142283
 20
217.0428012957339092
 30
0.0
 40
0.0332282039475488
 50
222.9978857521197995
 51
255.1348675394332872
  0
ARC
  5
3268B
  8
0
 10
6885.2282743608548117
 20
217.0255126601022937
 30
0.0
 40
0.0205112037035476
 50
325.0464929746872258
 51
339.5134684562233929
  0
ARC
  5
3268C
  8
0
 10
6885.238657820455046
 20
217.0182546330551077
 30
0.0
 40
0.0078425340870419
 50
277.4322996682499252
 51
325.0464929746751181
  0
LINE
  5
3268D
  8
0
 10
6885.2603498876251251
 20
217.0183520045216881
 30
0.0
 11
6885.202000521602713
 21
217.0183520047220043
 31
0.0
  0
LINE
  5
3268E
  8
0
 10
6885.239672288442307
 20
217.0104779888170015
 30
0.0
 11
6885.2159781302252668
 21
217.0106851607093859
 31
0.0
  0
LINE
  5
3268F
  8
0
 10
6885.2400335191450722
 20
217.1758302746804929
 30
0.0
 11
6885.2021774123950308
 21
217.1758323195784897
 31
0.0
  0
LINE
  5
32690
  8
0
 10
6885.2053105661652808
 20
217.1783985268870083
 30
0.0
 11
6885.2077682033032033
 21
217.1758410988323931
 31
0.0
  0
ARC
  5
32691
  8
0
 10
6885.1765960701641234
 20
217.0349045461493063
 30
0.0
 40
0.047803768700417
 50
335.4575692667008866
 51
339.7180948884484906
  0
ARC
  5
32692
  8
0
 10
6885.2106353944764123
 20
217.0193614786664114
 30
0.0
 40
0.0103836865746228
 50
320.5663650373056157
 51
335.4575692667053772
  0
ARC
  5
32693
  8
0
 10
6885.212704538914295
 20
217.0176598290534002
 30
0.0
 40
0.0077046998043582
 50
295.1432202800589835
 51
320.5663650373069231
  0
ARC
  5
32694
  8
0
 10
6885.2434839340967301
 20
217.1211795223698005
 30
0.0
 40
0.0162038102744728
 50
117.6556850854231016
 51
141.7862942826567973
  0
ARC
  5
32695
  8
0
 10
6885.239662416191095
 20
217.1284721404832112
 30
0.0
 40
0.0079705680179446
 50
62.3563966887431889
 51
117.6556850853769021
  0
ARC
  5
32696
  8
0
 10
6885.2388092240398692
 20
217.126843155033896
 30
0.0
 40
0.0098094618265265
 50
41.2647942607661733
 51
62.356396688743942
  0
ARC
  5
32697
  8
0
 10
6885.2282968539166177
 20
217.1176192507940073
 30
0.0
 40
0.0237948232822051
 50
19.9242370709368295
 51
41.2647942607661733
  0
ARC
  5
32698
  8
0
 10
6885.1849989791644475
 20
217.1019249199441106
 30
0.0
 40
0.0698493342329013
 50
5.3479370823202297
 51
19.9242370709383607
  0
ARC
  5
32699
  8
0
 10
6885.1371964108893735
 20
217.0974500679454025
 30
0.0
 40
0.1178608936130048
 50
351.5963980615920832
 51
5.3479370823186088
  0
ARC
  5
3269A
  8
0
 10
6885.2001808489721952
 20
217.0881452893773087
 30
0.0
 40
0.0541928612518753
 50
339.5979014357188817
 51
351.5963980615904916
  0
ARC
  5
3269B
  8
0
 10
6885.2185825280466815
 20
217.0813009990494038
 30
0.0
 40
0.0345595705726468
 50
329.8519507690397177
 51
339.5979014357218944
  0
ARC
  5
3269C
  8
0
 10
6885.2345575089311751
 20
217.0720227191866059
 30
0.0
 40
0.0160856296973929
 50
307.452250164864779
 51
329.8519507690439241
  0
ARC
  5
3269D
  8
0
 10
6885.2397240586369662
 20
217.0652779092368974
 30
0.0
 40
0.0075894130619543
 50
244.3033405964058886
 51
307.4522501648638126
  0
ARC
  5
3269E
  8
0
 10
6885.2435028954150766
 20
217.0731309237947073
 30
0.0
 40
0.0163043109405618
 50
217.6864993441685954
 51
244.3033405964058886
  0
ARC
  5
3269F
  8
0
 10
6885.2609839935794298
 20
217.0866352733897031
 30
0.0
 40
0.0383940427417261
 50
207.4170426326292898
 51
217.6864993441685954
  0
ARC
  5
326A0
  8
0
 10
6885.2694586168681781
 20
217.091031299432899
 30
0.0
 40
0.0479409943418011
 50
191.1159372238008984
 51
207.4170426326263055
  0
ARC
  5
326A1
  8
0
 10
6885.2993884156157947
 20
217.0969119385968042
 30
0.0
 40
0.0784430396849811
 50
166.4086686228910992
 51
191.1159372238008984
  0
ARC
  5
326A2
  8
0
 10
6885.2641016906718505
 20
217.1054430447958055
 30
0.0
 40
0.0421396964451101
 50
142.3162686172832991
 51
166.4086686228895076
  0
LINE
  5
326A3
  8
0
 10
6885.2509741498615767
 20
217.0692533123688861
 30
0.0
 11
6885.2269024288680157
 21
217.0689562048378036
 31
0.0
  0
ARC
  5
326A4
  8
0
 10
6885.2397899750567376
 20
216.5835928673197941
 30
0.0
 40
0.0140598250577133
 50
269.8262655313640153
 51
301.8615848852103909
  0
ARC
  5
326A5
  8
0
 10
6885.2357789562765902
 20
216.5900464792808862
 30
0.0
 40
0.021658336687869
 50
301.8615848852103909
 51
326.7638970869251125
  0
ARC
  5
326A6
  8
0
 10
6885.2074605783473089
 20
216.6086030018844042
 30
0.0
 40
0.0555150208095513
 50
326.7638970869251125
 51
346.9876997903990059
  0
ARC
  5
326A7
  8
0
 10
6885.0468173204353661
 20
216.6457267469637031
 30
0.0
 40
0.2203920318252074
 50
346.9876997903990059
 51
359.5398812682611265
  0
ARC
  5
326A8
  8
0
 10
6881.3033358490438332
 20
216.675789746185103
 30
0.0
 40
3.9639942156270251
 50
359.5398812682611265
 51
0.3989586040692044
  0
ARC
  5
326A9
  8
0
 10
6885.175847919383159
 20
216.7027550304160002
 30
0.0
 40
0.0913882633678599
 50
0.3989586040692044
 51
7.5627046168765721
  0
ARC
  5
326AA
  8
0
 10
6885.2314891606938545
 20
216.7101422970779083
 30
0.0
 40
0.0352587751887761
 50
7.562704616871728
 51
21.6565172272792417
  0
ARC
  5
326AB
  8
0
 10
6885.2558515519485809
 20
216.7198158594848962
 30
0.0
 40
0.0090461080723431
 50
21.6565172272716708
 51
43.9103825242818289
  0
ARC
  5
326AC
  8
0
 10
6885.2601866526438243
 20
216.7239891334006074
 30
0.0
 40
0.0030286905855118
 50
43.9103825242186971
 51
86.9104770891804037
  0
ARC
  5
326AD
  8
0
 10
6885.2403442173908843
 20
216.7068089955527057
 30
0.0
 40
0.020213240747524
 50
91.6921281647856148
 51
126.5188834707088006
  0
ARC
  5
326AE
  8
0
 10
6885.2619842159137988
 20
216.6775843647282045
 30
0.0
 40
0.0565776269371782
 50
126.5188834707088006
 51
146.6773434419224884
  0
ARC
  5
326AF
  8
0
 10
6885.2959889950243451
 20
216.6552281462888061
 30
0.0
 40
0.0972731488670178
 50
146.6773434419224884
 51
169.1062666296897135
  0
ARC
  5
326B0
  8
0
 10
6885.3341510844202276
 20
216.6478836147971947
 30
0.0
 40
0.1361355627140465
 50
169.1062666296897135
 51
187.7879340464166944
  0
ARC
  5
326B1
  8
0
 10
6885.3002817063315888
 20
216.6432513533133886
 30
0.0
 40
0.1019508787376103
 50
187.7879340464166944
 51
206.9069221318501093
  0
ARC
  5
326B2
  8
0
 10
6885.2874760650111057
 20
216.6367527352587956
 30
0.0
 40
0.0875906389665835
 50
206.9069221318515019
 51
218.7268746017238925
  0
ARC
  5
326B3
  8
0
 10
6885.2511126017279821
 20
216.6075920934351018
 30
0.0
 40
0.0409790042221696
 50
218.7268746017251999
 51
240.3592923104770875
  0
ARC
  5
326B4
  8
0
 10
6885.2401637762768587
 20
216.5883505190811036
 30
0.0
 40
0.0188404640187502
 50
240.3592923104770875
 51
261.4866477127048938
  0
ARC
  5
326B5
  8
0
 10
6885.2398590607381266
 20
216.5863148650346091
 30
0.0
 40
0.0167821299939967
 50
261.4866477127048938
 51
269.6185801383346075
  0
ARC
  5
326B6
  8
0
 10
6885.2160723348315514
 20
216.5847885048063972
 30
0.0
 40
0.0237173897279034
 50
295.3651284386821771
 51
319.9734352351291022
  0
ARC
  5
326B7
  8
0
 10
6885.2186597987711139
 20
216.5793307480921044
 30
0.0
 40
0.017677350160056
 50
268.5403111062408925
 51
295.3651284386813813
  0
ARC
  5
326B8
  8
0
 10
6885.2186185583941551
 20
216.5777123291142914
 30
0.0
 40
0.0160584058261217
 50
250.9604295320712026
 51
268.5403111062408925
  0
ARC
  5
326B9
  8
0
 10
6885.2266125362139064
 20
216.5961708472451051
 30
0.0
 40
0.0361475378032514
 50
227.4694613718542087
 51
248.5264860157253111
  0
ARC
  5
326BA
  8
0
 10
6885.2742073038998569
 20
216.6416523571710115
 30
0.0
 40
0.1019288552769219
 50
199.0900443859854931
 51
225.0355178555020075
  0
ARC
  5
326BB
  8
0
 10
6885.2933302622768679
 20
216.6482705542429983
 30
0.0
 40
0.1221646668395876
 50
161.5188170530078935
 51
199.0900443859854931
  0
ARC
  5
326BC
  8
0
 10
6885.2768070249567245
 20
216.6537931186975925
 30
0.0
 40
0.1047429536720949
 50
137.0021142487865973
 51
161.5188170530078935
  0
ARC
  5
326BD
  8
0
 10
6885.2245026483096808
 20
216.7025641307002104
 30
0.0
 40
0.0332282039475488
 50
104.865132461431898
 51
137.0021142487865973
  0
ARC
  5
326BE
  8
0
 10
6885.2282743608502642
 20
216.7198527663319112
 30
0.0
 40
0.0205112037035476
 50
20.4865315446731806
 51
34.9535070262133232
  0
ARC
  5
326BF
  8
0
 10
6885.2386578204477701
 20
216.7271107933792109
 30
0.0
 40
0.0078425340870419
 50
34.9535070262266672
 51
82.5677003326437244
  0
LINE
  5
326C0
  8
0
 10
6885.2603498876178492
 20
216.7270134219128863
 30
0.0
 11
6885.2020005215963465
 21
216.7270134217118027
 31
0.0
  0
LINE
  5
326C1
  8
0
 10
6885.2396722884359406
 20
216.7348874376174024
 30
0.0
 11
6885.2159781302189003
 21
216.7346802657245917
 31
0.0
  0
LINE
  5
326C2
  8
0
 10
6885.2400335191396152
 20
216.5695351517537972
 30
0.0
 11
6885.2021774123913929
 21
216.5695331068552036
 31
0.0
  0
LINE
  5
326C3
  8
0
 10
6885.2053105661625523
 20
216.5669668995467134
 30
0.0
 11
6885.2077682032977464
 21
216.5695243276014992
 31
0.0
  0
ARC
  5
326C4
  8
0
 10
6885.1765960701577569
 20
216.7104608802841028
 30
0.0
 40
0.047803768700417
 50
20.2819051124511098
 51
24.5424307341927488
  0
ARC
  5
326C5
  8
0
 10
6885.2106353944691364
 20
216.7260039477675093
 30
0.0
 40
0.0103836865746228
 50
24.5424307341883008
 51
39.4336349635955798
  0
ARC
  5
326C6
  8
0
 10
6885.2127045389079285
 20
216.727705597380492
 30
0.0
 40
0.0077046998043582
 50
39.4336349635930716
 51
64.8567797208577304
  0
ARC
  5
326C7
  8
0
 10
6885.2434839340930921
 20
216.6241859040646034
 30
0.0
 40
0.0162038102744728
 50
218.2137057182517879
 51
242.3443149155081926
  0
ARC
  5
326C8
  8
0
 10
6885.2396624161865475
 20
216.6168932859511074
 30
0.0
 40
0.0079705680179446
 50
242.3443149155089031
 51
297.6436033121888158
  0
ARC
  5
326C9
  8
0
 10
6885.2388092240362312
 20
216.6185222714005079
 30
0.0
 40
0.0098094618265265
 50
297.6436033121880769
 51
318.7352057401541856
  0
ARC
  5
326CA
  8
0
 10
6885.2282968539129797
 20
216.6277461756401976
 30
0.0
 40
0.0237948232822051
 50
318.7352057401529919
 51
340.0757629299627069
  0
ARC
  5
326CB
  8
0
 10
6885.1849989791599
 20
216.6434405064894122
 30
0.0
 40
0.0698493342329013
 50
340.0757629299627069
 51
354.6520629185764051
  0
ARC
  5
326CC
  8
0
 10
6885.137196410884826
 20
216.6479153584872961
 30
0.0
 40
0.1178608936130048
 50
354.6520629185764051
 51
8.4036019393087127
  0
ARC
  5
326CD
  8
0
 10
6885.2001808489676478
 20
216.6572201370564983
 30
0.0
 40
0.0541928612518753
 50
8.4036019393119332
 51
20.4020985651792017
  0
ARC
  5
326CE
  8
0
 10
6885.2185825280430436
 20
216.6640644273846874
 30
0.0
 40
0.0345595705726468
 50
20.4020985651746187
 51
30.1480492318675815
  0
ARC
  5
326CF
  8
0
 10
6885.2345575089266276
 20
216.6733427072477127
 30
0.0
 40
0.0160856296973929
 50
30.1480492318633608
 51
52.5477498360046908
  0
ARC
  5
326D0
  8
0
 10
6885.2397240586324187
 20
216.6800875171975065
 30
0.0
 40
0.0075894130619543
 50
52.5477498360470534
 51
115.6966594044671979
  0
ARC
  5
326D1
  8
0
 10
6885.2435028954087102
 20
216.6722345026398102
 30
0.0
 40
0.0163043109405618
 50
115.6966594044671979
 51
142.3135006567449068
  0
ARC
  5
326D2
  8
0
 10
6885.2609839935748823
 20
216.6587301530450986
 30
0.0
 40
0.0383940427417261
 50
142.3135006567449068
 51
152.5829573682709963
  0
ARC
  5
326D3
  8
0
 10
6885.2694586168618116
 20
216.6543341270019027
 30
0.0
 40
0.0479409943418011
 50
152.5829573682709963
 51
168.8840627770937033
  0
ARC
  5
326D4
  8
0
 10
6885.2993884156121567
 20
216.6484534878385091
 30
0.0
 40
0.0784430396849811
 50
168.8840627770937033
 51
193.5913313780062026
  0
ARC
  5
326D5
  8
0
 10
6885.2641016906645746
 20
216.6399223816389963
 30
0.0
 40
0.0421396964451101
 50
193.5913313780077942
 51
217.6837313836290093
  0
LINE
  5
326D6
  8
0
 10
6885.2509741498561198
 20
216.676112114065603
 30
0.0
 11
6885.2269024288625587
 21
216.6764092215964013
 31
0.0
  0
ARC
  5
326D7
  8
0
 10
6885.0434062802223707
 20
216.3705409644325925
 30
0.0
 40
0.2435007086022863
 50
355.2277074714078253
 51
14.7734045535287493
  0
ARC
  5
326D8
  8
0
 10
6885.5137312065453443
 20
216.4116936627484904
 30
0.0
 40
0.2358054287396152
 50
174.9054930168202873
 51
195.0956190081249133
  0
LINE
  5
326D9
  8
0
 10
6885.2788573075231398
 20
216.4326329029804015
 30
0.0
 11
6885.2383164051525455
 21
216.4369241315172019
 31
0.0
  0
LINE
  5
326DA
  8
0
 10
6885.2860628225689652
 20
216.3502826933666086
 30
0.0
 11
6885.2374982709143296
 21
216.3363179875219942
 31
0.0
  0
ARC
  5
326DB
  8
0
 10
6885.1572385444305837
 20
216.3804986778860098
 30
0.0
 40
0.1275191789029027
 50
355.22643719775931
 51
14.7768446096592605
  0
ARC
  5
326DC
  8
0
 10
6885.4036382468593729
 20
216.4020629692597026
 30
0.0
 40
0.1235849806706267
 50
174.9120488219375034
 51
195.0912329854810139
  0
ARC
  5
326DD
  8
0
 10
6885.2764778926575673
 20
216.4232239056941012
 30
0.0
 40
0.0405462121064168
 50
141.4789903377736096
 51
160.2515270836109096
  0
ARC
  5
326DE
  8
0
 10
6885.3816515105008875
 20
216.3854658828996946
 30
0.0
 40
0.1522921658384436
 50
160.2515270836109096
 51
199.1409966271120879
  0
ARC
  5
326DF
  8
0
 10
6885.2823195447626858
 20
216.3509894888155998
 30
0.0
 40
0.0471472127190727
 50
199.1409966271120879
 51
217.0348649606658
  0
ARC
  5
326E0
  8
0
 10
6885.1920353586829151
 20
216.3498675112770115
 30
0.0
 40
0.062052298986833
 50
340.9535195946211843
 51
351.6917068796370245
  0
ARC
  5
326E1
  8
0
 10
6885.2343849418521131
 20
216.3352469408829108
 30
0.0
 40
0.0172499745697923
 50
325.6424814339064824
 51
340.9535195946413069
  0
ARC
  5
326E2
  8
0
 10
6885.2419998724053585
 20
216.330041177971907
 30
0.0
 40
0.0080257057737592
 50
296.8213828412461908
 51
325.6424814339039244
  0
ARC
  5
326E3
  8
0
 10
6885.244327941802112
 20
216.3254366546354106
 30
0.0
 40
0.0028660989791958
 50
277.1238394459305141
 51
296.8213828412992825
  0
ARC
  5
326E4
  8
0
 10
6885.2101829379216724
 20
216.4263742544692946
 30
0.0
 40
0.0432187538732543
 50
12.0934666406823794
 51
21.9017578525359191
  0
ARC
  5
326E5
  8
0
 10
6885.2358058151767182
 20
216.4366754982505938
 30
0.0
 40
0.0156026813375438
 50
21.9017578525359191
 51
37.3524296985672919
  0
ARC
  5
326E6
  8
0
 10
6885.2430121768447862
 20
216.4421757032083065
 30
0.0
 40
0.0065371475389378
 50
37.3524296985646913
 51
74.5345565805357637
  0
ARC
  5
326E7
  8
0
 10
6885.0418306827041306
 20
216.1176038170484048
 30
0.0
 40
0.2435007086022863
 50
355.2277074714078253
 51
14.7734045535287493
  0
ARC
  5
326E8
  8
0
 10
6885.5121556090271042
 20
216.1587565153643027
 30
0.0
 40
0.2358054287396152
 50
174.9054930168202873
 51
195.0956190081249133
  0
LINE
  5
326E9
  8
0
 10
6885.2772817100058091
 20
216.1796957555962138
 30
0.0
 11
6885.2367408076343054
 21
216.1839869841330994
 31
0.0
  0
LINE
  5
326EA
  8
0
 10
6885.2844872250498156
 20
216.0973455459825061
 30
0.0
 11
6885.235922673396999
 21
216.0833808401378917
 31
0.0
  0
ARC
  5
326EB
  8
0
 10
6885.1556629469141626
 20
216.1275615305019073
 30
0.0
 40
0.1275191789029027
 50
355.22643719775931
 51
14.7768446096592605
  0
ARC
  5
326EC
  8
0
 10
6885.4020626493402233
 20
216.1491258218754865
 30
0.0
 40
0.1235849806706267
 50
174.9120488219375034
 51
195.0912329854810139
  0
ARC
  5
326ED
  8
0
 10
6885.2749022951402367
 20
216.1702867583099987
 30
0.0
 40
0.0405462121064168
 50
141.4789903377736096
 51
160.2515270836109096
  0
ARC
  5
326EE
  8
0
 10
6885.3800759129826474
 20
216.1325287355155069
 30
0.0
 40
0.1522921658384436
 50
160.2515270836109096
 51
199.1409966271120879
  0
ARC
  5
326EF
  8
0
 10
6885.2807439472453552
 20
216.0980523414314973
 30
0.0
 40
0.0471472127190727
 50
199.1409966271120879
 51
217.0348649606658
  0
ARC
  5
326F0
  8
0
 10
6885.1904597611655845
 20
216.0969303638929091
 30
0.0
 40
0.062052298986833
 50
340.9535195946211843
 51
351.6917068796370245
  0
ARC
  5
326F1
  8
0
 10
6885.232809344333873
 20
216.0823097934986947
 30
0.0
 40
0.0172499745697923
 50
325.6424814339064824
 51
340.9535195946413069
  0
ARC
  5
326F2
  8
0
 10
6885.2404242748871184
 20
216.0771040305878046
 30
0.0
 40
0.0080257057737592
 50
296.8213828412461908
 51
325.6424814339039244
  0
ARC
  5
326F3
  8
0
 10
6885.2427523442856909
 20
216.0724995072511945
 30
0.0
 40
0.0028660989791958
 50
277.1238394459305141
 51
296.8213828412992825
  0
ARC
  5
326F4
  8
0
 10
6885.2086073404043418
 20
216.1734371070851068
 30
0.0
 40
0.0432187538732543
 50
12.0934666406823794
 51
21.9017578525359191
  0
ARC
  5
326F5
  8
0
 10
6885.2342302176612066
 20
216.1837383508664914
 30
0.0
 40
0.0156026813375438
 50
21.9017578525359191
 51
37.3524296985672919
  0
ARC
  5
326F6
  8
0
 10
6885.2414365793265461
 20
216.1892385558240903
 30
0.0
 40
0.0065371475389378
 50
37.3524296985646913
 51
74.5345565805357637
  0
ARC
  5
326F7
  8
0
 10
6885.0399174671247238
 20
215.8660142737120964
 30
0.0
 40
0.2435007086022863
 50
355.2277074714078253
 51
14.7734045535287493
  0
ARC
  5
326F8
  8
0
 10
6885.5102423934476974
 20
215.9071669720279942
 30
0.0
 40
0.2358054287396152
 50
174.9054930168202873
 51
195.0956190081249133
  0
LINE
  5
326F9
  8
0
 10
6885.2753684944273118
 20
215.9281062122599053
 30
0.0
 11
6885.2348275920567175
 21
215.932397440796791
 31
0.0
  0
LINE
  5
326FA
  8
0
 10
6885.2825740094722278
 20
215.8457560026461977
 30
0.0
 11
6885.2340094578175922
 21
215.8317912968016117
 31
0.0
  0
ARC
  5
326FB
  8
0
 10
6885.1537497313356653
 20
215.8759719871655989
 30
0.0
 40
0.1275191789029027
 50
355.22643719775931
 51
14.7768446096592605
  0
ARC
  5
326FC
  8
0
 10
6885.400149433761726
 20
215.8975362785392065
 30
0.0
 40
0.1235849806706267
 50
174.9120488219375034
 51
195.0912329854810139
  0
ARC
  5
326FD
  8
0
 10
6885.2729890795608299
 20
215.9186972149736903
 30
0.0
 40
0.0405462121064168
 50
141.4789903377736096
 51
160.2515270836109096
  0
ARC
  5
326FE
  8
0
 10
6885.3781626974050596
 20
215.8809391921793122
 30
0.0
 40
0.1522921658384436
 50
160.2515270836109096
 51
199.1409966271120879
  0
ARC
  5
326FF
  8
0
 10
6885.2788307316659484
 20
215.8464627980951889
 30
0.0
 40
0.0471472127190727
 50
199.1409966271120879
 51
217.0348649606658
  0
ARC
  5
32700
  8
0
 10
6885.1885465455879967
 20
215.8453408205566006
 30
0.0
 40
0.062052298986833
 50
340.9535195946211843
 51
351.6917068796370245
  0
ARC
  5
32701
  8
0
 10
6885.2308961287562852
 20
215.8307202501623863
 30
0.0
 40
0.0172499745697923
 50
325.6424814339064824
 51
340.9535195946413069
  0
ARC
  5
32702
  8
0
 10
6885.238511059308621
 20
215.8255144872514961
 30
0.0
 40
0.0080257057737592
 50
296.8213828412461908
 51
325.6424814339039244
  0
ARC
  5
32703
  8
0
 10
6885.2408391287071936
 20
215.8209099639149997
 30
0.0
 40
0.0028660989791958
 50
277.1238394459305141
 51
296.8213828412992825
  0
ARC
  5
32704
  8
0
 10
6885.206694124824935
 20
215.9218475637489121
 30
0.0
 40
0.0432187538732543
 50
12.0934666406823794
 51
21.9017578525359191
  0
ARC
  5
32705
  8
0
 10
6885.2323170020817997
 20
215.9321488075302113
 30
0.0
 40
0.0156026813375438
 50
21.9017578525359191
 51
37.3524296985672919
  0
ARC
  5
32706
  8
0
 10
6885.2395233637498677
 20
215.9376490124878103
 30
0.0
 40
0.0065371475389378
 50
37.3524296985646913
 51
74.5345565805357637
  0
ARC
  5
32707
  8
0
 10
6885.0397856144090838
 20
215.613718393236212
 30
0.0
 40
0.2435007086022863
 50
355.2277074714078253
 51
14.7734045535287493
  0
ARC
  5
32708
  8
0
 10
6885.5101105407329669
 20
215.6548710915521099
 30
0.0
 40
0.2358054287396152
 50
174.9054930168202873
 51
195.0956190081249133
  0
LINE
  5
32709
  8
0
 10
6885.2752366417098528
 20
215.6758103317839925
 30
0.0
 11
6885.2346957393410776
 21
215.6801015603207929
 31
0.0
  0
LINE
  5
3270A
  8
0
 10
6885.2824421567538593
 20
215.5934601221701996
 30
0.0
 11
6885.2338776051010427
 21
215.5794954163256989
 31
0.0
  0
ARC
  5
3270B
  8
0
 10
6885.1536178786191158
 20
215.6236761066896008
 30
0.0
 40
0.1275191789029027
 50
355.22643719775931
 51
14.7768446096592605
  0
ARC
  5
3270C
  8
0
 10
6885.4000175810469955
 20
215.6452403980632937
 30
0.0
 40
0.1235849806706267
 50
174.9120488219375034
 51
195.0912329854810139
  0
ARC
  5
3270D
  8
0
 10
6885.2728572268442804
 20
215.6664013344976922
 30
0.0
 40
0.0405462121064168
 50
141.4789903377736096
 51
160.2515270836109096
  0
ARC
  5
3270E
  8
0
 10
6885.3780308446876006
 20
215.6286433117033141
 30
0.0
 40
0.1522921658384436
 50
160.2515270836109096
 51
199.1409966271120879
  0
ARC
  5
3270F
  8
0
 10
6885.2786988789475799
 20
215.5941669176193045
 30
0.0
 40
0.0471472127190727
 50
199.1409966271120879
 51
217.0348649606658
  0
ARC
  5
32710
  8
0
 10
6885.1884146928714472
 20
215.5930449400806026
 30
0.0
 40
0.062052298986833
 50
340.9535195946211843
 51
351.6917068796370245
  0
ARC
  5
32711
  8
0
 10
6885.2307642760388262
 20
215.5784243696865019
 30
0.0
 40
0.0172499745697923
 50
325.6424814339064824
 51
340.9535195946413069
  0
ARC
  5
32712
  8
0
 10
6885.2383792065938906
 20
215.5732186067754981
 30
0.0
 40
0.0080257057737592
 50
296.8213828412461908
 51
325.6424814339039244
  0
ARC
  5
32713
  8
0
 10
6885.2407072759897346
 20
215.5686140834390017
 30
0.0
 40
0.0028660989791958
 50
277.1238394459305141
 51
296.8213828412992825
  0
ARC
  5
32714
  8
0
 10
6885.206562272109295
 20
215.669551683272914
 30
0.0
 40
0.0432187538732543
 50
12.0934666406823794
 51
21.9017578525359191
  0
ARC
  5
32715
  8
0
 10
6885.2321851493661597
 20
215.6798529270542133
 30
0.0
 40
0.0156026813375438
 50
21.9017578525359191
 51
37.3524296985672919
  0
ARC
  5
32716
  8
0
 10
6885.2393915110324087
 20
215.6853531320118975
 30
0.0
 40
0.0065371475389378
 50
37.3524296985646913
 51
74.5345565805357637
  0
ARC
  5
32717
  8
0
 10
6885.0340954860830607
 20
215.3605683989835882
 30
0.0
 40
0.2435007086022863
 50
355.2277074714078253
 51
14.7734045535287493
  0
ARC
  5
32718
  8
0
 10
6885.5044204124042153
 20
215.4017210972994008
 30
0.0
 40
0.2358054287396152
 50
174.9054930168202873
 51
195.0956190081249133
  0
LINE
  5
32719
  8
0
 10
6885.2695465133829202
 20
215.4226603375313118
 30
0.0
 11
6885.2290056110132355
 21
215.4269515660681975
 31
0.0
  0
LINE
  5
3271A
  8
0
 10
6885.2767520284278362
 20
215.3403101279176894
 30
0.0
 11
6885.2281874767741101
 21
215.3263454220729898
 31
0.0
  0
ARC
  5
3271B
  8
0
 10
6885.1479277502921832
 20
215.3705261124370054
 30
0.0
 40
0.1275191789029027
 50
355.22643719775931
 51
14.7768446096592605
  0
ARC
  5
3271C
  8
0
 10
6885.3943274527182439
 20
215.392090403810613
 30
0.0
 40
0.1235849806706267
 50
174.9120488219375034
 51
195.0912329854810139
  0
ARC
  5
3271D
  8
0
 10
6885.2671670985182573
 20
215.4132513402450968
 30
0.0
 40
0.0405462121064168
 50
141.4789903377736096
 51
160.2515270836109096
  0
ARC
  5
3271E
  8
0
 10
6885.3723407163615775
 20
215.3754933174506903
 30
0.0
 40
0.1522921658384436
 50
160.2515270836109096
 51
199.1409966271120879
  0
ARC
  5
3271F
  8
0
 10
6885.2730087506233758
 20
215.3410169233665954
 30
0.0
 40
0.0471472127190727
 50
199.1409966271120879
 51
217.0348649606658
  0
ARC
  5
32720
  8
0
 10
6885.1827245645426956
 20
215.3398949458280072
 30
0.0
 40
0.062052298986833
 50
340.9535195946211843
 51
351.6917068796370245
  0
ARC
  5
32721
  8
0
 10
6885.2250741477118936
 20
215.3252743754337928
 30
0.0
 40
0.0172499745697923
 50
325.6424814339064824
 51
340.9535195946413069
  0
ARC
  5
32722
  8
0
 10
6885.2326890782642295
 20
215.3200686125229026
 30
0.0
 40
0.0080257057737592
 50
296.8213828412461908
 51
325.6424814339039244
  0
ARC
  5
32723
  8
0
 10
6885.235017147662802
 20
215.3154640891862925
 30
0.0
 40
0.0028660989791958
 50
277.1238394459305141
 51
296.8213828412992825
  0
ARC
  5
32724
  8
0
 10
6885.2008721437832719
 20
215.4164016890202049
 30
0.0
 40
0.0432187538732543
 50
12.0934666406823794
 51
21.9017578525359191
  0
ARC
  5
32725
  8
0
 10
6885.2264950210355892
 20
215.4267029328015042
 30
0.0
 40
0.0156026813375438
 50
21.9017578525359191
 51
37.3524296985672919
  0
ARC
  5
32726
  8
0
 10
6885.2337013827063856
 20
215.4322031377593021
 30
0.0
 40
0.0065371475389378
 50
37.3524296985646913
 51
74.5345565805357637
  0
ARC
  5
32727
  8
0
 10
6885.0310207605280084
 20
215.1093695912722126
 30
0.0
 40
0.2435007086022863
 50
355.2277074714078253
 51
14.7734045535287493
  0
ARC
  5
32728
  8
0
 10
6885.501345686850982
 20
215.1505222895879967
 30
0.0
 40
0.2358054287396152
 50
174.9054930168202873
 51
195.0956190081249133
  0
LINE
  5
32729
  8
0
 10
6885.2664717878287775
 20
215.1714615298199931
 30
0.0
 11
6885.2259308854600022
 21
215.1757527583567082
 31
0.0
  0
LINE
  5
3272A
  8
0
 10
6885.2736773028746029
 20
215.0891113202062002
 30
0.0
 11
6885.2251127512199673
 21
215.0751466143616142
 31
0.0
  0
ARC
  5
3272B
  8
0
 10
6885.1448530247380404
 20
215.1193273047256014
 30
0.0
 40
0.1275191789029027
 50
355.22643719775931
 51
14.7768446096592605
  0
ARC
  5
3272C
  8
0
 10
6885.3912527271641011
 20
215.140891596099209
 30
0.0
 40
0.1235849806706267
 50
174.9120488219375034
 51
195.0912329854810139
  0
ARC
  5
3272D
  8
0
 10
6885.264092372965024
 20
215.1620525325336928
 30
0.0
 40
0.0405462121064168
 50
141.4789903377736096
 51
160.2515270836109096
  0
ARC
  5
3272E
  8
0
 10
6885.3692659908074347
 20
215.1242945097392862
 30
0.0
 40
0.1522921658384436
 50
160.2515270836109096
 51
199.1409966271120879
  0
ARC
  5
3272F
  8
0
 10
6885.269934025069233
 20
215.0898181156551914
 30
0.0
 40
0.0471472127190727
 50
199.1409966271120879
 51
217.0348649606658
  0
ARC
  5
32730
  8
0
 10
6885.1796498389903718
 20
215.0886961381166032
 30
0.0
 40
0.062052298986833
 50
340.9535195946211843
 51
351.6917068796370245
  0
ARC
  5
32731
  8
0
 10
6885.2219994221577508
 20
215.0740755677225025
 30
0.0
 40
0.0172499745697923
 50
325.6424814339064824
 51
340.9535195946413069
  0
ARC
  5
32732
  8
0
 10
6885.2296143527128152
 20
215.0688698048114986
 30
0.0
 40
0.0080257057737592
 50
296.8213828412461908
 51
325.6424814339039244
  0
ARC
  5
32733
  8
0
 10
6885.2319424221086592
 20
215.0642652814748885
 30
0.0
 40
0.0028660989791958
 50
277.1238394459305141
 51
296.8213828412992825
  0
ARC
  5
32734
  8
0
 10
6885.1977974182291291
 20
215.1652028813088862
 30
0.0
 40
0.0432187538732543
 50
12.0934666406823794
 51
21.9017578525359191
  0
ARC
  5
32735
  8
0
 10
6885.2234202954850844
 20
215.1755041250902138
 30
0.0
 40
0.0156026813375438
 50
21.9017578525359191
 51
37.3524296985672919
  0
ARC
  5
32736
  8
0
 10
6885.2306266571513333
 20
215.1810043300478128
 30
0.0
 40
0.0065371475389378
 50
37.3524296985646913
 51
74.5345565805357637
  0
ARC
  5
32737
  8
0
 10
6885.0310207605280084
 20
214.8574010873057887
 30
0.0
 40
0.2435007086022863
 50
355.2277074714078253
 51
14.7734045535287493
  0
ARC
  5
32738
  8
0
 10
6885.501345686850982
 20
214.8985537856216865
 30
0.0
 40
0.2358054287396152
 50
174.9054930168202873
 51
195.0956190081249133
  0
LINE
  5
32739
  8
0
 10
6885.2664717878287775
 20
214.9194930258535976
 30
0.0
 11
6885.2259308854600022
 21
214.9237842543905117
 31
0.0
  0
LINE
  5
3273A
  8
0
 10
6885.2736773028746029
 20
214.83714281623989
 30
0.0
 11
6885.2251127512199673
 21
214.823178110395304
 31
0.0
  0
ARC
  5
3273B
  8
0
 10
6885.1448530247380404
 20
214.8673588007592912
 30
0.0
 40
0.1275191789029027
 50
355.22643719775931
 51
14.7768446096592605
  0
ARC
  5
3273C
  8
0
 10
6885.3912527271641011
 20
214.8889230921328988
 30
0.0
 40
0.1235849806706267
 50
174.9120488219375034
 51
195.0912329854810139
  0
ARC
  5
3273D
  8
0
 10
6885.264092372965024
 20
214.910084028567411
 30
0.0
 40
0.0405462121064168
 50
141.4789903377736096
 51
160.2515270836109096
  0
ARC
  5
3273E
  8
0
 10
6885.3692659908074347
 20
214.8723260057728908
 30
0.0
 40
0.1522921658384436
 50
160.2515270836109096
 51
199.1409966271120879
  0
ARC
  5
3273F
  8
0
 10
6885.269934025069233
 20
214.8378496116889096
 30
0.0
 40
0.0471472127190727
 50
199.1409966271120879
 51
217.0348649606658
  0
ARC
  5
32740
  8
0
 10
6885.1796498389903718
 20
214.8367276341502929
 30
0.0
 40
0.062052298986833
 50
340.9535195946211843
 51
351.6917068796370245
  0
ARC
  5
32741
  8
0
 10
6885.2219994221577508
 20
214.822107063756107
 30
0.0
 40
0.0172499745697923
 50
325.6424814339064824
 51
340.9535195946413069
  0
ARC
  5
32742
  8
0
 10
6885.2296143527128152
 20
214.8169013008451032
 30
0.0
 40
0.0080257057737592
 50
296.8213828412461908
 51
325.6424814339039244
  0
ARC
  5
32743
  8
0
 10
6885.2319424221086592
 20
214.812296777508692
 30
0.0
 40
0.0028660989791958
 50
277.1238394459305141
 51
296.8213828412992825
  0
ARC
  5
32744
  8
0
 10
6885.1977974182291291
 20
214.9132343773424907
 30
0.0
 40
0.0432187538732543
 50
12.0934666406823794
 51
21.9017578525359191
  0
ARC
  5
32745
  8
0
 10
6885.2234202954850844
 20
214.9235356211239036
 30
0.0
 40
0.0156026813375438
 50
21.9017578525359191
 51
37.3524296985672919
  0
ARC
  5
32746
  8
0
 10
6885.2306266571513333
 20
214.9290358260815026
 30
0.0
 40
0.0065371475389378
 50
37.3524296985646913
 51
74.5345565805357637
  0
LINE
  5
32747
  8
0
 10
6885.2622354870727577
 20
216.3106020117774904
 30
0.0
 11
6885.2924722526422556
 21
216.307423999646403
 31
0.0
  0
LINE
  5
32748
  8
0
 10
6885.2924722526422556
 20
216.307423999646403
 30
0.0
 11
6885.2996780424691678
 21
216.2250614459281053
 31
0.0
  0
LINE
  5
32749
  8
0
 10
6885.2996780424691678
 20
216.2250614459281053
 30
0.0
 11
6885.2618612203350494
 21
216.2142176466672936
 31
0.0
  0
ARC
  5
3274A
  8
0
 10
6885.7958066969531501
 20
216.2603372109780082
 30
0.0
 40
0.5359335651114608
 50
172.4015635768043069
 51
187.5984364206406099
  0
LINE
  5
3274B
  8
0
 10
6885.2617754264319956
 20
216.0564389988219887
 30
0.0
 11
6885.292012192002403
 21
216.0532609866909013
 31
0.0
  0
LINE
  5
3274C
  8
0
 10
6885.292012192002403
 20
216.0532609866909013
 30
0.0
 11
6885.2992179818265868
 21
215.9708984329726889
 31
0.0
  0
LINE
  5
3274D
  8
0
 10
6885.2992179818265868
 20
215.9708984329726889
 30
0.0
 11
6885.2614011596942873
 21
215.9600546337117066
 31
0.0
  0
ARC
  5
3274E
  8
0
 10
6885.7953466363132975
 20
216.0061741980225065
 30
0.0
 40
0.5359335651114608
 50
173.0070881103058866
 51
186.992911890584395
  0
LINE
  5
3274F
  8
0
 10
6885.2624955659694024
 20
215.8030381624598988
 30
0.0
 11
6885.2927323315389003
 21
215.7998601503288114
 31
0.0
  0
LINE
  5
32750
  8
0
 10
6885.2927323315389003
 20
215.7998601503288114
 30
0.0
 11
6885.2999381213649031
 21
215.717497596610599
 31
0.0
  0
LINE
  5
32751
  8
0
 10
6885.2999381213649031
 20
215.717497596610599
 30
0.0
 11
6885.2621212992307846
 21
215.7066537973495883
 31
0.0
  0
ARC
  5
32752
  8
0
 10
6885.7960667758488853
 20
215.7527733616603882
 30
0.0
 40
0.5359335651114608
 50
173.6708152057807979
 51
186.3291847951159923
  0
LINE
  5
32753
  8
0
 10
6885.2546007654600544
 20
215.549624751405787
 30
0.0
 11
6885.2848375310295523
 21
215.546446739274586
 31
0.0
  0
LINE
  5
32754
  8
0
 10
6885.2848375310295523
 20
215.546446739274586
 30
0.0
 11
6885.2920433208555551
 21
215.464084185556402
 31
0.0
  0
LINE
  5
32755
  8
0
 10
6885.2920433208555551
 20
215.464084185556402
 30
0.0
 11
6885.2542264987223462
 21
215.453240386295505
 31
0.0
  0
ARC
  5
32756
  8
0
 10
6885.7881719753413563
 20
215.4993599506063049
 30
0.0
 40
0.5359335651114608
 50
174.6183628759202975
 51
185.5867905816103018
  0
LINE
  5
32757
  8
0
 10
6885.254784163768818
 20
215.2962552849851932
 30
0.0
 11
6885.2855587689864478
 21
215.2930207436290004
 31
0.0
  0
LINE
  5
32758
  8
0
 10
6885.2855587689864478
 20
215.2930207436290004
 30
0.0
 11
6885.2927645588124506
 21
215.210658189910788
 31
0.0
  0
LINE
  5
32759
  8
0
 10
6885.2927645588124506
 20
215.210658189910788
 30
0.0
 11
6885.254784163768818
 21
215.1997674868725028
 31
0.0
  0
ARC
  5
3275A
  8
0
 10
6885.7888932132982518
 20
215.2459339549606057
 30
0.0
 40
0.5359335651114608
 50
175.2708920772386136
 51
184.7291079236534017
  0
LINE
  5
3275B
  8
0
 10
6885.2547841637697275
 20
215.0443689053676906
 30
0.0
 11
6885.2862802267827647
 21
215.041058535741513
 31
0.0
  0
LINE
  5
3275C
  8
0
 10
6885.2862802267827647
 20
215.041058535741513
 30
0.0
 11
6885.2934860166087674
 21
214.9586959820231868
 31
0.0
  0
LINE
  5
3275D
  8
0
 10
6885.2934860166087674
 20
214.9586959820231868
 30
0.0
 11
6885.2547841637697275
 21
214.9475984042913979
 31
0.0
  0
ARC
  5
3275E
  8
0
 10
6885.7896146710936591
 20
214.9939717470730898
 30
0.0
 40
0.5359335651114608
 50
176.3233202678202076
 51
183.676679733073712
  0
LINE
  5
3275F
  8
0
 10
6885.254784163770637
 20
214.7924699336558092
 30
0.0
 11
6885.2870016845090504
 21
214.7890837357670932
 31
0.0
  0
LINE
  5
32760
  8
0
 10
6885.2870016845090504
 20
214.7890837357670932
 30
0.0
 11
6885.2942074743341436
 21
214.7067211820489092
 31
0.0
  0
LINE
  5
32761
  8
0
 10
6885.2942074743341436
 20
214.7067211820489092
 30
0.0
 11
6885.2547841637733654
 21
214.6954167296435969
 31
0.0
  0
ARC
  5
32762
  8
0
 10
6885.119066096329334
 20
216.2553641475884092
 30
0.0
 40
0.1270083837756394
 50
346.01594458731131
 51
23.9816950196289795
  0
ARC
  5
32763
  8
0
 10
6885.3496067780006342
 20
216.275529058626887
 30
0.0
 40
0.1187389289363926
 50
164.6374684459536013
 51
205.3601711609717029
  0
ARC
  5
32764
  8
0
 10
6885.1771512498098673
 20
216.2602612669651023
 30
0.0
 40
0.0653211345161105
 50
345.7808774815867991
 51
24.5282599814886204
  0
ARC
  5
32765
  8
0
 10
6885.2976456397136644
 20
216.2711307880574907
 30
0.0
 40
0.0631926081771662
 50
165.1008122458320031
 51
205.2083252172400023
  0
LINE
  5
32766
  8
0
 10
6885.2351105266079685
 20
216.3069860397557136
 30
0.0
 11
6885.1788462158192488
 21
216.3130696856973998
 31
0.0
  0
LINE
  5
32767
  8
0
 10
6885.2423103341689057
 20
216.2246723345296004
 30
0.0
 11
6885.1790447185076118
 21
216.2065053454809913
 31
0.0
  0
ARC
  5
32768
  8
0
 10
6885.1859278824003923
 20
216.2912585660446041
 30
0.0
 40
0.0357242831455581
 50
29.680738967773479
 51
46.4832740533453972
  0
ARC
  5
32769
  8
0
 10
6885.1961276203292073
 20
216.3020005651409861
 30
0.0
 40
0.0209112754015378
 50
46.4832740533465198
 51
76.657001312960972
  0
ARC
  5
3276A
  8
0
 10
6885.19675776281656
 20
216.3046573480478116
 30
0.0
 40
0.0181807855243246
 50
76.6570013129606025
 51
105.5865304538909015
  0
ARC
  5
3276B
  8
0
 10
6885.1999504123468796
 20
216.298792901196208
 30
0.0
 40
0.024732913340892
 50
109.0623839183174937
 51
122.3003928070881017
  0
ARC
  5
3276C
  8
0
 10
6885.2086646372390533
 20
216.285595287899497
 30
0.0
 40
0.040546032982201
 50
122.7434303836339069
 51
137.3428381153997009
  0
ARC
  5
3276D
  8
0
 10
6885.234969365102188
 20
216.2637237272525113
 30
0.0
 40
0.0747317302128163
 50
138.6766340336276926
 51
167.9473828701160869
  0
ARC
  5
3276E
  8
0
 10
6885.2472763658961412
 20
216.2599641986442123
 30
0.0
 40
0.0875594612742304
 50
167.223092839336914
 51
198.5828334700906908
  0
ARC
  5
3276F
  8
0
 10
6885.2305739822513715
 20
216.2533406439299881
 30
0.0
 40
0.0696236688423296
 50
197.7964191771559967
 51
222.4287185505870923
  0
ARC
  5
32770
  8
0
 10
6885.5964473599169651
 20
216.6496715361658971
 30
0.0
 40
0.6087919012542948
 50
226.7332060944667944
 51
227.2324972113667059
  0
ARC
  5
32771
  8
0
 10
6885.1982024601447847
 20
216.2191165716988053
 30
0.0
 40
0.0222967370620676
 50
227.232497211364489
 51
264.826157261241292
  0
ARC
  5
32772
  8
0
 10
6885.1974971629697393
 20
216.2113272639834065
 30
0.0
 40
0.0144755633144366
 50
264.826157261241292
 51
298.7798861816023077
  0
ARC
  5
32773
  8
0
 10
6885.188192766731845
 20
216.2282659806600975
 30
0.0
 40
0.0338015021535342
 50
298.7798861816023077
 51
343.0605305373596252
  0
LINE
  5
32774
  8
0
 10
6885.188331661893244
 20
216.2091721305432088
 30
0.0
 11
6885.1830624175281628
 21
216.2027482000812029
 31
0.0
  0
LINE
  5
32775
  8
0
 10
6885.1830745904053401
 20
216.3170457297655105
 30
0.0
 11
6885.1871383198604235
 21
216.3121759704671945
 31
0.0
  0
ARC
  5
32776
  8
0
 10
6885.1167465404560062
 20
216.004135477916293
 30
0.0
 40
0.1270083837756394
 50
346.01594458731131
 51
23.9816950196289795
  0
ARC
  5
32777
  8
0
 10
6885.347287222126397
 20
216.0243003889547992
 30
0.0
 40
0.1187389289363926
 50
164.6374684459536013
 51
205.3601711609717029
  0
ARC
  5
32778
  8
0
 10
6885.1748316939347205
 20
216.0090325972929861
 30
0.0
 40
0.0653211345161105
 50
345.7808774815867991
 51
24.5282599814886204
  0
ARC
  5
32779
  8
0
 10
6885.2953260838394272
 20
216.0199021183854029
 30
0.0
 40
0.0631926081771662
 50
165.1008122458320031
 51
205.2083252172400023
  0
LINE
  5
3277A
  8
0
 10
6885.2327909707319122
 20
216.0557573700835974
 30
0.0
 11
6885.176526659944102
 21
216.061841016025312
 31
0.0
  0
LINE
  5
3277B
  8
0
 10
6885.2399907782937589
 20
215.973443664857399
 30
0.0
 11
6885.1767251626333746
 21
215.9552766758089035
 31
0.0
  0
ARC
  5
3277C
  8
0
 10
6885.183608326524336
 20
216.0400298963724026
 30
0.0
 40
0.0357242831455581
 50
29.680738967773479
 51
46.4832740533453972
  0
ARC
  5
3277D
  8
0
 10
6885.1938080644540605
 20
216.0507718954688983
 30
0.0
 40
0.0209112754015378
 50
46.4832740533465198
 51
76.657001312960972
  0
ARC
  5
3277E
  8
0
 10
6885.1944382069423227
 20
216.0534286783756954
 30
0.0
 40
0.0181807855243246
 50
76.6570013129606025
 51
105.5865304538909015
  0
ARC
  5
3277F
  8
0
 10
6885.1976308564708233
 20
216.0475642315240066
 30
0.0
 40
0.024732913340892
 50
109.0623839183174937
 51
122.3003928070881017
  0
ARC
  5
32780
  8
0
 10
6885.2063450813639065
 20
216.0343666182274092
 30
0.0
 40
0.040546032982201
 50
122.7434303836339069
 51
137.3428381153997009
  0
ARC
  5
32781
  8
0
 10
6885.2326498092270413
 20
216.012495057580395
 30
0.0
 40
0.0747317302128163
 50
138.6766340336276926
 51
167.9473828701160869
  0
ARC
  5
32782
  8
0
 10
6885.2449568100209945
 20
216.0087355289720961
 30
0.0
 40
0.0875594612742304
 50
167.223092839336914
 51
198.5828334700906908
  0
ARC
  5
32783
  8
0
 10
6885.2282544263762247
 20
216.0021119742577866
 30
0.0
 40
0.0696236688423296
 50
197.7964191771559967
 51
222.4287185505870923
  0
ARC
  5
32784
  8
0
 10
6885.5941278040418183
 20
216.3984428664936956
 30
0.0
 40
0.6087919012542948
 50
226.7332060944667944
 51
227.2324972113667059
  0
ARC
  5
32785
  8
0
 10
6885.1958829042696379
 20
215.9678879020266038
 30
0.0
 40
0.0222967370620676
 50
227.232497211364489
 51
264.826157261241292
  0
ARC
  5
32786
  8
0
 10
6885.1951776070964115
 20
215.960098594311205
 30
0.0
 40
0.0144755633144366
 50
264.826157261241292
 51
298.7798861816023077
  0
ARC
  5
32787
  8
0
 10
6885.1858732108566983
 20
215.977037310987896
 30
0.0
 40
0.0338015021535342
 50
298.7798861816023077
 51
343.0605305373596252
  0
LINE
  5
32788
  8
0
 10
6885.1860121060199162
 20
215.9579434608710073
 30
0.0
 11
6885.1807428616539255
 21
215.9515195304090014
 31
0.0
  0
LINE
  5
32789
  8
0
 10
6885.1807550345301934
 20
216.0658170600933943
 30
0.0
 11
6885.1848187639852767
 21
216.0609473007951067
 31
0.0
  0
ARC
  5
3278A
  8
0
 10
6885.1172290614977101
 20
215.748187718613508
 30
0.0
 40
0.1270083837756394
 50
346.01594458731131
 51
23.9816950196289795
  0
ARC
  5
3278B
  8
0
 10
6885.3477697431690103
 20
215.7683526296520995
 30
0.0
 40
0.1187389289363926
 50
164.6374684459536013
 51
205.3601711609717029
  0
ARC
  5
3278C
  8
0
 10
6885.1753142149791529
 20
215.7530848379902011
 30
0.0
 40
0.0653211345161105
 50
345.7808774815867991
 51
24.5282599814886204
  0
ARC
  5
3278D
  8
0
 10
6885.29580860488295
 20
215.7639543590827031
 30
0.0
 40
0.0631926081771662
 50
165.1008122458320031
 51
205.2083252172400023
  0
LINE
  5
3278E
  8
0
 10
6885.2332734917754351
 20
215.7998096107808976
 30
0.0
 11
6885.1770091809876249
 21
215.8058932567224986
 31
0.0
  0
LINE
  5
3278F
  8
0
 10
6885.2404732993372818
 20
215.7174959055546992
 30
0.0
 11
6885.1772076836768974
 21
215.6993289165060901
 31
0.0
  0
ARC
  5
32790
  8
0
 10
6885.1840908475678589
 20
215.7840821370697029
 30
0.0
 40
0.0357242831455581
 50
29.680738967773479
 51
46.4832740533453972
  0
ARC
  5
32791
  8
0
 10
6885.1942905854994024
 20
215.7948241361661132
 30
0.0
 40
0.0209112754015378
 50
46.4832740533465198
 51
76.657001312960972
  0
ARC
  5
32792
  8
0
 10
6885.1949207279858456
 20
215.7974809190729957
 30
0.0
 40
0.0181807855243246
 50
76.6570013129606025
 51
105.5865304538909015
  0
ARC
  5
32793
  8
0
 10
6885.1981133775161652
 20
215.7916164722213068
 30
0.0
 40
0.024732913340892
 50
109.0623839183174937
 51
122.3003928070881017
  0
ARC
  5
32794
  8
0
 10
6885.2068276024074294
 20
215.7784188589247094
 30
0.0
 40
0.040546032982201
 50
122.7434303836339069
 51
137.3428381153997009
  0
ARC
  5
32795
  8
0
 10
6885.2331323302687451
 20
215.7565472982776953
 30
0.0
 40
0.0747317302128163
 50
138.6766340336276926
 51
167.9473828701160869
  0
ARC
  5
32796
  8
0
 10
6885.2454393310654268
 20
215.752787769669311
 30
0.0
 40
0.0875594612742304
 50
167.223092839336914
 51
198.5828334700906908
  0
ARC
  5
32797
  8
0
 10
6885.2287369474197476
 20
215.7461642149550869
 30
0.0
 40
0.0696236688423296
 50
197.7964191771559967
 51
222.4287185505870923
  0
ARC
  5
32798
  8
0
 10
6885.5946103250844317
 20
216.1424951071909959
 30
0.0
 40
0.6087919012542948
 50
226.7332060944667944
 51
227.2324972113667059
  0
ARC
  5
32799
  8
0
 10
6885.1963654253140703
 20
215.711940142723904
 30
0.0
 40
0.0222967370620676
 50
227.232497211364489
 51
264.826157261241292
  0
ARC
  5
3279A
  8
0
 10
6885.1956601281390249
 20
215.7041508350085053
 30
0.0
 40
0.0144755633144366
 50
264.826157261241292
 51
298.7798861816023077
  0
ARC
  5
3279B
  8
0
 10
6885.1863557319002211
 20
215.7210895516851963
 30
0.0
 40
0.0338015021535342
 50
298.7798861816023077
 51
343.0605305373596252
  0
LINE
  5
3279C
  8
0
 10
6885.1864946270616201
 20
215.7019957015683076
 30
0.0
 11
6885.1812253826956294
 21
215.6955717711063016
 31
0.0
  0
LINE
  5
3279D
  8
0
 10
6885.1812375555718972
 20
215.8098693007906093
 30
0.0
 11
6885.1853012850278901
 21
215.8049995414922932
 31
0.0
  0
ARC
  5
3279E
  8
0
 10
6885.10898028437623
 20
215.4947590959546062
 30
0.0
 40
0.1270083837756394
 50
346.01594458731131
 51
23.9816950196289795
  0
ARC
  5
3279F
  8
0
 10
6885.3395209660457112
 20
215.5149240069931125
 30
0.0
 40
0.1187389289363926
 50
164.6374684459536013
 51
205.3601711609717029
  0
ARC
  5
327A0
  8
0
 10
6885.1670654378549443
 20
215.4996562153312141
 30
0.0
 40
0.0653211345161105
 50
345.7808774815867991
 51
24.5282599814886204
  0
ARC
  5
327A1
  8
0
 10
6885.2875598277587414
 20
215.5105257364236877
 30
0.0
 40
0.0631926081771662
 50
165.1008122458320031
 51
205.2083252172400023
  0
LINE
  5
327A2
  8
0
 10
6885.2250247146530455
 20
215.5463809881219106
 30
0.0
 11
6885.1687604038643258
 21
215.5524646340635115
 31
0.0
  0
LINE
  5
327A3
  8
0
 10
6885.2322245222139827
 20
215.4640672828957122
 30
0.0
 11
6885.1689589065526889
 21
215.4459002938471031
 31
0.0
  0
ARC
  5
327A4
  8
0
 10
6885.1758420704436503
 20
215.5306535144106874
 30
0.0
 40
0.0357242831455581
 50
29.680738967773479
 51
46.4832740533453972
  0
ARC
  5
327A5
  8
0
 10
6885.1860418083742843
 20
215.5413955135070978
 30
0.0
 40
0.0209112754015378
 50
46.4832740533465198
 51
76.657001312960972
  0
ARC
  5
327A6
  8
0
 10
6885.186671950861637
 20
215.5440522964140087
 30
0.0
 40
0.0181807855243246
 50
76.6570013129606025
 51
105.5865304538909015
  0
ARC
  5
327A7
  8
0
 10
6885.1898646003910471
 20
215.5381878495622914
 30
0.0
 40
0.024732913340892
 50
109.0623839183174937
 51
122.3003928070881017
  0
ARC
  5
327A8
  8
0
 10
6885.1985788252850398
 20
215.524990236265694
 30
0.0
 40
0.040546032982201
 50
122.7434303836339069
 51
137.3428381153997009
  0
ARC
  5
327A9
  8
0
 10
6885.2248835531463556
 20
215.5031186756187083
 30
0.0
 40
0.0747317302128163
 50
138.6766340336276926
 51
167.9473828701160869
  0
ARC
  5
327AA
  8
0
 10
6885.2371905539412182
 20
215.4993591470104093
 30
0.0
 40
0.0875594612742304
 50
167.223092839336914
 51
198.5828334700906908
  0
ARC
  5
327AB
  8
0
 10
6885.2204881702964485
 20
215.4927355922960999
 30
0.0
 40
0.0696236688423296
 50
197.7964191771559967
 51
222.4287185505870923
  0
ARC
  5
327AC
  8
0
 10
6885.5863615479611326
 20
215.8890664845320089
 30
0.0
 40
0.6087919012542948
 50
226.7332060944667944
 51
227.2324972113667059
  0
ARC
  5
327AD
  8
0
 10
6885.1881166481898617
 20
215.4585115200648033
 30
0.0
 40
0.0222967370620676
 50
227.232497211364489
 51
264.826157261241292
  0
ARC
  5
327AE
  8
0
 10
6885.1874113510148163
 20
215.4507222123494898
 30
0.0
 40
0.0144755633144366
 50
264.826157261241292
 51
298.7798861816023077
  0
ARC
  5
327AF
  8
0
 10
6885.1781069547769221
 20
215.4676609290262093
 30
0.0
 40
0.0338015021535342
 50
298.7798861816023077
 51
343.0605305373596252
  0
LINE
  5
327B0
  8
0
 10
6885.17824584994014
 20
215.4485670789092921
 30
0.0
 11
6885.1729766055732398
 21
215.4421431484472862
 31
0.0
  0
LINE
  5
327B1
  8
0
 10
6885.1729887784504172
 20
215.5564406781317075
 30
0.0
 11
6885.177052507904591
 21
215.5515709188333915
 31
0.0
  0
ARC
  5
327B2
  8
0
 10
6885.1093451980559621
 20
215.2413238065888095
 30
0.0
 40
0.1270083837756394
 50
346.01594458731131
 51
23.9816950196289795
  0
ARC
  5
327B3
  8
0
 10
6885.3398858797272624
 20
215.261488717627401
 30
0.0
 40
0.1187389289363926
 50
164.6374684459536013
 51
205.3601711609717029
  0
ARC
  5
327B4
  8
0
 10
6885.1674303515346764
 20
215.2462209259655026
 30
0.0
 40
0.0653211345161105
 50
345.7808774815867991
 51
24.5282599814886204
  0
ARC
  5
327B5
  8
0
 10
6885.2879247414402926
 20
215.257090447057891
 30
0.0
 40
0.0631926081771662
 50
165.1008122458320031
 51
205.2083252172400023
  0
LINE
  5
327B6
  8
0
 10
6885.2253896283345966
 20
215.2929456987561139
 30
0.0
 11
6885.1691253175449674
 21
215.2990293446978001
 31
0.0
  0
LINE
  5
327B7
  8
0
 10
6885.2325894358937148
 20
215.210631993529887
 30
0.0
 11
6885.1693238202333305
 21
215.1924650044813916
 31
0.0
  0
ARC
  5
327B8
  8
0
 10
6885.1762069841261109
 20
215.2772182250450044
 30
0.0
 40
0.0357242831455581
 50
29.680738967773479
 51
46.4832740533453972
  0
ARC
  5
327B9
  8
0
 10
6885.1864067220549259
 20
215.2879602241413863
 30
0.0
 40
0.0209112754015378
 50
46.4832740533465198
 51
76.657001312960972
  0
ARC
  5
327BA
  8
0
 10
6885.1870368645431881
 20
215.2906170070482119
 30
0.0
 40
0.0181807855243246
 50
76.6570013129606025
 51
105.5865304538909015
  0
ARC
  5
327BB
  8
0
 10
6885.1902295140725982
 20
215.2847525601964946
 30
0.0
 40
0.024732913340892
 50
109.0623839183174937
 51
122.3003928070881017
  0
ARC
  5
327BC
  8
0
 10
6885.1989437389647719
 20
215.2715549468998972
 30
0.0
 40
0.040546032982201
 50
122.7434303836339069
 51
137.3428381153997009
  0
ARC
  5
327BD
  8
0
 10
6885.2252484668251782
 20
215.2496833862529115
 30
0.0
 40
0.0747317302128163
 50
138.6766340336276926
 51
167.9473828701160869
  0
ARC
  5
327BE
  8
0
 10
6885.2375554676218599
 20
215.2459238576446126
 30
0.0
 40
0.0875594612742304
 50
167.223092839336914
 51
198.5828334700906908
  0
ARC
  5
327BF
  8
0
 10
6885.2208530839779996
 20
215.2393003029303031
 30
0.0
 40
0.0696236688423296
 50
197.7964191771559967
 51
222.4287185505870923
  0
ARC
  5
327C0
  8
0
 10
6885.5867264616426837
 20
215.6356311951662974
 30
0.0
 40
0.6087919012542948
 50
226.7332060944667944
 51
227.2324972113667059
  0
ARC
  5
327C1
  8
0
 10
6885.1884815618723223
 20
215.2050762306990919
 30
0.0
 40
0.0222967370620676
 50
227.232497211364489
 51
264.826157261241292
  0
ARC
  5
327C2
  8
0
 10
6885.1877762646972769
 20
215.1972869229836931
 30
0.0
 40
0.0144755633144366
 50
264.826157261241292
 51
298.7798861816023077
  0
ARC
  5
327C3
  8
0
 10
6885.1784718684575637
 20
215.2142256396604978
 30
0.0
 40
0.0338015021535342
 50
298.7798861816023077
 51
343.0605305373596252
  0
LINE
  5
327C4
  8
0
 10
6885.1786107636198722
 20
215.1951317895436091
 30
0.0
 11
6885.1733415192520624
 21
215.1887078590814895
 31
0.0
  0
LINE
  5
327C5
  8
0
 10
6885.1733536921301493
 20
215.3030053887659108
 30
0.0
 11
6885.1774174215843232
 21
215.2981356294675948
 31
0.0
  0
ARC
  5
327C6
  8
0
 10
6885.1098296873051368
 20
214.9893480184337875
 30
0.0
 40
0.1270083837756394
 50
346.01594458731131
 51
23.9816950196289795
  0
ARC
  5
327C7
  8
0
 10
6885.340370368976437
 20
215.0095129294722938
 30
0.0
 40
0.1187389289363926
 50
164.6374684459536013
 51
205.3601711609717029
  0
ARC
  5
327C8
  8
0
 10
6885.1679148407847606
 20
214.994245137810509
 30
0.0
 40
0.0653211345161105
 50
345.7808774815867991
 51
24.5282599814886204
  0
ARC
  5
327C9
  8
0
 10
6885.2884092306885577
 20
215.0051146589028974
 30
0.0
 40
0.0631926081771662
 50
165.1008122458320031
 51
205.2083252172400023
  0
LINE
  5
327CA
  8
0
 10
6885.2258741175828618
 20
215.0409699106010919
 30
0.0
 11
6885.1696098067941421
 21
215.0470535565426928
 31
0.0
  0
LINE
  5
327CB
  8
0
 10
6885.233073925143799
 20
214.9586562053748935
 30
0.0
 11
6885.1698083094834146
 21
214.9404892163263128
 31
0.0
  0
ARC
  5
327CC
  8
0
 10
6885.1766914733743761
 20
215.0252424368900108
 30
0.0
 40
0.0357242831455581
 50
29.680738967773479
 51
46.4832740533453972
  0
ARC
  5
327CD
  8
0
 10
6885.1868912113041006
 20
215.0359844359863928
 30
0.0
 40
0.0209112754015378
 50
46.4832740533465198
 51
76.657001312960972
  0
ARC
  5
327CE
  8
0
 10
6885.1875213537923628
 20
215.0386412188931899
 30
0.0
 40
0.0181807855243246
 50
76.6570013129606025
 51
105.5865304538909015
  0
ARC
  5
327CF
  8
0
 10
6885.1907140033226824
 20
215.0327767720415864
 30
0.0
 40
0.024732913340892
 50
109.0623839183174937
 51
122.3003928070881017
  0
ARC
  5
327D0
  8
0
 10
6885.1994282282148561
 20
215.0195791587449037
 30
0.0
 40
0.040546032982201
 50
122.7434303836339069
 51
137.3428381153997009
  0
ARC
  5
327D1
  8
0
 10
6885.2257329560761718
 20
214.9977075980978896
 30
0.0
 40
0.0747317302128163
 50
138.6766340336276926
 51
167.9473828701160869
  0
ARC
  5
327D2
  8
0
 10
6885.2380399568710345
 20
214.9939480694895906
 30
0.0
 40
0.0875594612742304
 50
167.223092839336914
 51
198.5828334700906908
  0
ARC
  5
327D3
  8
0
 10
6885.2213375732262648
 20
214.9873245147753948
 30
0.0
 40
0.0696236688423296
 50
197.7964191771559967
 51
222.4287185505870923
  0
ARC
  5
327D4
  8
0
 10
6885.5872109508918584
 20
215.3836554070111902
 30
0.0
 40
0.6087919012542948
 50
226.7332060944667944
 51
227.2324972113667059
  0
ARC
  5
327D5
  8
0
 10
6885.1889660511205875
 20
214.9531004425440983
 30
0.0
 40
0.0222967370620676
 50
227.232497211364489
 51
264.826157261241292
  0
ARC
  5
327D6
  8
0
 10
6885.1882607539446326
 20
214.9453111348286996
 30
0.0
 40
0.0144755633144366
 50
264.826157261241292
 51
298.7798861816023077
  0
ARC
  5
327D7
  8
0
 10
6885.1789563577067383
 20
214.9622498515053906
 30
0.0
 40
0.0338015021535342
 50
298.7798861816023077
 51
343.0605305373596252
  0
LINE
  5
327D8
  8
0
 10
6885.1790952528690468
 20
214.9431560013885019
 30
0.0
 11
6885.1738260085030561
 21
214.9367320709266096
 31
0.0
  0
LINE
  5
327D9
  8
0
 10
6885.1738381813793239
 20
215.0510296006108888
 30
0.0
 11
6885.1779019108353168
 21
215.0461598413126012
 31
0.0
  0
ARC
  5
327DA
  8
0
 10
6885.1100792898296277
 20
214.7373867869156072
 30
0.0
 40
0.1270083837756394
 50
346.01594458731131
 51
23.9816950196289795
  0
ARC
  5
327DB
  8
0
 10
6885.3406199715009279
 20
214.7575516979541987
 30
0.0
 40
0.1187389289363926
 50
164.6374684459536013
 51
205.3601711609717029
  0
ARC
  5
327DC
  8
0
 10
6885.168164443310161
 20
214.7422839062923003
 30
0.0
 40
0.0653211345161105
 50
345.7808774815867991
 51
24.5282599814886204
  0
ARC
  5
327DD
  8
0
 10
6885.2886588332148676
 20
214.7531534273848024
 30
0.0
 40
0.0631926081771662
 50
165.1008122458320031
 51
205.2083252172400023
  0
LINE
  5
327DE
  8
0
 10
6885.2261237201082622
 20
214.7890086790829116
 30
0.0
 11
6885.169859409320452
 21
214.7950923250245978
 31
0.0
  0
LINE
  5
327DF
  8
0
 10
6885.2333235276691994
 20
214.7066949738567985
 30
0.0
 11
6885.1700579120079055
 21
214.6885279848081893
 31
0.0
  0
ARC
  5
327E0
  8
0
 10
6885.176941075900686
 20
214.7732812053718021
 30
0.0
 40
0.0357242831455581
 50
29.680738967773479
 51
46.4832740533453972
  0
ARC
  5
327E1
  8
0
 10
6885.1871408138304105
 20
214.7840232044682125
 30
0.0
 40
0.0209112754015378
 50
46.4832740533465198
 51
76.657001312960972
  0
ARC
  5
327E2
  8
0
 10
6885.1877709563177632
 20
214.7866799873750097
 30
0.0
 40
0.0181807855243246
 50
76.6570013129606025
 51
105.5865304538909015
  0
ARC
  5
327E3
  8
0
 10
6885.1909636058480828
 20
214.7808155405234061
 30
0.0
 40
0.024732913340892
 50
109.0623839183174937
 51
122.3003928070881017
  0
ARC
  5
327E4
  8
0
 10
6885.1996778307402565
 20
214.767617927226695
 30
0.0
 40
0.040546032982201
 50
122.7434303836339069
 51
137.3428381153997009
  0
ARC
  5
327E5
  8
0
 10
6885.2259825585997532
 20
214.7457463665797093
 30
0.0
 40
0.0747317302128163
 50
138.6766340336276926
 51
167.9473828701160869
  0
ARC
  5
327E6
  8
0
 10
6885.2382895593964349
 20
214.7419868379714103
 30
0.0
 40
0.0875594612742304
 50
167.223092839336914
 51
198.5828334700906908
  0
ARC
  5
327E7
  8
0
 10
6885.2215871757507557
 20
214.7353632832571861
 30
0.0
 40
0.0696236688423296
 50
197.7964191771559967
 51
222.4287185505870923
  0
ARC
  5
327E8
  8
0
 10
6885.5874605534163493
 20
215.1316941754930951
 30
0.0
 40
0.6087919012542948
 50
226.7332060944667944
 51
227.2324972113667059
  0
ARC
  5
327E9
  8
0
 10
6885.1892156536459879
 20
214.7011392110260033
 30
0.0
 40
0.0222967370620676
 50
227.232497211364489
 51
264.826157261241292
  0
ARC
  5
327EA
  8
0
 10
6885.188510356470033
 20
214.6933499033106045
 30
0.0
 40
0.0144755633144366
 50
264.826157261241292
 51
298.7798861816023077
  0
ARC
  5
327EB
  8
0
 10
6885.1792059602312293
 20
214.7102886199872955
 30
0.0
 40
0.0338015021535342
 50
298.7798861816023077
 51
343.0605305373596252
  0
LINE
  5
327EC
  8
0
 10
6885.1793448553944472
 20
214.6911947698704068
 30
0.0
 11
6885.1740756110266375
 21
214.6847708394084009
 31
0.0
  0
LINE
  5
327ED
  8
0
 10
6885.1740877839047243
 20
214.7990683690927085
 30
0.0
 11
6885.1781515133588982
 21
214.7941986097943925
 31
0.0
  0
ARC
  5
327EE
  8
0
 10
6885.8615810040873839
 20
212.5552611815570003
 30
0.0
 40
0.7359823593559423
 50
149.5599641621365947
 51
163.7752654367446894
  0
ARC
  5
327EF
  8
0
 10
6885.220235490358391
 20
212.9321390086849988
 30
0.0
 40
0.0079
 50
329.5599641621309956
 51
0.0000000004282808
  0
ARC
  5
327F0
  8
0
 10
6885.6183156319739282
 20
212.6260502014127951
 30
0.0
 40
0.4826266280199758
 50
163.7752654367446894
 51
179.6527204935732982
  0
ARC
  5
327F1
  8
0
 10
6885.5849642612256503
 20
212.6262523522433128
 30
0.0
 40
0.4492746446321225
 50
179.6527204935732982
 51
198.5118575349339096
  0
ARC
  5
327F2
  8
0
 10
6886.010024037108451
 20
212.7685731862501086
 30
0.0
 40
0.8975279579128301
 50
198.5118575349339096
 51
209.2750799308097953
  0
ARC
  5
327F3
  8
0
 10
6885.2202354903620289
 20
212.3258160988999066
 30
0.0
 40
0.0079
 50
0.0000000004461937
 51
29.2750799308097491
  0
LINE
  5
327F4
  8
0
 10
6885.2138424286467853
 20
212.9046961127978932
 30
0.0
 11
6885.2164305440246608
 21
212.9046735262348875
 31
0.0
  0
ARC
  5
327F5
  8
0
 10
6885.2163274992399238
 20
212.8928659840134117
 30
0.0
 40
0.0118079918504766
 50
359.9793467426089819
 51
89.4999906525142563
  0
LINE
  5
327F6
  8
0
 10
6885.2281354903216197
 20
212.8928617276179978
 30
0.0
 11
6885.227933282108097
 21
212.3629132149320071
 31
0.0
  0
LINE
  5
327F7
  8
0
 10
6885.2143665800258532
 20
212.3532592733816955
 30
0.0
 11
6885.2164322288763287
 21
212.3532786431630086
 31
0.0
  0
ARC
  5
327F8
  8
0
 10
6885.2163214470456296
 20
212.3650927341012959
 30
0.0
 40
0.0118146103326288
 50
270.5372521043540814
 51
349.3693813030614024
  0
ARC
  5
327F9
  8
0
 10
6886.0208104682778867
 20
211.693506663324797
 30
0.0
 40
0.9110794080506764
 50
150.5933234690359086
 51
158.9986845551611054
  0
ARC
  5
327FA
  8
0
 10
6885.2202354903638479
 20
212.14473039625409
 30
0.0
 40
0.0079
 50
330.5933234690415929
 51
0.0000000004299092
  0
ARC
  5
327FB
  8
0
 10
6885.6568104276839222
 20
211.8332427761851875
 30
0.0
 40
0.5211791505611277
 50
158.9986845551611054
 51
179.0840792894605897
  0
ARC
  5
327FC
  8
0
 10
6885.629885970788564
 20
211.8456745633498883
 30
0.0
 40
0.4942051151199878
 50
180.475416336896302
 51
199.2349421418747113
  0
ARC
  5
327FD
  8
0
 10
6885.9630098409006678
 20
211.9613277307852002
 30
0.0
 40
0.8468338044682333
 50
199.1978472320888898
 51
209.6559136827445116
  0
ARC
  5
327FE
  8
0
 10
6885.2202354903693049
 20
211.5384138616659868
 30
0.0
 40
0.0079
 50
0.0000000004445652
 51
29.6559136827459398
  0
LINE
  5
327FF
  8
0
 10
6885.2147590047388803
 20
212.118179155839897
 30
0.0
 11
6885.3187887729736758
 21
212.1172692355198137
 31
0.0
  0
ARC
  5
32800
  8
0
 10
6885.3186854584755565
 20
212.1054574503895935
 30
0.0
 40
0.0118122369536096
 50
0.0131083042401324
 51
89.4988620521556442
  0
LINE
  5
32801
  8
0
 10
6885.3304976951212666
 20
212.1054601528294086
 30
0.0
 11
6885.3306184405782915
 21
211.5776874662105058
 31
0.0
  0
ARC
  5
32802
  8
0
 10
6885.3188121788280114
 20
211.5776847651376897
 30
0.0
 40
0.01180626205841
 50
269.8861121034215103
 51
0.0131083042433893
  0
LINE
  5
32803
  8
0
 10
6885.318788711315392
 20
211.5658785264027131
 30
0.0
 11
6885.2146612418709992
 21
211.5649669523023988
 31
0.0
  0
ARC
  5
32804
  8
0
 10
6886.0423827829899892
 20
211.7731700947414879
 30
0.0
 40
0.8012443510039865
 50
154.5669627225231011
 51
166.0420734509239935
  0
ARC
  5
32805
  8
0
 10
6885.7561526173130915
 20
211.8443120805133049
 30
0.0
 40
0.5063055609408634
 50
166.0420734509239935
 51
180.3098669484039931
  0
ARC
  5
32806
  8
0
 10
6885.8066364774604153
 20
211.8445851099116055
 30
0.0
 40
0.5567901593889577
 50
180.3098669484039931
 51
195.7895268347853914
  0
ARC
  5
32807
  8
0
 10
6886.0430729432873704
 20
211.9114432091915887
 30
0.0
 40
0.8024977250280576
 50
195.7895268347853914
 51
205.5063684792270919
  0
LINE
  5
32808
  8
0
 10
6885.2507360923091255
 20
214.420272617942004
 30
0.0
 11
6885.2507360923091255
 21
214.5787785982871867
 31
0.0
  0
ARC
  5
32809
  8
0
 10
6885.0269726890674065
 20
214.6044695794485051
 30
0.0
 40
0.2435007086022863
 50
355.2277074714078253
 51
14.7734045535287493
  0
ARC
  5
3280A
  8
0
 10
6885.4972976153885611
 20
214.645622277764403
 30
0.0
 40
0.2358054287396152
 50
174.9054930168202873
 51
195.0956190081249133
  0
LINE
  5
3280B
  8
0
 10
6885.2624237163681755
 20
214.666561517996314
 30
0.0
 11
6885.2218828139975813
 21
214.670852746533086
 31
0.0
  0
LINE
  5
3280C
  8
0
 10
6885.269629231412182
 20
214.5842113083824927
 30
0.0
 11
6885.2210646797575464
 21
214.570246602537992
 31
0.0
  0
ARC
  5
3280D
  8
0
 10
6885.1408049532774385
 20
214.6144272929018939
 30
0.0
 40
0.1275191789029027
 50
355.22643719775931
 51
14.7768446096592605
  0
ARC
  5
3280E
  8
0
 10
6885.3872046557025897
 20
214.6359915842755015
 30
0.0
 40
0.1235849806706267
 50
174.9120488219375034
 51
195.0912329854810139
  0
ARC
  5
3280F
  8
0
 10
6885.2600443015016936
 20
214.6571525207100137
 30
0.0
 40
0.0405462121064168
 50
141.4789903377736096
 51
160.2515270836109096
  0
ARC
  5
32810
  8
0
 10
6885.3652179193441043
 20
214.6193944979156072
 30
0.0
 40
0.1522921658384436
 50
160.2515270836109096
 51
199.1409966271120879
  0
ARC
  5
32811
  8
0
 10
6885.2658859536059026
 20
214.5849181038315123
 30
0.0
 40
0.0471472127190727
 50
199.1409966271120879
 51
217.0348649606658
  0
ARC
  5
32812
  8
0
 10
6885.1756017675279509
 20
214.5837961262928957
 30
0.0
 40
0.062052298986833
 50
340.9535195946211843
 51
351.6917068796370245
  0
ARC
  5
32813
  8
0
 10
6885.2179513506962394
 20
214.569175555898795
 30
0.0
 40
0.0172499745697923
 50
325.6424814339064824
 51
340.9535195946413069
  0
ARC
  5
32814
  8
0
 10
6885.2255662812485753
 20
214.5639697929877912
 30
0.0
 40
0.0080257057737592
 50
296.8213828412461908
 51
325.6424814339039244
  0
ARC
  5
32815
  8
0
 10
6885.2278943506480573
 20
214.5593652696512947
 30
0.0
 40
0.0028660989791958
 50
277.1238394459305141
 51
296.8213828412992825
  0
ARC
  5
32816
  8
0
 10
6885.1937493467667082
 20
214.6603028694852071
 30
0.0
 40
0.0432187538732543
 50
12.0934666406823794
 51
21.9017578525359191
  0
ARC
  5
32817
  8
0
 10
6885.2193722240208444
 20
214.6706041132665064
 30
0.0
 40
0.0156026813375438
 50
21.9017578525359191
 51
37.3524296985672919
  0
ARC
  5
32818
  8
0
 10
6885.2265785856880029
 20
214.6761043182241906
 30
0.0
 40
0.0065371475389378
 50
37.3524296985646913
 51
74.5345565805357637
  0
LINE
  5
32819
  8
0
 10
6885.2507360923091255
 20
214.5395384257984119
 30
0.0
 11
6885.28295361304572
 21
214.536152227909696
 31
0.0
  0
LINE
  5
3281A
  8
0
 10
6885.28295361304572
 20
214.536152227909696
 30
0.0
 11
6885.2901594028717227
 21
214.4537896741915119
 31
0.0
  0
LINE
  5
3281B
  8
0
 10
6885.2901594028717227
 20
214.4537896741915119
 30
0.0
 11
6885.2507360923091255
 21
214.4424852217861996
 31
0.0
  0
ARC
  5
3281C
  8
0
 10
6885.1060312183672067
 20
214.4844552790582952
 30
0.0
 40
0.1270083837756394
 50
346.01594458731131
 51
23.9816950196289795
  0
ARC
  5
3281D
  8
0
 10
6885.3365719000394165
 20
214.5046201900968015
 30
0.0
 40
0.1187389289363926
 50
164.6374684459536013
 51
205.3601711609717029
  0
ARC
  5
3281E
  8
0
 10
6885.1641163718477401
 20
214.4893523984349883
 30
0.0
 40
0.0653211345161105
 50
345.7808774815867991
 51
24.5282599814886204
  0
ARC
  5
3281F
  8
0
 10
6885.2846107617524467
 20
214.5002219195274051
 30
0.0
 40
0.0631926081771662
 50
165.1008122458320031
 51
205.2083252172400023
  0
LINE
  5
32820
  8
0
 10
6885.2220756486449318
 20
214.5360771712255996
 30
0.0
 11
6885.1658113378571215
 21
214.5421608171672005
 31
0.0
  0
LINE
  5
32821
  8
0
 10
6885.2292754562067785
 20
214.4537634659994012
 30
0.0
 11
6885.1660098405463941
 21
214.4355964769507921
 31
0.0
  0
ARC
  5
32822
  8
0
 10
6885.1728930044364461
 20
214.5203496975144049
 30
0.0
 40
0.0357242831455581
 50
29.680738967773479
 51
46.4832740533453972
  0
ARC
  5
32823
  8
0
 10
6885.1830927423679896
 20
214.5310916966107868
 30
0.0
 40
0.0209112754015378
 50
46.4832740533465198
 51
76.657001312960972
  0
ARC
  5
32824
  8
0
 10
6885.1837228848553423
 20
214.5337484795176977
 30
0.0
 40
0.0181807855243246
 50
76.6570013129606025
 51
105.5865304538909015
  0
ARC
  5
32825
  8
0
 10
6885.1869155343847524
 20
214.5278840326660088
 30
0.0
 40
0.024732913340892
 50
109.0623839183174937
 51
122.3003928070881017
  0
ARC
  5
32826
  8
0
 10
6885.1956297592769261
 20
214.5146864193692977
 30
0.0
 40
0.040546032982201
 50
122.7434303836339069
 51
137.3428381153997009
  0
ARC
  5
32827
  8
0
 10
6885.2219344871382418
 20
214.4928148587223973
 30
0.0
 40
0.0747317302128163
 50
138.6766340336276926
 51
167.9473828701160869
  0
ARC
  5
32828
  8
0
 10
6885.2342414879349235
 20
214.4890553301140983
 30
0.0
 40
0.0875594612742304
 50
167.223092839336914
 51
198.5828334700906908
  0
ARC
  5
32829
  8
0
 10
6885.2175391042892443
 20
214.4824317753997889
 30
0.0
 40
0.0696236688423296
 50
197.7964191771559967
 51
222.4287185505870923
  0
ARC
  5
3282A
  8
0
 10
6885.5834124819530189
 20
214.8787626676356979
 30
0.0
 40
0.6087919012542948
 50
226.7332060944667944
 51
227.2324972113667059
  0
ARC
  5
3282B
  8
0
 10
6885.1851675821826575
 20
214.448207703168606
 30
0.0
 40
0.0222967370620676
 50
227.232497211364489
 51
264.826157261241292
  0
ARC
  5
3282C
  8
0
 10
6885.1844622850076121
 20
214.4404183954532073
 30
0.0
 40
0.0144755633144366
 50
264.826157261241292
 51
298.7798861816023077
  0
ARC
  5
3282D
  8
0
 10
6885.1751578887697178
 20
214.4573571121298983
 30
0.0
 40
0.0338015021535342
 50
298.7798861816023077
 51
343.0605305373596252
  0
LINE
  5
3282E
  8
0
 10
6885.1752967839311168
 20
214.4382632620130096
 30
0.0
 11
6885.1700275395651261
 21
214.4318393315510036
 31
0.0
  0
LINE
  5
3282F
  8
0
 10
6885.1700397124413939
 20
214.5461368612353965
 30
0.0
 11
6885.1741034418973868
 21
214.5412671019371089
 31
0.0
  0
LINE
  5
32830
  8
0
 10
6885.2446856291189761
 20
214.1653591983586011
 30
0.0
 11
6885.2446856291180666
 21
214.3318930083675014
 31
0.0
  0
ARC
  5
32831
  8
0
 10
6885.0209222258763475
 20
214.3575839895287913
 30
0.0
 40
0.2435007086022863
 50
355.2277074714078253
 51
14.7734045535287493
  0
ARC
  5
32832
  8
0
 10
6885.4912471521993211
 20
214.3987366878446892
 30
0.0
 40
0.2358054287396152
 50
174.9054930168202873
 51
195.0956190081249133
  0
LINE
  5
32833
  8
0
 10
6885.2563732531762071
 20
214.4196759280766003
 30
0.0
 11
6885.2158323508056128
 21
214.4239671566134007
 31
0.0
  0
LINE
  5
32834
  8
0
 10
6885.263578768221123
 20
214.3373257184628926
 30
0.0
 11
6885.2150142165673969
 21
214.3233610126183066
 31
0.0
  0
ARC
  5
32835
  8
0
 10
6885.1347544900845605
 20
214.3675417029822086
 30
0.0
 40
0.1275191789029027
 50
355.22643719775931
 51
14.7768446096592605
  0
ARC
  5
32836
  8
0
 10
6885.3811541925124402
 20
214.3891059943559014
 30
0.0
 40
0.1235849806706267
 50
174.9120488219375034
 51
195.0912329854810139
  0
ARC
  5
32837
  8
0
 10
6885.2539938383106346
 20
214.4102669307904137
 30
0.0
 40
0.0405462121064168
 50
141.4789903377736096
 51
160.2515270836109096
  0
ARC
  5
32838
  8
0
 10
6885.3591674561539548
 20
214.3725089079960071
 30
0.0
 40
0.1522921658384436
 50
160.2515270836109096
 51
199.1409966271120879
  0
ARC
  5
32839
  8
0
 10
6885.2598354904148437
 20
214.3380325139119122
 30
0.0
 40
0.0471472127190727
 50
199.1409966271120879
 51
217.0348649606658
  0
ARC
  5
3283A
  8
0
 10
6885.1695513043359824
 20
214.3369105363732956
 30
0.0
 40
0.062052298986833
 50
340.9535195946211843
 51
351.6917068796370245
  0
ARC
  5
3283B
  8
0
 10
6885.2119008875051804
 20
214.3222899659791096
 30
0.0
 40
0.0172499745697923
 50
325.6424814339064824
 51
340.9535195946413069
  0
ARC
  5
3283C
  8
0
 10
6885.2195158180593353
 20
214.3170842030681058
 30
0.0
 40
0.0080257057737592
 50
296.8213828412461908
 51
325.6424814339039244
  0
ARC
  5
3283D
  8
0
 10
6885.2218438874560889
 20
214.3124796797316094
 30
0.0
 40
0.0028660989791958
 50
277.1238394459305141
 51
296.8213828412992825
  0
ARC
  5
3283E
  8
0
 10
6885.1876988835756492
 20
214.4134172795654933
 30
0.0
 40
0.0432187538732543
 50
12.0934666406823794
 51
21.9017578525359191
  0
ARC
  5
3283F
  8
0
 10
6885.213321760830695
 20
214.4237185233467926
 30
0.0
 40
0.0156026813375438
 50
21.9017578525359191
 51
37.3524296985672919
  0
ARC
  5
32840
  8
0
 10
6885.2205281224978535
 20
214.4292187283045905
 30
0.0
 40
0.0065371475389378
 50
37.3524296985646913
 51
74.5345565805357637
  0
LINE
  5
32841
  8
0
 10
6885.2446856291189761
 20
214.2926528358786982
 30
0.0
 11
6885.276903149854661
 21
214.2892666379900959
 31
0.0
  0
LINE
  5
32842
  8
0
 10
6885.276903149854661
 20
214.2892666379900959
 30
0.0
 11
6885.2841089396797543
 21
214.2069040842719119
 31
0.0
  0
LINE
  5
32843
  8
0
 10
6885.2841089396797543
 20
214.2069040842719119
 30
0.0
 11
6885.2446856291189761
 21
214.1955996318664859
 31
0.0
  0
ARC
  5
32844
  8
0
 10
6885.0999807551770573
 20
214.2375696891386099
 30
0.0
 40
0.1270083837756394
 50
346.01594458731131
 51
23.9816950196289795
  0
ARC
  5
32845
  8
0
 10
6885.3305214368483576
 20
214.2577346001770877
 30
0.0
 40
0.1187389289363926
 50
164.6374684459536013
 51
205.3601711609717029
  0
ARC
  5
32846
  8
0
 10
6885.1580659086557716
 20
214.242466808515303
 30
0.0
 40
0.0653211345161105
 50
345.7808774815867991
 51
24.5282599814886204
  0
ARC
  5
32847
  8
0
 10
6885.2785602985622972
 20
214.2533363296076914
 30
0.0
 40
0.0631926081771662
 50
165.1008122458320031
 51
205.2083252172400023
  0
LINE
  5
32848
  8
0
 10
6885.2160251854556918
 20
214.2891915813058858
 30
0.0
 11
6885.1597608746660626
 21
214.2952752272476005
 31
0.0
  0
LINE
  5
32849
  8
0
 10
6885.2232249930157195
 20
214.2068778760798011
 30
0.0
 11
6885.1599593773544257
 21
214.1887108870311067
 31
0.0
  0
ARC
  5
3284A
  8
0
 10
6885.1668425412472061
 20
214.2734641075946911
 30
0.0
 40
0.0357242831455581
 50
29.680738967773479
 51
46.4832740533453972
  0
ARC
  5
3284B
  8
0
 10
6885.1770422791760211
 20
214.2842061066911015
 30
0.0
 40
0.0209112754015378
 50
46.4832740533465198
 51
76.657001312960972
  0
ARC
  5
3284C
  8
0
 10
6885.1776724216651928
 20
214.2868628895980123
 30
0.0
 40
0.0181807855243246
 50
76.6570013129606025
 51
105.5865304538909015
  0
ARC
  5
3284D
  8
0
 10
6885.1808650711946029
 20
214.2809984427464087
 30
0.0
 40
0.024732913340892
 50
109.0623839183174937
 51
122.3003928070881017
  0
ARC
  5
3284E
  8
0
 10
6885.1895792960858671
 20
214.2678008294496976
 30
0.0
 40
0.040546032982201
 50
122.7434303836339069
 51
137.3428381153997009
  0
ARC
  5
3284F
  8
0
 10
6885.2158840239471829
 20
214.2459292688027119
 30
0.0
 40
0.0747317302128163
 50
138.6766340336276926
 51
167.9473828701160869
  0
ARC
  5
32850
  8
0
 10
6885.2281910247429551
 20
214.242169740194413
 30
0.0
 40
0.0875594612742304
 50
167.223092839336914
 51
198.5828334700906908
  0
ARC
  5
32851
  8
0
 10
6885.2114886410990948
 20
214.2355461854801888
 30
0.0
 40
0.0696236688423296
 50
197.7964191771559967
 51
222.4287185505870923
  0
ARC
  5
32852
  8
0
 10
6885.5773620187628694
 20
214.6318770777160978
 30
0.0
 40
0.6087919012542948
 50
226.7332060944667944
 51
227.2324972113667059
  0
ARC
  5
32853
  8
0
 10
6885.1791171189934175
 20
214.2013221132488923
 30
0.0
 40
0.0222967370620676
 50
227.232497211364489
 51
264.826157261241292
  0
ARC
  5
32854
  8
0
 10
6885.1784118218183721
 20
214.1935328055334935
 30
0.0
 40
0.0144755633144366
 50
264.826157261241292
 51
298.7798861816023077
  0
ARC
  5
32855
  8
0
 10
6885.1691074255777494
 20
214.2104715222102982
 30
0.0
 40
0.0338015021535342
 50
298.7798861816023077
 51
343.0605305373596252
  0
LINE
  5
32856
  8
0
 10
6885.1692463207409673
 20
214.1913776720932958
 30
0.0
 11
6885.1639770763731576
 21
214.1849537416314035
 31
0.0
  0
LINE
  5
32857
  8
0
 10
6885.1639892492512445
 20
214.2992512713157112
 30
0.0
 11
6885.1680529787063278
 21
214.2943815120173952
 31
0.0
  0
LINE
  5
32858
  8
0
 10
6885.2460288430911532
 20
213.9125555295314882
 30
0.0
 11
6885.2460288430911532
 21
214.0761969727944063
 31
0.0
  0
ARC
  5
32859
  8
0
 10
6885.0222654398467057
 20
214.1018879539556963
 30
0.0
 40
0.2435007086022863
 50
355.2277074714078253
 51
14.7734045535287493
  0
ARC
  5
3285A
  8
0
 10
6885.4925903661687698
 20
214.1430406522715941
 30
0.0
 40
0.2358054287396152
 50
174.9054930168202873
 51
195.0956190081249133
  0
LINE
  5
3285B
  8
0
 10
6885.2577164671483843
 20
214.1639798925035052
 30
0.0
 11
6885.2171755647786995
 21
214.1682711210403909
 31
0.0
  0
LINE
  5
3285C
  8
0
 10
6885.2649219821942097
 20
214.0816296828897976
 30
0.0
 11
6885.2163574305395741
 21
214.0676649770452116
 31
0.0
  0
ARC
  5
3285D
  8
0
 10
6885.1360977040567377
 20
214.1118456674091988
 30
0.0
 40
0.1275191789029027
 50
355.22643719775931
 51
14.7768446096592605
  0
ARC
  5
3285E
  8
0
 10
6885.3824974064827984
 20
214.1334099587828064
 30
0.0
 40
0.1235849806706267
 50
174.9120488219375034
 51
195.0912329854810139
  0
ARC
  5
3285F
  8
0
 10
6885.2553370522819023
 20
214.1545708952172902
 30
0.0
 40
0.0405462121064168
 50
141.4789903377736096
 51
160.2515270836109096
  0
ARC
  5
32860
  8
0
 10
6885.360510670126132
 20
214.1168128724229121
 30
0.0
 40
0.1522921658384436
 50
160.2515270836109096
 51
199.1409966271120879
  0
ARC
  5
32861
  8
0
 10
6885.2611787043879303
 20
214.0823364783387888
 30
0.0
 40
0.0471472127190727
 50
199.1409966271120879
 51
217.0348649606658
  0
ARC
  5
32862
  8
0
 10
6885.1708945183090691
 20
214.0812145008002005
 30
0.0
 40
0.062052298986833
 50
340.9535195946211843
 51
351.6917068796370245
  0
ARC
  5
32863
  8
0
 10
6885.2132441014773576
 20
214.0665939304060998
 30
0.0
 40
0.0172499745697923
 50
325.6424814339064824
 51
340.9535195946413069
  0
ARC
  5
32864
  8
0
 10
6885.2208590320296935
 20
214.061388167495096
 30
0.0
 40
0.0080257057737592
 50
296.8213828412461908
 51
325.6424814339039244
  0
ARC
  5
32865
  8
0
 10
6885.223187101428266
 20
214.0567836441585996
 30
0.0
 40
0.0028660989791958
 50
277.1238394459305141
 51
296.8213828412992825
  0
ARC
  5
32866
  8
0
 10
6885.1890420975478264
 20
214.157721243992512
 30
0.0
 40
0.0432187538732543
 50
12.0934666406823794
 51
21.9017578525359191
  0
ARC
  5
32867
  8
0
 10
6885.2146649748028722
 20
214.1680224877738112
 30
0.0
 40
0.0156026813375438
 50
21.9017578525359191
 51
37.3524296985672919
  0
ARC
  5
32868
  8
0
 10
6885.2218713364709402
 20
214.1735226927314955
 30
0.0
 40
0.0065371475389378
 50
37.3524296985646913
 51
74.5345565805357637
  0
LINE
  5
32869
  8
0
 10
6885.2460288430911532
 20
214.0369568003056884
 30
0.0
 11
6885.2782463638259287
 21
214.0335706024170008
 31
0.0
  0
LINE
  5
3286A
  8
0
 10
6885.2782463638259287
 20
214.0335706024170008
 30
0.0
 11
6885.2854521536519314
 21
213.9512080486987884
 31
0.0
  0
LINE
  5
3286B
  8
0
 10
6885.2854521536519314
 20
213.9512080486987884
 30
0.0
 11
6885.2460288430911532
 21
213.9399035962933908
 31
0.0
  0
ARC
  5
3286C
  8
0
 10
6885.1013239691492345
 20
213.9818736535656001
 30
0.0
 40
0.1270083837756394
 50
346.01594458731131
 51
23.9816950196289795
  0
ARC
  5
3286D
  8
0
 10
6885.3318646508196252
 20
214.0020385646041063
 30
0.0
 40
0.1187389289363926
 50
164.6374684459536013
 51
205.3601711609717029
  0
ARC
  5
3286E
  8
0
 10
6885.1594091226279488
 20
213.9867707729422079
 30
0.0
 40
0.0653211345161105
 50
345.7808774815867991
 51
24.5282599814886204
  0
ARC
  5
3286F
  8
0
 10
6885.2799035125317459
 20
213.99764029403471
 30
0.0
 40
0.0631926081771662
 50
165.1008122458320031
 51
205.2083252172400023
  0
LINE
  5
32870
  8
0
 10
6885.2173683994269595
 20
214.0334955457327908
 30
0.0
 11
6885.1611040886382398
 21
214.0395791916745054
 31
0.0
  0
LINE
  5
32871
  8
0
 10
6885.2245682069878967
 20
213.9511818405067061
 30
0.0
 11
6885.1613025913266029
 21
213.9330148514580969
 31
0.0
  0
ARC
  5
32872
  8
0
 10
6885.1681857552175643
 20
214.0177680720217097
 30
0.0
 40
0.0357242831455581
 50
29.680738967773479
 51
46.4832740533453972
  0
ARC
  5
32873
  8
0
 10
6885.1783854931472888
 20
214.0285100711180917
 30
0.0
 40
0.0209112754015378
 50
46.4832740533465198
 51
76.657001312960972
  0
ARC
  5
32874
  8
0
 10
6885.1790156356346415
 20
214.0311668540248888
 30
0.0
 40
0.0181807855243246
 50
76.6570013129606025
 51
105.5865304538909015
  0
ARC
  5
32875
  8
0
 10
6885.1822082851649611
 20
214.0253024071733137
 30
0.0
 40
0.024732913340892
 50
109.0623839183174937
 51
122.3003928070881017
  0
ARC
  5
32876
  8
0
 10
6885.1909225100589538
 20
214.0121047938766026
 30
0.0
 40
0.040546032982201
 50
122.7434303836339069
 51
137.3428381153997009
  0
ARC
  5
32877
  8
0
 10
6885.2172272379193601
 20
213.9902332332295884
 30
0.0
 40
0.0747317302128163
 50
138.6766340336276926
 51
167.9473828701160869
  0
ARC
  5
32878
  8
0
 10
6885.2295342387151322
 20
213.9864737046212895
 30
0.0
 40
0.0875594612742304
 50
167.223092839336914
 51
198.5828334700906908
  0
ARC
  5
32879
  8
0
 10
6885.2128318550703625
 20
213.9798501499070937
 30
0.0
 40
0.0696236688423296
 50
197.7964191771559967
 51
222.4287185505870923
  0
ARC
  5
3287A
  8
0
 10
6885.5787052327350466
 20
214.3761810421430027
 30
0.0
 40
0.6087919012542948
 50
226.7332060944667944
 51
227.2324972113667059
  0
ARC
  5
3287B
  8
0
 10
6885.1804603329637757
 20
213.9456260776757972
 30
0.0
 40
0.0222967370620676
 50
227.232497211364489
 51
264.826157261241292
  0
ARC
  5
3287C
  8
0
 10
6885.1797550357887303
 20
213.9378367699605121
 30
0.0
 40
0.0144755633144366
 50
264.826157261241292
 51
298.7798861816023077
  0
ARC
  5
3287D
  8
0
 10
6885.1704506395508361
 20
213.9547754866372031
 30
0.0
 40
0.0338015021535342
 50
298.7798861816023077
 51
343.0605305373596252
  0
LINE
  5
3287E
  8
0
 10
6885.1705895347131445
 20
213.935681636520286
 30
0.0
 11
6885.1653202903462443
 21
213.9292577060583085
 31
0.0
  0
LINE
  5
3287F
  8
0
 10
6885.1653324632234217
 20
214.0435552357425877
 30
0.0
 11
6885.1693961926775955
 21
214.0386854764444138
 31
0.0
  0
LINE
  5
32880
  8
0
 10
6885.2426588075268228
 20
213.6559600253794997
 30
0.0
 11
6885.2426588075240943
 21
213.8238921984103911
 31
0.0
  0
ARC
  5
32881
  8
0
 10
6885.0188954042823752
 20
213.8495831795717947
 30
0.0
 40
0.2435007086022863
 50
355.2277074714078253
 51
14.7734045535287493
  0
ARC
  5
32882
  8
0
 10
6885.4892203306053489
 20
213.8907358778876073
 30
0.0
 40
0.2358054287396152
 50
174.9054930168202873
 51
195.0956190081249133
  0
LINE
  5
32883
  8
0
 10
6885.2543464315831443
 20
213.9116751181196037
 30
0.0
 11
6885.21380552921255
 21
213.9159663466564041
 31
0.0
  0
LINE
  5
32884
  8
0
 10
6885.2615519466280603
 20
213.829324908505896
 30
0.0
 11
6885.2129873949752437
 21
213.8153602026611964
 31
0.0
  0
ARC
  5
32885
  8
0
 10
6885.1327276684905883
 20
213.859540893025212
 30
0.0
 40
0.1275191789029027
 50
355.22643719775931
 51
14.7768446096592605
  0
ARC
  5
32886
  8
0
 10
6885.3791273709193774
 20
213.8811051843989048
 30
0.0
 40
0.1235849806706267
 50
174.9120488219375034
 51
195.0912329854810139
  0
ARC
  5
32887
  8
0
 10
6885.2519670167175718
 20
213.9022661208333886
 30
0.0
 40
0.0405462121064168
 50
141.4789903377736096
 51
160.2515270836109096
  0
ARC
  5
32888
  8
0
 10
6885.3571406345599826
 20
213.8645080980388968
 30
0.0
 40
0.1522921658384436
 50
160.2515270836109096
 51
199.1409966271120879
  0
ARC
  5
32889
  8
0
 10
6885.2578086688217809
 20
213.830031703954802
 30
0.0
 40
0.0471472127190727
 50
199.1409966271120879
 51
217.0348649606658
  0
ARC
  5
3288A
  8
0
 10
6885.1675244827429196
 20
213.828909726416299
 30
0.0
 40
0.062052298986833
 50
340.9535195946211843
 51
351.6917068796370245
  0
ARC
  5
3288B
  8
0
 10
6885.2098740659112082
 20
213.814289156022113
 30
0.0
 40
0.0172499745697923
 50
325.6424814339064824
 51
340.9535195946413069
  0
ARC
  5
3288C
  8
0
 10
6885.2174889964662725
 20
213.8090833931111092
 30
0.0
 40
0.0080257057737592
 50
296.8213828412461908
 51
325.6424814339039244
  0
ARC
  5
3288D
  8
0
 10
6885.2198170658639356
 20
213.8044788697746128
 30
0.0
 40
0.0028660989791958
 50
277.1238394459305141
 51
296.8213828412992825
  0
ARC
  5
3288E
  8
0
 10
6885.185672061981677
 20
213.9054164696084968
 30
0.0
 40
0.0432187538732543
 50
12.0934666406823794
 51
21.9017578525359191
  0
ARC
  5
3288F
  8
0
 10
6885.2112949392394512
 20
213.915717713389796
 30
0.0
 40
0.0156026813375438
 50
21.9017578525359191
 51
37.3524296985672919
  0
ARC
  5
32890
  8
0
 10
6885.2185013009057002
 20
213.9212179183475087
 30
0.0
 40
0.0065371475389378
 50
37.3524296985646913
 51
74.5345565805357637
  0
LINE
  5
32891
  8
0
 10
6885.2426588075259133
 20
213.7846520259217016
 30
0.0
 11
6885.2748763282615982
 21
213.781265828033014
 31
0.0
  0
LINE
  5
32892
  8
0
 10
6885.2748763282615982
 20
213.781265828033014
 30
0.0
 11
6885.282082118087601
 21
213.6989032743148016
 31
0.0
  0
LINE
  5
32893
  8
0
 10
6885.282082118087601
 20
213.6989032743148016
 30
0.0
 11
6885.2426588075268228
 21
213.6875988219094893
 31
0.0
  0
ARC
  5
32894
  8
0
 10
6885.0979539335839945
 20
213.7295688791816133
 30
0.0
 40
0.1270083837756394
 50
346.01594458731131
 51
23.9816950196289795
  0
ARC
  5
32895
  8
0
 10
6885.3284946152552948
 20
213.7497337902200911
 30
0.0
 40
0.1187389289363926
 50
164.6374684459536013
 51
205.3601711609717029
  0
ARC
  5
32896
  8
0
 10
6885.1560390870627089
 20
213.7344659985583064
 30
0.0
 40
0.0653211345161105
 50
345.7808774815867991
 51
24.5282599814886204
  0
ARC
  5
32897
  8
0
 10
6885.276533476968325
 20
213.7453355196506948
 30
0.0
 40
0.0631926081771662
 50
165.1008122458320031
 51
205.2083252172400023
  0
LINE
  5
32898
  8
0
 10
6885.2139983638617196
 20
213.781190771348804
 30
0.0
 11
6885.1577340530729998
 21
213.7872744172904902
 31
0.0
  0
LINE
  5
32899
  8
0
 10
6885.2211981714226567
 20
213.6988770661226908
 30
0.0
 11
6885.1579325557613629
 21
213.6807100770741954
 31
0.0
  0
ARC
  5
3289A
  8
0
 10
6885.1648157196541433
 20
213.7654632976376945
 30
0.0
 40
0.0357242831455581
 50
29.680738967773479
 51
46.4832740533453972
  0
ARC
  5
3289B
  8
0
 10
6885.1750154575829583
 20
213.7762052967341901
 30
0.0
 40
0.0209112754015378
 50
46.4832740533465198
 51
76.657001312960972
  0
ARC
  5
3289C
  8
0
 10
6885.1756456000712205
 20
213.7788620796409873
 30
0.0
 40
0.0181807855243246
 50
76.6570013129606025
 51
105.5865304538909015
  0
ARC
  5
3289D
  8
0
 10
6885.1788382496006307
 20
213.7729976327892985
 30
0.0
 40
0.024732913340892
 50
109.0623839183174937
 51
122.3003928070881017
  0
ARC
  5
3289E
  8
0
 10
6885.1875524744918948
 20
213.759800019492701
 30
0.0
 40
0.040546032982201
 50
122.7434303836339069
 51
137.3428381153997009
  0
ARC
  5
3289F
  8
0
 10
6885.2138572023550296
 20
213.7379284588456869
 30
0.0
 40
0.0747317302128163
 50
138.6766340336276926
 51
167.9473828701160869
  0
ARC
  5
328A0
  8
0
 10
6885.2261642031498923
 20
213.7341689302373879
 30
0.0
 40
0.0875594612742304
 50
167.223092839336914
 51
198.5828334700906908
  0
ARC
  5
328A1
  8
0
 10
6885.2094618195051225
 20
213.7275453755231069
 30
0.0
 40
0.0696236688423296
 50
197.7964191771559967
 51
222.4287185505870923
  0
ARC
  5
328A2
  8
0
 10
6885.5753351971707161
 20
214.1238762677589875
 30
0.0
 40
0.6087919012542948
 50
226.7332060944667944
 51
227.2324972113667059
  0
ARC
  5
328A3
  8
0
 10
6885.1770902974003548
 20
213.6933213032918957
 30
0.0
 40
0.0222967370620676
 50
227.232497211364489
 51
264.826157261241292
  0
ARC
  5
328A4
  8
0
 10
6885.1763850002243998
 20
213.6855319955764969
 30
0.0
 40
0.0144755633144366
 50
264.826157261241292
 51
298.7798861816023077
  0
ARC
  5
328A5
  8
0
 10
6885.1670806039855961
 20
213.7024707122531879
 30
0.0
 40
0.0338015021535342
 50
298.7798861816023077
 51
343.0605305373596252
  0
LINE
  5
328A6
  8
0
 10
6885.1672194991479046
 20
213.6833768621362992
 30
0.0
 11
6885.1619502547800948
 21
213.6769529316742933
 31
0.0
  0
LINE
  5
328A7
  8
0
 10
6885.1619624276581817
 20
213.7912504613586009
 30
0.0
 11
6885.1660261571141746
 21
213.7863807020603986
 31
0.0
  0
ARC
  5
328A8
  8
0
 10
6885.0200257379292452
 20
213.6098253745257978
 30
0.0
 40
0.2435007086022863
 50
350.6073090779166819
 51
10.1530061600375596
  0
ARC
  5
328A9
  8
0
 10
6885.4921372377903026
 20
213.6129578812997067
 30
0.0
 40
0.2358054287396152
 50
170.2850946233201057
 51
190.4752206146237086
  0
LINE
  5
328AA
  8
0
 10
6885.2597133523768207
 20
213.6527490576173989
 30
0.0
 11
6885.2196498720086311
 21
213.6602920641900027
 31
0.0
  0
LINE
  5
328AB
  8
0
 10
6885.2602618297696608
 20
213.5700860329750128
 30
0.0
 11
6885.2107301901351093
 21
213.560078767524999
 31
0.0
  0
ARC
  5
328AC
  8
0
 10
6885.1342902087853872
 20
213.6105811075418046
 30
0.0
 40
0.1275191789029027
 50
350.6060388042662908
 51
10.1564462161653495
  0
ARC
  5
328AD
  8
0
 10
6885.3816262623986404
 20
213.6122268903621944
 30
0.0
 40
0.1235849806706267
 50
170.2916504284438872
 51
190.4708345919817987
  0
ARC
  5
328AE
  8
0
 10
6885.256583739576854
 20
213.6435623079875086
 30
0.0
 40
0.0405462121064168
 50
136.8585919442930106
 51
155.6311286901078859
  0
ARC
  5
328AF
  8
0
 10
6885.358374018917857
 20
213.5974548551471059
 30
0.0
 40
0.1522921658384436
 50
155.6311286901078859
 51
194.5205982336250088
  0
ARC
  5
328B0
  8
0
 10
6885.2565876516855496
 20
213.5710920667447965
 30
0.0
 40
0.0471472127190727
 50
194.5205982336250088
 51
212.4144665671813925
  0
ARC
  5
328B1
  8
0
 10
6885.1665064859289487
 20
213.5772464688471075
 30
0.0
 40
0.062052298986833
 50
336.3331212011464117
 51
347.0713084861358766
  0
ARC
  5
328B2
  8
0
 10
6885.2075407017064208
 20
213.5592619919661956
 30
0.0
 40
0.0172499745697923
 50
321.0220830404147137
 51
336.3331212011507887
  0
ARC
  5
328B3
  8
0
 10
6885.2147115417983514
 20
213.5534597348870989
 30
0.0
 40
0.0080257057737592
 50
292.2009844477723277
 51
321.0220830404109051
  0
ARC
  5
328B4
  8
0
 10
6885.2166611337670474
 20
213.5486826402236886
 30
0.0
 40
0.0028660989791958
 50
272.5034410524378927
 51
292.2009844478254763
  0
ARC
  5
328B5
  8
0
 10
6885.1907579985536358
 20
213.6520427289244992
 30
0.0
 40
0.0432187538732543
 50
7.4730682471834191
 51
17.2813594590544284
  0
ARC
  5
328B6
  8
0
 10
6885.2171274124375486
 20
213.660246476457786
 30
0.0
 40
0.0156026813375438
 50
17.2813594590544284
 51
32.7320313050826215
  0
ARC
  5
328B7
  8
0
 10
6885.2247534176876798
 20
213.6651483074396936
 30
0.0
 40
0.0065371475389378
 50
32.7320313050798788
 51
69.9141581870494946
  0
LINE
  5
328B8
  8
0
 10
6885.2745947026469366
 20
217.419194502676703
 30
0.0
 11
6884.172281064683375
 21
217.4283823672228095
 31
0.0
  0
LINE
  5
328B9
  8
0
 10
6884.172281064683375
 20
217.4283823672228095
 30
0.0
 11
6884.0935272058832197
 21
207.9798884629414033
 31
0.0
  0
LINE
  5
328BA
  8
0
 10
6884.0935272058832197
 20
207.9798884629414033
 30
0.0
 11
6885.1958511200837165
 21
207.9707005127415016
 31
0.0
  0
LINE
  5
328BB
  8
0
 10
6884.1917541238817648
 20
207.9556897860414892
 30
0.0
 11
6885.0972344819838327
 21
207.9481425412415092
 31
0.0
  0
LINE
  5
328BC
  8
0
 10
6885.0972344819838327
 20
207.9481425412415092
 30
0.0
 11
6885.016256392383184
 21
206.5713483200414089
 31
0.0
  0
LINE
  5
328BD
  8
0
 10
6880.3698943226663687
 20
207.8966346785416022
 30
0.0
 11
6882.9122151484825736
 21
207.8966346714541089
 31
0.0
  0
LINE
  5
328BE
  8
0
 10
6882.9122151484825736
 20
207.8966346714541089
 30
0.0
 11
6882.9122151439805748
 21
206.2824614431415
 31
0.0
  0
LINE
  5
328BF
  8
0
 10
6882.9122151439805748
 20
206.2824614431415
 30
0.0
 11
6882.7547348289817819
 21
206.2824614436414947
 31
0.0
  0
LINE
  5
328C0
  8
0
 10
6882.4791442778832788
 20
206.282461444341493
 30
0.0
 11
6881.9673332618622226
 21
206.2824615073724033
 31
0.0
  0
ARC
  5
328C1
  8
0
 10
6881.9673332497395677
 20
206.1840435906420055
 30
0.0
 40
0.0984179167303808
 50
89.999992943860974
 51
180.0043010648039967
  0
LINE
  5
328C2
  8
0
 10
6881.8689153332888964
 20
206.1840362026312903
 30
0.0
 11
6881.8689168109949605
 21
206.1643512085522048
 31
0.0
  0
LINE
  5
328C3
  8
0
 10
6881.8689168109949605
 20
206.1643512085522048
 30
0.0
 11
6880.8846560885822328
 21
206.1643512085522048
 31
0.0
  0
LINE
  5
328C4
  8
0
 10
6880.8846560885822328
 20
206.1643512085522048
 30
0.0
 11
6880.8846560885822328
 21
206.1840362043278958
 31
0.0
  0
ARC
  5
328C5
  8
0
 10
6880.7862308438679975
 20
206.1840362043278958
 30
0.0
 40
0.0984252447135425
 50
0.0000000000016284
 51
89.9999719919096748
  0
LINE
  5
328C6
  8
0
 10
6880.7862308919839052
 20
206.2824614490415058
 30
0.0
 11
6880.3698990566826978
 21
206.2824616525583963
 31
0.0
  0
ARC
  5
328C7
  8
0
 10
6883.5225867734889107
 20
205.5367983424609122
 30
0.0
 40
3.9380575443431178
 50
143.1130266386500125
 51
146.3204008732350871
  0
ARC
  5
328C8
  8
0
 10
6881.9168526685780307
 20
206.6068640254773925
 30
0.0
 40
2.0084403331733061
 50
146.3204008732350871
 51
156.681856271846101
  0
ARC
  5
328C9
  8
0
 10
6880.7990499901634394
 20
207.0886855960114019
 30
0.0
 40
0.7912160918343926
 50
156.681856271846101
 51
204.8537136361256898
  0
ARC
  5
328CA
  8
0
 10
6882.2407988345958074
 20
207.7565079839887119
 30
0.0
 40
2.3801234120724311
 50
204.8537136361256898
 51
215.2020711612236994
  0
ARC
  5
328CB
  8
0
 10
6884.246178003822024
 20
209.1712559402276952
 30
0.0
 40
4.8343152122483222
 50
215.2020711612236994
 51
216.7535764514956895
  0
ARC
  5
328CC
  8
0
 10
6882.6169395514134521
 20
205.4871883874322123
 30
0.0
 40
0.8071225262951516
 50
80.1700768124964753
 51
99.8299228964160932
  0
LINE
  5
328CD
  8
0
 10
6880.9240261670829568
 20
206.1052960943414973
 30
0.0
 11
6881.8295379781829979
 21
206.1052960918414954
 31
0.0
  0
LINE
  5
328CE
  8
0
 10
6881.8295379781829979
 20
206.1052960918414954
 30
0.0
 11
6881.7704828560827082
 21
204.6879732573414969
 31
0.0
  0
LINE
  5
328CF
  8
0
 10
6881.7704828560827082
 20
204.6879732573414969
 30
0.0
 11
6880.9830812812815566
 21
204.6879732595415078
 31
0.0
  0
LINE
  5
328D0
  8
0
 10
6880.9830812812815566
 20
204.6879732595415078
 30
0.0
 11
6880.9240261670829568
 21
206.1052960943414973
 31
0.0
  0
LINE
  5
328D1
  8
0
 10
6880.9712702617825926
 20
206.1643512085522048
 30
0.0
 11
6880.9712702615815942
 21
206.1052960942415098
 31
0.0
  0
LINE
  5
328D2
  8
0
 10
6881.7822938837816764
 20
206.1643512100791042
 30
0.0
 11
6881.782293883683451
 21
206.1052960919415113
 31
0.0
  0
ARC
  5
328D3
  8
0
 10
6881.7558146829978796
 20
204.6407325814543867
 30
0.0
 40
1.9066636836289079
 50
111.7561659284128979
 51
120.5655482700768033
  0
ARC
  5
328D4
  8
0
 10
6881.3762425035629349
 20
205.6354203497550088
 30
0.0
 40
0.8422915258927773
 50
68.0050150663690829
 51
112.855036608981095
  0
ARC
  5
328D5
  8
0
 10
6881.0669627825900534
 20
204.7802603031487934
 30
0.0
 40
1.751363885065963
 50
59.0629004882634092
 51
69.1013561552300786
  0
LINE
  5
328D6
  8
0
 10
6883.325600970782034
 20
206.2824614420414946
 30
0.0
 11
6882.9319001833828224
 21
206.2824614431366967
 31
0.0
  0
LINE
  5
328D7
  8
0
 10
6882.9319001833828224
 20
206.2824614431366967
 30
0.0
 11
6882.9319001902822492
 21
208.7627764037414977
 31
0.0
  0
LINE
  5
328D8
  8
0
 10
6882.9319001902822492
 20
208.7627764037414977
 30
0.0
 11
6883.3256009776832798
 21
208.762776402641407
 31
0.0
  0
LINE
  5
328D9
  8
0
 10
6883.3256009776832798
 20
208.762776402641407
 30
0.0
 11
6883.3256009707529302
 21
206.2824614420414946
 31
0.0
  0
LINE
  5
328DA
  8
0
 10
6882.9319001879821371
 20
207.9412530829415005
 30
0.0
 11
6883.3256009753822582
 21
207.941253081841495
 31
0.0
  0
LINE
  5
328DB
  8
0
 10
6882.9319001878357085
 20
207.8831822857414977
 30
0.0
 11
6883.3256009751821693
 21
207.8831822846414923
 31
0.0
  0
LINE
  5
328DC
  8
0
 10
6882.9122151482633853
 20
207.8178945140415124
 30
0.0
 11
6882.9319001876538096
 21
207.8178945139866869
 31
0.0
  0
LINE
  5
328DD
  8
0
 10
6882.9122151441815731
 20
206.3612016006414933
 30
0.0
 11
6882.9319001836029202
 21
206.3612016005415057
 31
0.0
  0
LINE
  5
328DE
  8
0
 10
6883.3452860145989689
 20
206.2923169838857973
 30
0.0
 11
6883.3452860145816885
 21
207.8867791281415123
 31
0.0
  0
ARC
  5
328DF
  8
0
 10
6883.35514156532372
 20
207.8867791281143127
 30
0.0
 40
0.0098555507420066
 50
90.0757565338324326
 51
179.9999998418911105
  0
LINE
  5
328E0
  8
0
 10
6883.3551285343110067
 20
207.8966346702414967
 30
0.0
 11
6884.1273997341431823
 21
207.8966346681415871
 31
0.0
  0
ARC
  5
328E1
  8
0
 10
6884.9783453397531048
 20
209.3299536389910998
 30
0.0
 40
1.6641290380624969
 50
239.6485049214259107
 51
241.947057677004608
  0
ARC
  5
328E2
  8
0
 10
6884.1273997340886126
 20
207.8767346681416086
 30
0.0
 40
0.0199
 50
59.6485049214267491
 51
89.9999998441904836
  0
ARC
  5
328E3
  8
0
 10
6884.7160604409100415
 20
208.8103135453700077
 30
0.0
 40
1.082267451741542
 50
241.2635714735696979
 51
253.9333273072095096
  0
ARC
  5
328E4
  8
0
 10
6884.5972955234519759
 20
208.4054676155085133
 30
0.0
 40
0.6603690935753154
 50
254.1140170237939913
 51
286.0751121885371049
  0
ARC
  5
328E5
  8
0
 10
6884.3601331303525512
 20
209.1499569608581055
 30
0.0
 40
1.4415821417772861
 50
286.9392881085266254
 51
291.6657458400188716
  0
ARC
  5
328E6
  8
0
 10
6884.8962660142979075
 20
207.8003664660604954
 30
0.0
 40
0.0106
 50
359.9999998417151801
 51
111.665745840069107
  0
LINE
  5
328E7
  8
0
 10
6884.9068660142993394
 20
207.8003664660311074
 30
0.0
 11
6884.9068660103812363
 21
206.3823909220980966
 31
0.0
  0
ARC
  5
328E8
  8
0
 10
6883.3551415653419099
 20
206.2923169839129969
 30
0.0
 40
0.0098555507420066
 50
180.0000001581088895
 51
269.9242434661675247
  0
LINE
  5
328E9
  8
0
 10
6883.3551285343255586
 20
206.2824614417858129
 30
0.0
 11
6884.18475540288091
 21
206.2824614440415871
 31
0.0
  0
ARC
  5
328EA
  8
0
 10
6884.7861350834373297
 20
205.1864831351290093
 30
0.0
 40
1.248833632224206
 50
110.5589654824932069
 51
118.5222562504325055
  0
ARC
  5
328EB
  8
0
 10
6884.1847554028518061
 20
206.293061444041598
 30
0.0
 40
0.0106
 50
270.000000155757391
 51
298.522256250430928
  0
ARC
  5
328EC
  8
0
 10
6884.6110622253763722
 20
205.6532717231426091
 30
0.0
 40
0.7502936724119085
 50
92.5178243459783261
 51
110.5589654824932069
  0
ARC
  5
328ED
  8
0
 10
6884.6019622571038781
 20
205.8602178963805045
 30
0.0
 40
0.5431475210106579
 50
81.8211509982696725
 51
92.5178243459783261
  0
ARC
  5
328EE
  8
0
 10
6884.5572637096584003
 20
205.5492182603491926
 30
0.0
 40
0.8573428961441296
 50
72.9375444285516465
 51
81.8211509982696725
  0
ARC
  5
328EF
  8
0
 10
6884.8230506572735976
 20
206.4151909221415053
 30
0.0
 40
0.0485
 50
252.9375444285516039
 51
270.0
  0
LINE
  5
328F0
  8
0
 10
6884.8230506572735976
 20
206.3666909221414869
 30
0.0
 11
6884.8911660103813119
 21
206.3666909221414869
 31
0.0
  0
ARC
  5
328F1
  8
0
 10
6884.8911660103813119
 20
206.3823909221414965
 30
0.0
 40
0.0157
 50
270.0
 51
359.9999998417135885
  0
LINE
  5
328F2
  8
0
 10
6884.9068660109069242
 20
206.5722600968420863
 30
0.0
 11
6885.016256392383184
 21
206.5713483200414089
 31
0.0
  0
LINE
  5
328F3
  8
0
 10
6881.0913489978829602
 20
204.6879732592389871
 30
0.0
 11
6881.0913489375816425
 21
182.9524954354415058
 31
0.0
  0
ARC
  5
328F4
  8
0
 10
6883.004897868732769
 20
182.9524954301328137
 30
0.0
 40
1.913548931149996
 50
179.9999998410459057
 51
359.9999998411777824
  0
LINE
  5
328F5
  8
0
 10
6884.9184467998829859
 20
182.9524954248284985
 30
0.0
 11
6884.9184468653556905
 21
206.5721635695763894
 31
0.0
  0
LINE
  5
328F6
  8
0
 10
6881.6622151395822584
 20
204.6879732576414881
 30
0.0
 11
6881.6622150792818502
 21
182.9524954354415058
 31
0.0
  0
ARC
  5
328F7
  8
0
 10
6883.0048978686827468
 20
182.9524954317164998
 30
0.0
 40
1.3426827893999971
 50
179.9999998410459057
 51
359.9999998411777824
  0
LINE
  5
328F8
  8
0
 10
6884.3475806580827339
 20
182.9524954279945916
 30
0.0
 11
6884.3475807229560814
 21
206.3557801520910004
 31
0.0
  0
LINE
  5
328F9
  8
0
 10
6884.1917541238817648
 20
207.9556897860414892
 30
0.0
 11
6884.1957267208936173
 21
207.8613374355994949
 31
0.0
  0
LINE
  5
328FA
  8
0
 10
6884.2824970196816139
 20
207.9783133857648068
 30
0.0
 11
6884.2824970196816139
 21
207.9549334373892862
 31
0.0
  0
LINE
  5
328FB
  8
0
 10
6885.0068813062825939
 20
207.9722755899180981
 30
0.0
 11
6885.0068813062825939
 21
207.9488956415482903
 31
0.0
  0
LINE
  5
328FC
  8
0
 10
6878.2271907367830863
 20
203.5856110577414881
 30
0.0
 11
6880.3531450674818188
 21
203.5856110577414881
 31
0.0
  0
ARC
  5
328FD
  8
0
 10
6878.2271907367830863
 20
203.6053110577414884
 30
0.0
 40
0.0197
 50
179.9999999999951115
 51
270.0
  0
ARC
  5
328FE
  8
0
 10
6878.2271907367830863
 20
203.5659110577414879
 30
0.0
 40
0.0197
 50
90.0
 51
180.0000000000048885
  0
ARC
  5
328FF
  8
0
 10
6880.3531450674818188
 20
203.6053110577414884
 30
0.0
 40
0.0197
 50
270.0
 51
0.0000000000048853
  0
ARC
  5
32900
  8
0
 10
6880.3531450674818188
 20
203.5659110577414879
 30
0.0
 40
0.0197
 50
359.9999999999951115
 51
90.0
  0
LINE
  5
32902
  8
0
 10
6877.7441720398674079
 20
212.4793103449445937
 30
0.0
 11
6880.8361637641983179
 21
212.4793103449445937
 31
0.0
  0
ARC
  5
32903
  8
0
 10
6877.7963005489827992
 20
212.5383654630446131
 30
0.0
 40
0.0809357964999915
 50
179.9999999999967031
 51
224.4600349797090928
  0
ARC
  5
32904
  8
0
 10
6877.7441720398674079
 20
212.4872103449446001
 30
0.0
 40
0.0079
 50
224.4600349799372054
 51
269.9999999999478746
  0
LINE
  5
32905
  8
0
 10
6878.9300937766156494
 20
211.2842947461876975
 30
0.0
 11
6877.7543173078820473
 21
212.4658823011446032
 31
0.0
  0
ARC
  5
32906
  8
0
 10
6878.9440580763230173
 20
211.2981903690123886
 30
0.0
 40
0.0197
 50
224.8587617197566999
 51
270.0
  0
ARC
  5
32907
  8
0
 10
6877.7598987858818873
 20
212.4714363292445967
 30
0.0
 40
0.007874015699999
 50
90.0
 51
224.8587623902780877
  0
ARC
  5
32908
  8
0
 10
6880.7840352550820171
 20
212.5383654630446131
 30
0.0
 40
0.0809357964999915
 50
315.5399650202908788
 51
0.0000000000032569
  0
ARC
  5
32909
  8
0
 10
6880.8361637641983179
 20
212.4872103449446001
 30
0.0
 40
0.0079
 50
270.0000000000521254
 51
315.539965020062823
  0
LINE
  5
3290A
  8
0
 10
6879.6502420274491669
 20
211.2842947461876975
 30
0.0
 11
6880.826018496182769
 21
212.4658823011446032
 31
0.0
  0
ARC
  5
3290B
  8
0
 10
6879.636277727741799
 20
211.2981903690123886
 30
0.0
 40
0.0197
 50
270.0
 51
315.1412382802432717
  0
ARC
  5
3290C
  8
0
 10
6880.820437018182929
 20
212.4714363292445967
 30
0.0
 40
0.007874015699999
 50
315.1412376097218271
 51
90.0
  0
LINE
  5
3290D
  8
0
 10
6877.7131672730492937
 20
212.6211428815319096
 30
0.0
 11
6877.715392540359062
 21
212.536244780202793
 31
0.0
  0
ARC
  5
3290E
  8
0
 10
6877.7463998650327994
 20
212.62253474861879
 30
0.0
 40
0.0332617267150017
 50
142.0465975844780075
 51
182.3982940808546971
  0
ARC
  5
3290F
  8
0
 10
6877.7403027253158143
 20
212.6269890877443061
 30
0.0
 40
0.0257156517372362
 50
95.9692649526030976
 51
141.5172742249841065
  0
ARC
  5
32910
  8
0
 10
6877.7492407690187974
 20
212.5979178923699919
 30
0.0
 40
0.0558675769789477
 50
92.3069002773503939
 51
101.9966653038935931
  0
ARC
  5
32911
  8
0
 10
6877.7439410482047606
 20
212.6213188050635097
 30
0.0
 40
0.032564620364343
 50
49.5439903553146834
 51
84.6241575678427154
  0
ARC
  5
32912
  8
0
 10
6877.7703507289688787
 20
212.6226485614591013
 30
0.0
 40
0.0226651220489912
 50
126.603657589537903
 51
180.0346692095384071
  0
ARC
  5
32913
  8
0
 10
6877.7981432612195931
 20
212.5851770157829037
 30
0.0
 40
0.0693185382914332
 50
108.2660451862392961
 51
126.5771124555842988
  0
ARC
  5
32914
  8
0
 10
6877.7982514825753242
 20
212.5848491329639955
 30
0.0
 40
0.0696638193425293
 50
94.2422234042250153
 51
108.2660451862392961
  0
ARC
  5
32915
  8
0
 10
6877.7986430989285509
 20
212.5795696025666075
 30
0.0
 40
0.0749578541540481
 50
75.0088885247606783
 51
94.2422234042250153
  0
ARC
  5
32916
  8
0
 10
6877.7899394305877649
 20
212.5470669018438059
 30
0.0
 40
0.1086057277403339
 50
63.2102926194124635
 51
75.0088885247606783
  0
ARC
  5
32917
  8
0
 10
6877.8467868077650564
 20
212.6237454527602893
 30
0.0
 40
0.0220185630123814
 50
127.8662067720936051
 51
182.8186555621373088
  0
ARC
  5
32918
  8
0
 10
6877.8813199023661582
 20
212.5545511185111991
 30
0.0
 40
0.0990161798651131
 50
104.7289901208676071
 51
119.029462415139804
  0
ARC
  5
32919
  8
0
 10
6877.8916949362401283
 20
212.5243207164419914
 30
0.0
 40
0.1309120724331973
 50
93.9974519662174401
 51
105.7567305945082978
  0
ARC
  5
3291A
  8
0
 10
6877.8919333916792311
 20
212.5089514616884969
 30
0.0
 40
0.1462629345504194
 50
76.022322944991032
 51
93.6709233505907832
  0
ARC
  5
3291B
  8
0
 10
6877.761746464112548
 20
212.0321315714870991
 30
0.0
 40
0.6405072114684378
 50
72.6626879034424462
 51
75.0240424642912132
  0
ARC
  5
3291C
  8
0
 10
6877.9635507266211789
 20
212.6246243274792107
 30
0.0
 40
0.0229392340495351
 50
141.7186784089560092
 51
184.8578793551824901
  0
ARC
  5
3291D
  8
0
 10
6877.9726297108909421
 20
212.6057759965318894
 30
0.0
 40
0.0427385633155947
 50
102.4215120851031031
 51
129.3277214049026043
  0
ARC
  5
3291E
  8
0
 10
6878.0211545365300481
 20
212.4476807039665118
 30
0.0
 40
0.2080018223911114
 50
96.6269174919364531
 51
106.1103282376729027
  0
ARC
  5
3291F
  8
0
 10
6878.0238948280748446
 20
212.42163952326149
 30
0.0
 40
0.2341854245195233
 50
90.0392045957772638
 51
96.5576128910289953
  0
ARC
  5
32920
  8
0
 10
6878.0196071042037147
 20
212.4145598553328966
 30
0.0
 40
0.2413003408488437
 50
70.9995923508239031
 51
89.0198983135082642
  0
ARC
  5
32921
  8
0
 10
6878.1146953581719572
 20
212.6257906331844936
 30
0.0
 40
0.0241076016759272
 50
147.0492412655233068
 51
187.3614504394039102
  0
ARC
  5
32922
  8
0
 10
6878.1060855763189466
 20
212.6313150159515999
 30
0.0
 40
0.0138780727030012
 50
100.3006396207515962
 51
146.8539849613154047
  0
ARC
  5
32923
  8
0
 10
6878.19631865654992
 20
212.3210787638091119
 30
0.0
 40
0.3368993373307072
 50
101.4497947097097068
 51
105.9739270463843042
  0
ARC
  5
32924
  8
0
 10
6878.182268951352853
 20
212.3712192614318042
 30
0.0
 40
0.2849932477269392
 50
93.1447466759287863
 51
100.6824420345194966
  0
ARC
  5
32925
  8
0
 10
6878.184047251258562
 20
212.3777004039882002
 30
0.0
 40
0.2786275705845469
 50
82.0131406822220868
 51
93.5829953318077798
  0
ARC
  5
32926
  8
0
 10
6878.1730652660107808
 20
212.2994292695296963
 30
0.0
 40
0.3576653747633831
 50
75.0470302391347843
 51
82.0131406822220868
  0
ARC
  5
32927
  8
0
 10
6878.2731385518964089
 20
212.6741378787212113
 30
0.0
 40
0.0301763511375877
 50
255.0470302391348127
 51
280.9575803585161111
  0
ARC
  5
32928
  8
0
 10
6878.2945256624652757
 20
212.6272645793692107
 30
0.0
 40
0.0245612129678056
 50
145.2899107377816108
 51
190.6830092881083942
  0
ARC
  5
32929
  8
0
 10
6878.2824700667433717
 20
212.6347177041068051
 30
0.0
 40
0.0104331263599323
 50
100.4218903640860958
 51
141.2338884579426121
  0
ARC
  5
3292A
  8
0
 10
6878.3785498556717357
 20
212.2623846092209874
 30
0.0
 40
0.3949377112669683
 50
96.8366454072380236
 51
104.3625688736572954
  0
ARC
  5
3292B
  8
0
 10
6878.3751024141311063
 20
212.226428873306304
 30
0.0
 40
0.4302963613126721
 50
92.1024483162774743
 51
95.8108949969361845
  0
ARC
  5
3292C
  8
0
 10
6878.3724111865849409
 20
212.300170874102804
 30
0.0
 40
0.3565052705121511
 50
80.8889868006246076
 51
92.1050058522487234
  0
ARC
  5
3292D
  8
0
 10
6878.3651517119069467
 20
212.2472758497447103
 30
0.0
 40
0.4098842410464317
 50
76.004023913762552
 51
81.0578377685953058
  0
ARC
  5
3292E
  8
0
 10
6878.5087923485316423
 20
212.6290767053058914
 30
0.0
 40
0.0347998094540492
 50
167.1533502981839945
 51
190.5204326590933874
  0
ARC
  5
3292F
  8
0
 10
6878.4863447232391991
 20
212.6341561994250924
 30
0.0
 40
0.0117847553234954
 50
113.2340690095410025
 51
166.9651428688289911
  0
ARC
  5
32930
  8
0
 10
6878.591466682484679
 20
212.1833173580085941
 30
0.0
 40
0.4745385853682426
 50
96.6226471531196864
 51
103.3748778746308972
  0
ARC
  5
32931
  8
0
 10
6878.5812776576285614
 20
212.1742401309440993
 30
0.0
 40
0.4825094049704541
 50
84.3914333701134893
 51
95.2963905178246904
  0
ARC
  5
32932
  8
0
 10
6878.5773055322997607
 20
212.1976611078291057
 30
0.0
 40
0.4596311392486549
 50
76.7177562455114952
 51
83.6132964886467249
  0
ARC
  5
32933
  8
0
 10
6878.6928981293140168
 20
212.6885703979995128
 30
0.0
 40
0.044704477869405
 50
257.0830104353245247
 51
281.7228384881051966
  0
ARC
  5
32934
  8
0
 10
6878.7484818749517217
 20
212.6327776806469103
 30
0.0
 40
0.0513102276345739
 50
177.9704741518665969
 51
191.2948208275101081
  0
ARC
  5
32935
  8
0
 10
6878.7182685864863743
 20
212.6338002185667904
 30
0.0
 40
0.021079733856626
 50
152.9087235458273994
 51
177.839757409479887
  0
ARC
  5
32936
  8
0
 10
6878.7085064311086171
 20
212.6303300523148891
 30
0.0
 40
0.0158717505761993
 50
94.432678648161442
 51
124.5652787195828068
  0
ARC
  5
32937
  8
0
 10
6878.8134043565833053
 20
212.158160821482511
 30
0.0
 40
0.4993997361215093
 50
97.1568972888330933
 51
102.269154059665297
  0
ARC
  5
32938
  8
0
 10
6878.8087868570100909
 20
212.1903224532740921
 30
0.0
 40
0.4669137588954638
 50
91.328834806215113
 51
97.0863862693678925
  0
ARC
  5
32939
  8
0
 10
6878.8092096167765703
 20
212.1930174073303874
 30
0.0
 40
0.4642295871010975
 50
80.3174868027036126
 51
91.3887117930390644
  0
ARC
  5
3293A
  8
0
 10
6878.792438006618795
 20
212.0947188151162095
 30
0.0
 40
0.563948693287556
 50
77.3605463716832844
 51
80.3174868027036126
  0
ARC
  5
3293B
  8
0
 10
6878.9258698826415639
 20
212.6897338294029112
 30
0.0
 40
0.0458438392723554
 50
257.3605463716833128
 51
282.6394536283166872
  0
ARC
  5
3293C
  8
0
 10
6879.0476470888515905
 20
212.1466906807006865
 30
0.0
 40
0.5106860784363728
 50
95.1516151006283053
 51
102.6394536283167014
  0
ARC
  5
3293D
  8
0
 10
6879.0452248629899259
 20
212.1735578139281131
 30
0.0
 40
0.4837099774211694
 50
76.6712153279025728
 51
95.1516151006283053
  0
ARC
  5
3293E
  8
0
 10
6879.1660370069757846
 20
212.6834847323960105
 30
0.0
 40
0.0403329943976511
 50
256.671215327902587
 51
287.4266951810284922
  0
ARC
  5
3293F
  8
0
 10
6879.3097332839861338
 20
211.9727060673041876
 30
0.0
 40
0.6850592804284142
 50
91.6344009991844928
 51
101.0768331647717986
  0
ARC
  5
32940
  8
0
 10
6877.9277550728138522
 20
212.5184635970599913
 30
0.0
 40
0.2378885437931022
 50
153.0961990460895947
 51
154.4290976445365118
  0
ARC
  5
32941
  8
0
 10
6877.7262714846638119
 20
212.6197144507702035
 30
0.0
 40
0.0124276789349041
 50
124.1014863653636979
 51
149.0455664607505071
  0
ARC
  5
32942
  8
0
 10
6877.7234393265080143
 20
212.6210748041245893
 30
0.0
 40
0.0098414246298346
 50
67.859698444700868
 51
114.8483929188979005
  0
ARC
  5
32943
  8
0
 10
6877.7124122483301107
 20
212.5930835740828115
 30
0.0
 40
0.0399259341029874
 50
47.7334530969607513
 51
68.3407859925615497
  0
ARC
  5
32944
  8
0
 10
6877.7434728048456236
 20
212.6272773667656111
 30
0.0
 40
0.0062690291313119
 50
227.847927622486111
 51
312.2218441973627137
  0
ARC
  5
32945
  8
0
 10
6877.7755572576852501
 20
212.5843945930876089
 30
0.0
 40
0.0473196122423542
 50
89.2630087211656473
 51
126.0866690757308959
  0
ARC
  5
32946
  8
0
 10
6877.7732037710702571
 20
212.5506048496885967
 30
0.0
 40
0.0811595147508053
 50
62.5990740218054071
 51
87.9083693028568689
  0
ARC
  5
32947
  8
0
 10
6877.817670837544938
 20
212.6372366394226958
 30
0.0
 40
0.0162219609903714
 50
243.9800703658536918
 51
296.0503348387193796
  0
ARC
  5
32948
  8
0
 10
6877.8733140845206435
 20
212.5063840843392029
 30
0.0
 40
0.1259953455935301
 50
67.3733387028787121
 51
112.6491570027051949
  0
ARC
  5
32949
  8
0
 10
6877.9312407613260802
 20
212.648748181129605
 30
0.0
 40
0.0277276312715282
 50
250.066561220015501
 51
289.9334387799843853
  0
ARC
  5
3294A
  8
0
 10
6878.0044355028821883
 20
212.430742578884491
 30
0.0
 40
0.2022464606619561
 50
71.6451392117511716
 51
108.3709548873357988
  0
ARC
  5
3294B
  8
0
 10
6878.0794512922648209
 20
212.660184915670186
 30
0.0
 40
0.039159578315736
 50
253.1851209230071902
 51
286.8256868516887153
  0
ARC
  5
3294C
  8
0
 10
6878.1677776735014049
 20
212.353702137144694
 30
0.0
 40
0.2798007273480619
 50
74.037083063955393
 51
105.9718143558252024
  0
ARC
  5
3294D
  8
0
 10
6878.2575627118476405
 20
212.6707703963321876
 30
0.0
 40
0.0497412997579755
 50
255.0457827258921952
 51
284.9444857767131793
  0
ARC
  5
3294E
  8
0
 10
6878.3585142702286248
 20
212.2816709071684045
 30
0.0
 40
0.3522422083970839
 50
75.5202052410338638
 51
104.4881917090574035
  0
ARC
  5
3294F
  8
0
 10
6878.4605864522809497
 20
212.6797787350814986
 30
0.0
 40
0.0587463752006917
 50
256.214996835900422
 51
283.778007510552527
  0
ARC
  5
32950
  8
0
 10
6878.5715427043160162
 20
212.2201366324725882
 30
0.0
 40
0.4140988053974172
 50
76.4635998314689402
 51
103.5420842523268021
  0
ARC
  5
32951
  8
0
 10
6878.6833256916279424
 20
212.686934976338506
 30
0.0
 40
0.065899383980406
 50
256.9700027392261745
 51
283.0139003540024873
  0
ARC
  5
32952
  8
0
 10
6878.8015445287201146
 20
212.1732334014770061
 30
0.0
 40
0.4612296673040069
 50
77.0501347824628624
 51
102.952198291631305
  0
ARC
  5
32953
  8
0
 10
6878.9203162575950046
 20
212.6918899597191057
 30
0.0
 40
0.0708538256347943
 50
257.4375947933293105
 51
282.56194425182332
  0
ARC
  5
32954
  8
0
 10
6879.0429994563628497
 20
212.143842057757098
 30
0.0
 40
0.4907578850403012
 50
77.3751062732235653
 51
102.6260007506177061
  0
ARC
  5
32955
  8
0
 10
6879.1659524083561337
 20
212.6944029959049942
 30
0.0
 40
0.0733658737028665
 50
257.6518790891262825
 51
282.3481209108737744
  0
ARC
  5
32956
  8
0
 10
6879.2811783803063008
 20
212.2163819968342011
 30
0.0
 40
0.4183655921228494
 50
88.765181136989014
 51
103.7636786958740061
  0
ARC
  5
32957
  8
0
 10
6877.763444871644424
 20
212.6209684559975983
 30
0.0
 40
0.0242362189441199
 50
132.3193817586665091
 51
176.0695962831802888
  0
ARC
  5
32958
  8
0
 10
6877.7634444984842048
 20
212.6209752460275979
 30
0.0
 40
0.024230947518587
 50
89.9167009523140024
 51
132.3295389066805967
  0
ARC
  5
32959
  8
0
 10
6877.8358124018022863
 20
212.6202332284451018
 30
0.0
 40
0.0253740850175054
 50
122.383201499561693
 51
174.5143248989199094
  0
ARC
  5
3295A
  8
0
 10
6877.8342653439367496
 20
212.6226730887586029
 30
0.0
 40
0.0224850875596137
 50
83.3298633372121458
 51
122.3838929430992977
  0
ARC
  5
3295B
  8
0
 10
6877.9483876341655559
 20
212.6195151809994002
 30
0.0
 40
0.0267878210329572
 50
124.1677558110175994
 51
173.2112742359562958
  0
ARC
  5
3295C
  8
0
 10
6877.9445585970561297
 20
212.6251335588461018
 30
0.0
 40
0.019988741911627
 50
75.6550987874321237
 51
124.1312042562740032
  0
ARC
  5
3295D
  8
0
 10
6878.0963315837916525
 20
212.6189272186086043
 30
0.0
 40
0.0284595208202184
 50
128.5447729645686081
 51
172.382824339517299
  0
ARC
  5
3295E
  8
0
 10
6878.0899185317075535
 20
212.626882301654291
 30
0.0
 40
0.0182416347705135
 50
87.0338059739624441
 51
128.3601907180002968
  0
ARC
  5
3295F
  8
0
 10
6878.2779225232234239
 20
212.6171569475017122
 30
0.0
 40
0.0336572877505319
 50
142.3279079965600999
 51
170.4970377362965905
  0
ARC
  5
32960
  8
0
 10
6878.2657006441386329
 20
212.6270394999741029
 30
0.0
 40
0.0179472423286787
 50
91.1122521434373311
 51
143.4547656790105918
  0
ARC
  5
32961
  8
0
 10
6878.4728789478622275
 20
212.6199966186293864
 30
0.0
 40
0.0264316756434456
 50
108.9768075960281948
 51
174.0763486148603931
  0
ARC
  5
32962
  8
0
 10
6878.4730022208686933
 20
212.678266013792495
 30
0.0
 40
0.0343975139797872
 50
255.3175204124889035
 51
284.6395828512088997
  0
ARC
  5
32963
  8
0
 10
6878.7177131381758954
 20
212.6129486841342953
 30
0.0
 40
0.050207666835102
 50
149.2579660915023965
 51
168.76321130339511
  0
ARC
  5
32964
  8
0
 10
6878.6858816887952344
 20
212.6324610123481875
 30
0.0
 40
0.01288473233154
 50
103.3577223901391022
 51
151.4775192468615046
  0
ARC
  5
32965
  8
0
 10
6878.9452712932788927
 20
212.6167321294701082
 30
0.0
 40
0.0408094678253591
 50
136.1555719720844877
 51
171.5450774493401127
  0
ARC
  5
32966
  8
0
 10
6878.9719687595606956
 20
212.6335831350988883
 30
0.0
 40
0.0378316617670145
 50
162.4338959012862915
 51
196.6676458063708139
  0
ARC
  5
32967
  8
0
 10
6879.2596200965326716
 20
212.6015296239509951
 30
0.0
 40
0.1113939127500764
 50
157.4554810607056936
 51
169.0263231170071947
  0
ARC
  5
32968
  8
0
 10
6879.3044816560477557
 20
212.6535960283470104
 30
0.0
 40
0.1266573406145051
 50
183.8902090381531025
 51
194.1028234554974858
  0
LINE
  5
32969
  8
0
 10
6877.7469919801706055
 20
212.6537401917333909
 30
0.0
 11
6877.7861710744191441
 21
212.6534575250468038
 31
0.0
  0
LINE
  5
3296A
  8
0
 10
6877.8059391222886916
 20
212.654171532451187
 30
0.0
 11
6877.8733924354819464
 21
212.6539470608894931
 31
0.0
  0
LINE
  5
3296B
  8
0
 10
6877.9066381922320943
 20
212.6544733324296033
 30
0.0
 11
6877.9971503309971013
 21
212.654292795177895
 31
0.0
  0
LINE
  5
3296C
  8
0
 10
6878.0375045568680434
 20
212.6551955461227124
 30
0.0
 11
6878.1510335855309677
 21
212.6544956338526049
 31
0.0
  0
LINE
  5
3296D
  8
0
 10
6878.1886647965784505
 20
212.656289709893997
 30
0.0
 11
6878.3315368544353987
 21
212.6545141458483101
 31
0.0
  0
LINE
  5
3296E
  8
0
 10
6878.4072639601099581
 20
212.6549684108481131
 30
0.0
 11
6878.5333805586760718
 21
212.6542874963656971
 31
0.0
  0
LINE
  5
3296F
  8
0
 10
6878.616252828080178
 20
212.655480261582511
 30
0.0
 11
6878.751185718601846
 21
212.6536695878288015
 31
0.0
  0
LINE
  5
32970
  8
0
 10
6878.8567588019514005
 20
212.6548054371982914
 30
0.0
 11
6878.9760057007442811
 21
212.6523266982258065
 31
0.0
  0
LINE
  5
32971
  8
0
 10
6879.1063079702380492
 20
212.6533954909251065
 30
0.0
 11
6879.1980666249901333
 21
212.6486030823662077
 31
0.0
  0
LINE
  5
32972
  8
0
 10
6880.8672210332897521
 20
212.6211428815319096
 30
0.0
 11
6880.8649710515828701
 21
212.5383654630446131
 31
0.0
  0
ARC
  5
32973
  8
0
 10
6880.8339884413044274
 20
212.62253474861879
 30
0.0
 40
0.0332617267150017
 50
357.6017059191452745
 51
37.9534024155220209
  0
ARC
  5
32974
  8
0
 10
6880.840085581024141
 20
212.6269890877443061
 30
0.0
 40
0.0257156517372362
 50
38.4827257750171299
 51
84.0307350473969166
  0
ARC
  5
32975
  8
0
 10
6880.8311475373202484
 20
212.5979178923699919
 30
0.0
 40
0.0558675769789477
 50
78.0033346961063216
 51
87.6930997226496061
  0
ARC
  5
32976
  8
0
 10
6880.8364472581342852
 20
212.6213188050635097
 30
0.0
 40
0.032564620364343
 50
95.3758424321572704
 51
130.4560096446853095
  0
ARC
  5
32977
  8
0
 10
6880.8100375773692576
 20
212.6226485614591013
 30
0.0
 40
0.0226651220489912
 50
359.9653307904616213
 51
53.396342410462097
  0
ARC
  5
32978
  8
0
 10
6880.7822450451176337
 20
212.5851770157829037
 30
0.0
 40
0.0693185382914332
 50
53.4228875444157012
 51
71.7339548137606755
  0
ARC
  5
32979
  8
0
 10
6880.7821368237637216
 20
212.5848491329639955
 30
0.0
 40
0.0696638193425293
 50
71.7339548137606755
 51
85.7577765957749989
  0
ARC
  5
3297A
  8
0
 10
6880.7817452074114044
 20
212.5795696025666075
 30
0.0
 40
0.0749578541540481
 50
85.7577765957749989
 51
104.9911114752392933
  0
ARC
  5
3297B
  8
0
 10
6880.7904488757503714
 20
212.5470669018438059
 30
0.0
 40
0.1086057277403339
 50
104.9911114752392933
 51
116.789707380587501
  0
ARC
  5
3297C
  8
0
 10
6880.7336014985721704
 20
212.6237454527602893
 30
0.0
 40
0.0220185630123814
 50
357.1813444378627196
 51
52.1337932279064233
  0
ARC
  5
3297D
  8
0
 10
6880.6990684039728876
 20
212.5545511185111991
 30
0.0
 40
0.0990161798651131
 50
60.9705375848601605
 51
75.2710098791323361
  0
ARC
  5
3297E
  8
0
 10
6880.688693370099827
 20
212.5243207164419914
 30
0.0
 40
0.1309120724331973
 50
74.2432694054916738
 51
86.0025480337825741
  0
ARC
  5
3297F
  8
0
 10
6880.6884549146598147
 20
212.5089514616884969
 30
0.0
 40
0.1462629345504194
 50
86.3290766494092168
 51
103.9776770550088969
  0
ARC
  5
32980
  8
0
 10
6880.8186418422246788
 20
212.0321315714870991
 30
0.0
 40
0.6405072114684378
 50
104.9759575357088011
 51
107.3373120965574969
  0
ARC
  5
32981
  8
0
 10
6880.6168375797169574
 20
212.6246243274792107
 30
0.0
 40
0.0229392340495351
 50
355.1421206448173962
 51
38.28132159104522
  0
ARC
  5
32982
  8
0
 10
6880.6077585954490132
 20
212.6057759965318894
 30
0.0
 40
0.0427385633155947
 50
50.6722785950973602
 51
77.5784879148968827
  0
ARC
  5
32983
  8
0
 10
6880.5592337698080883
 20
212.4476807039665118
 30
0.0
 40
0.2080018223911114
 50
73.8896717623270263
 51
83.3730825080635469
  0
ARC
  5
32984
  8
0
 10
6880.5564934782632918
 20
212.42163952326149
 30
0.0
 40
0.2341854245195233
 50
83.4423871089710047
 51
89.9607954042227504
  0
ARC
  5
32985
  8
0
 10
6880.5607812021344216
 20
212.4145598553328966
 30
0.0
 40
0.2413003408488437
 50
90.98010168649175
 51
109.0004076491760969
  0
ARC
  5
32986
  8
0
 10
6880.4656929481670886
 20
212.6257906331844936
 30
0.0
 40
0.0241076016759272
 50
352.6385495605945266
 51
32.9507587344780788
  0
ARC
  5
32987
  8
0
 10
6880.4743027300191898
 20
212.6313150159515999
 30
0.0
 40
0.0138780727030012
 50
33.1460150386846308
 51
79.6993603792483611
  0
ARC
  5
32988
  8
0
 10
6880.3840696497873068
 20
212.3210787638091119
 30
0.0
 40
0.3368993373307072
 50
74.0260729536156958
 51
78.5502052902902506
  0
ARC
  5
32989
  8
0
 10
6880.3981193549852833
 20
212.3712192614318042
 30
0.0
 40
0.2849932477269392
 50
79.3175579654804324
 51
86.8552533240712137
  0
ARC
  5
3298A
  8
0
 10
6880.3963410550777553
 20
212.3777004039882002
 30
0.0
 40
0.2786275705845469
 50
86.4170046681922344
 51
97.9868593177779275
  0
ARC
  5
3298B
  8
0
 10
6880.4073230403264461
 20
212.2994292695296963
 30
0.0
 40
0.3576653747633831
 50
97.9868593177779275
 51
104.9529697608652015
  0
ARC
  5
3298C
  8
0
 10
6880.3072497544426369
 20
212.6741378787212113
 30
0.0
 40
0.0301763511375877
 50
259.0424196414838889
 51
284.9529697608651873
  0
ARC
  5
3298D
  8
0
 10
6880.2858626438719511
 20
212.6272645793692107
 30
0.0
 40
0.0245612129678056
 50
349.3169907118914921
 51
34.7100892622197534
  0
ARC
  5
3298E
  8
0
 10
6880.2979182395956741
 20
212.6347177041068051
 30
0.0
 40
0.0104331263599323
 50
38.7661115420573879
 51
79.5781096359138047
  0
ARC
  5
3298F
  8
0
 10
6880.2018384506645816
 20
212.2623846092209874
 30
0.0
 40
0.3949377112669683
 50
75.6374311263426478
 51
83.1633545927619622
  0
ARC
  5
32990
  8
0
 10
6880.2052858922079395
 20
212.226428873306304
 30
0.0
 40
0.4302963613126721
 50
84.1891050030638297
 51
87.8975516837225399
  0
ARC
  5
32991
  8
0
 10
6880.2079771197541049
 20
212.300170874102804
 30
0.0
 40
0.3565052705121511
 50
87.8949941477512908
 51
99.1110131993754067
  0
ARC
  5
32992
  8
0
 10
6880.2152365944302801
 20
212.2472758497447103
 30
0.0
 40
0.4098842410464317
 50
98.9421622314046942
 51
103.9959760862374054
  0
ARC
  5
32993
  8
0
 10
6880.0715959578074035
 20
212.6290767053058914
 30
0.0
 40
0.0347998094540492
 50
349.4795673409066126
 51
12.8466497018160197
  0
ARC
  5
32994
  8
0
 10
6880.0940435830989372
 20
212.6341561994250924
 30
0.0
 40
0.0117847553234954
 50
13.0348571311709804
 51
66.7659309904589264
  0
ARC
  5
32995
  8
0
 10
6879.9889216238543668
 20
212.1833173580085941
 30
0.0
 40
0.4745385853682426
 50
76.6251221253690602
 51
83.3773528468803562
  0
ARC
  5
32996
  8
0
 10
6879.9991106487077559
 20
212.1742401309440993
 30
0.0
 40
0.4825094049704541
 50
84.7036094821752954
 51
95.6085666298864965
  0
ARC
  5
32997
  8
0
 10
6880.0030827740365567
 20
212.1976611078291057
 30
0.0
 40
0.4596311392486549
 50
96.3867035113532893
 51
103.2822437544885048
  0
ARC
  5
32998
  8
0
 10
6879.887490177025029
 20
212.6885703979995128
 30
0.0
 40
0.044704477869405
 50
258.2771615118948034
 51
282.9169895646754753
  0
ARC
  5
32999
  8
0
 10
6879.8319064313873241
 20
212.6327776806469103
 30
0.0
 40
0.0513102276345739
 50
348.7051791724899203
 51
2.0295258481333911
  0
ARC
  5
3299A
  8
0
 10
6879.8621197198517621
 20
212.6338002185667904
 30
0.0
 40
0.021079733856626
 50
2.1602425905200611
 51
27.0912764541725792
  0
ARC
  5
3299B
  8
0
 10
6879.8718818752286097
 20
212.6303300523148891
 30
0.0
 40
0.0158717505761993
 50
55.4347212804171505
 51
85.5673213518385722
  0
ARC
  5
3299C
  8
0
 10
6879.7669839497539215
 20
212.158160821482511
 30
0.0
 40
0.4993997361215093
 50
77.7308459403347172
 51
82.8431027111669067
  0
ARC
  5
3299D
  8
0
 10
6879.7716014493271359
 20
212.1903224532740921
 30
0.0
 40
0.4669137588954638
 50
82.9136137306321359
 51
88.671165193784887
  0
ARC
  5
3299E
  8
0
 10
6879.771178689561566
 20
212.1930174073303874
 30
0.0
 40
0.4642295871010975
 50
88.6112882069609356
 51
99.6825131972963732
  0
ARC
  5
3299F
  8
0
 10
6879.7879502997211603
 20
212.0947188151162095
 30
0.0
 40
0.563948693287556
 50
99.6825131972963732
 51
102.6394536283167014
  0
ARC
  5
329A0
  8
0
 10
6879.6545184236956629
 20
212.6897338294029112
 30
0.0
 40
0.0458438392723554
 50
257.3605463716833128
 51
282.6394536283166872
  0
ARC
  5
329A1
  8
0
 10
6879.5327412174847268
 20
212.1466906807006865
 30
0.0
 40
0.5106860784363728
 50
77.3605463716832844
 51
84.8483848993716805
  0
ARC
  5
329A2
  8
0
 10
6879.5351634433473009
 20
212.1735578139281131
 30
0.0
 40
0.4837099774211694
 50
84.8483848993716805
 51
103.3287846720973988
  0
ARC
  5
329A3
  8
0
 10
6879.4143512993614422
 20
212.6834847323960105
 30
0.0
 40
0.0403329943976511
 50
252.5733048189715078
 51
283.328784672097413
  0
ARC
  5
329A4
  8
0
 10
6879.2706550223520026
 20
211.9727060673041876
 30
0.0
 40
0.6850592804284142
 50
78.923166835228173
 51
88.3655990008155072
  0
ARC
  5
329A5
  8
0
 10
6880.6526332335233747
 20
212.5184635970599913
 30
0.0
 40
0.2378885437931022
 50
25.5709023554634918
 51
26.9038009539104017
  0
ARC
  5
329A6
  8
0
 10
6880.854116821675234
 20
212.6197144507702035
 30
0.0
 40
0.0124276789349041
 50
30.9544335392481216
 51
55.8985136346362523
  0
ARC
  5
329A7
  8
0
 10
6880.856948979830122
 20
212.6210748041245893
 30
0.0
 40
0.0098414246298346
 50
65.1516070811027959
 51
112.1403015552991036
  0
ARC
  5
329A8
  8
0
 10
6880.8679760580080256
 20
212.5930835740828115
 30
0.0
 40
0.0399259341029874
 50
111.6592140074383934
 51
132.2665469030391989
  0
ARC
  5
329A9
  8
0
 10
6880.8369155014934222
 20
212.6272773667656111
 30
0.0
 40
0.0062690291313119
 50
227.7781558026362063
 51
312.152072377513889
  0
ARC
  5
329AA
  8
0
 10
6880.8048310486528862
 20
212.5843945930876089
 30
0.0
 40
0.0473196122423542
 50
53.9133309242690189
 51
90.7369912788343385
  0
ARC
  5
329AB
  8
0
 10
6880.8071845352678793
 20
212.5506048496885967
 30
0.0
 40
0.0811595147508053
 50
92.0916306971431453
 51
117.4009259781946071
  0
ARC
  5
329AC
  8
0
 10
6880.7627174687922889
 20
212.6372366394226958
 30
0.0
 40
0.0162219609903714
 50
243.949665161280592
 51
296.0199296341463082
  0
ARC
  5
329AD
  8
0
 10
6880.7070742218193118
 20
212.5063840843392029
 30
0.0
 40
0.1259953455935301
 50
67.3508429972947624
 51
112.6266612971213021
  0
ARC
  5
329AE
  8
0
 10
6880.6491475450111466
 20
212.648748181129605
 30
0.0
 40
0.0277276312715282
 50
250.066561220015501
 51
289.9334387799843853
  0
ARC
  5
329AF
  8
0
 10
6880.5759528034568575
 20
212.430742578884491
 30
0.0
 40
0.2022464606619561
 50
71.6290451126641443
 51
108.3548607882488
  0
ARC
  5
329B0
  8
0
 10
6880.5009370140733154
 20
212.660184915670186
 30
0.0
 40
0.039159578315736
 50
253.1743131483111995
 51
286.8148790769927814
  0
ARC
  5
329B1
  8
0
 10
6880.4126106328367314
 20
212.353702137144694
 30
0.0
 40
0.2798007273480619
 50
74.0281856441748118
 51
105.962916936044607
  0
ARC
  5
329B2
  8
0
 10
6880.3228255944895864
 20
212.6707703963321876
 30
0.0
 40
0.0497412997579755
 50
255.0555142232867922
 51
284.9542172741078048
  0
ARC
  5
329B3
  8
0
 10
6880.2218740361076925
 20
212.2816709071684045
 30
0.0
 40
0.3522422083970839
 50
75.5118082909425539
 51
104.4797947589660936
  0
ARC
  5
329B4
  8
0
 10
6880.1198018540562771
 20
212.6797787350814986
 30
0.0
 40
0.0587463752006917
 50
256.2219924894474161
 51
283.785003164099578
  0
ARC
  5
329B5
  8
0
 10
6880.0088456020239391
 20
212.2201366324725882
 30
0.0
 40
0.4140988053974172
 50
76.457915747673141
 51
103.5364001685310029
  0
ARC
  5
329B6
  8
0
 10
6879.8970626147111034
 20
212.686934976338506
 30
0.0
 40
0.065899383980406
 50
256.9860996459975127
 51
283.0299972607738255
  0
ARC
  5
329B7
  8
0
 10
6879.7788437776180217
 20
212.1732334014770061
 30
0.0
 40
0.4612296673040069
 50
77.0478017083687234
 51
102.949865217537095
  0
ARC
  5
329B8
  8
0
 10
6879.6600720487449507
 20
212.6918899597191057
 30
0.0
 40
0.0708538256347943
 50
257.4380557481766232
 51
282.5624052066705758
  0
ARC
  5
329B9
  8
0
 10
6879.5373888499752866
 20
212.143842057757098
 30
0.0
 40
0.4907578850403012
 50
77.3739992493822655
 51
102.6248937267764063
  0
ARC
  5
329BA
  8
0
 10
6879.4144358979810931
 20
212.6944029959049942
 30
0.0
 40
0.0733658737028665
 50
257.6518790891262825
 51
282.3481209108737744
  0
ARC
  5
329BB
  8
0
 10
6879.299209926030926
 20
212.2163819968342011
 30
0.0
 40
0.4183655921228494
 50
76.2363213041259797
 51
91.234818863010986
  0
ARC
  5
329BC
  8
0
 10
6880.8169434346937123
 20
212.6209684559975983
 30
0.0
 40
0.0242362189441199
 50
3.9304037168196611
 51
47.6806182413334625
  0
ARC
  5
329BD
  8
0
 10
6880.816943807854841
 20
212.6209752460275979
 30
0.0
 40
0.024230947518587
 50
47.6704610933194104
 51
90.0832990476859834
  0
ARC
  5
329BE
  8
0
 10
6880.7445759045349405
 20
212.6202332284451018
 30
0.0
 40
0.0253740850175054
 50
5.4856751010801208
 51
57.6167985004382572
  0
ARC
  5
329BF
  8
0
 10
6880.7461229624032057
 20
212.6226730887586029
 30
0.0
 40
0.0224850875596137
 50
57.6161070569006526
 51
96.6701366627878542
  0
ARC
  5
329C0
  8
0
 10
6880.6320006721707614
 20
212.6195151809994002
 30
0.0
 40
0.0267878210329572
 50
6.7887257640436953
 51
55.8322441889832604
  0
ARC
  5
329C1
  8
0
 10
6880.6358297092829162
 20
212.6251335588461018
 30
0.0
 40
0.019988741911627
 50
55.8687957437259826
 51
104.3449012125678053
  0
ARC
  5
329C2
  8
0
 10
6880.4840567225446648
 20
212.6189272186086043
 30
0.0
 40
0.0284595208202184
 50
7.6171756604827383
 51
51.4552270354313919
  0
ARC
  5
329C3
  8
0
 10
6880.4904697746287638
 20
212.626882301654291
 30
0.0
 40
0.0182416347705135
 50
51.6398092819996322
 51
92.9661940260375843
  0
ARC
  5
329C4
  8
0
 10
6880.3024657831138029
 20
212.6171569475017122
 30
0.0
 40
0.0336572877505319
 50
9.5029622637033562
 51
37.672092003439829
  0
ARC
  5
329C5
  8
0
 10
6880.3146876621985939
 20
212.6270394999741029
 30
0.0
 40
0.0179472423286787
 50
36.5452343209894295
 51
88.8877478565626546
  0
ARC
  5
329C6
  8
0
 10
6880.1075093584768183
 20
212.6199966186293864
 30
0.0
 40
0.0264316756434456
 50
5.9236513851379851
 51
71.0231924039717626
  0
ARC
  5
329C7
  8
0
 10
6880.1073860854694431
 20
212.678266013792495
 30
0.0
 40
0.0343975139797872
 50
255.3604171487911003
 51
284.6824795875111249
  0
ARC
  5
329C8
  8
0
 10
6879.8626751681622409
 20
212.6129486841342953
 30
0.0
 40
0.050207666835102
 50
11.2367886966032895
 51
30.7420339084976
  0
ARC
  5
329C9
  8
0
 10
6879.8945066175419925
 20
212.6324610123481875
 30
0.0
 40
0.01288473233154
 50
28.5224807531385309
 51
76.6422776098608551
  0
ARC
  5
329CA
  8
0
 10
6879.6351170130601531
 20
212.6167321294701082
 30
0.0
 40
0.0408094678253591
 50
8.4549225506598944
 51
43.8444280279155265
  0
ARC
  5
329CB
  8
0
 10
6879.6084195467774407
 20
212.6335831350988883
 30
0.0
 40
0.0378316617670145
 50
343.3323541936291008
 51
17.5661040987137085
  0
ARC
  5
329CC
  8
0
 10
6879.3207682098045552
 20
212.6015296239509951
 30
0.0
 40
0.1113939127500764
 50
10.9736768829928106
 51
22.5445189392943313
  0
ARC
  5
329CD
  8
0
 10
6879.2759066502885617
 20
212.6535960283470104
 30
0.0
 40
0.1266573406145051
 50
345.8971765445007804
 51
356.1097909618451922
  0
LINE
  5
329CE
  8
0
 10
6880.8333963261657118
 20
212.6537401917333909
 30
0.0
 11
6880.7942172319189922
 21
212.6534575250468038
 31
0.0
  0
LINE
  5
329CF
  8
0
 10
6880.7744491840476257
 20
212.654171532451187
 30
0.0
 11
6880.7069958708561899
 21
212.6539470608894931
 31
0.0
  0
LINE
  5
329D0
  8
0
 10
6880.6737501141051325
 20
212.6544733324296033
 30
0.0
 11
6880.583237975342854
 21
212.654292795177895
 31
0.0
  0
LINE
  5
329D1
  8
0
 10
6880.5428837494700929
 20
212.6551955461227124
 30
0.0
 11
6880.4293547208071686
 21
212.6544956338526049
 31
0.0
  0
LINE
  5
329D2
  8
0
 10
6880.3917235097596858
 20
212.656289709893997
 30
0.0
 11
6880.2488514519018281
 21
212.6545141458483101
 31
0.0
  0
LINE
  5
329D3
  8
0
 10
6880.1731243462272687
 20
212.6549684108481131
 30
0.0
 11
6880.047007747662974
 21
212.6542874963656971
 31
0.0
  0
LINE
  5
329D4
  8
0
 10
6879.9641354782588678
 20
212.655480261582511
 30
0.0
 11
6879.8292025877353808
 21
212.6536695878288015
 31
0.0
  0
LINE
  5
329D5
  8
0
 10
6879.7236295043858263
 20
212.6548054371982914
 30
0.0
 11
6879.6043826055929458
 21
212.6523266982258065
 31
0.0
  0
LINE
  5
329D6
  8
0
 10
6879.4740803361009966
 20
212.6533954909251065
 30
0.0
 11
6879.3823216813470935
 21
212.6486030823662077
 31
0.0
  0
LINE
  5
329D7
  8
0
 10
6883.32560097498299
 20
207.8178945129415069
 30
0.0
 11
6883.345286014584417
 21
207.8178945129417059
 31
0.0
  0
LINE
  5
329D8
  8
0
 10
6883.3256009709730279
 20
206.3612015995414879
 30
0.0
 11
6883.3452860145980594
 21
206.3612015995414879
 31
0.0
  0
ENDSEC
  0
EOF
