  0
SECTION
  2
HEADER
  9
$ACADVER
  1
AC1009
  9
$INSBASE
 10
7252.4893439124080032
 20
321.2303289131148745
 30
0.0
  9
$EXTMIN
 10
7248.9460368258096423
 20
317.8646339469005966
 30
0.0
  9
$EXTMAX
 10
7256.0326509990072736
 20
321.235184943607976
 30
0.0
  9
$LIMMIN
 10
0.0
 20
0.0
  9
$LIMMAX
 10
11.6929133858000007
 20
8.2677165353999982
  9
$ORTHOMODE
 70
     0
  9
$REGENMODE
 70
     1
  9
$FILLMODE
 70
     1
  9
$QTEXTMODE
 70
     0
  9
$MIRRTEXT
 70
     0
  9
$DRAGMODE
 70
     2
  9
$LTSCALE
 40
0.6431102362
  9
$OSMODE
 70
  4095
  9
$ATTMODE
 70
     1
  9
$TEXTSIZE
 40
0.2
  9
$TRACEWID
 40
0.05
  9
$TEXTSTYLE
  7
STANDARD
  9
$CLAYER
  8
0
  9
$CELTYPE
  6
BYLAYER
  9
$CECOLOR
 62
   256
  9
$DIMSCALE
 40
1.0
  9
$DIMASZ
 40
0.1875
  9
$DIMEXO
 40
0.0625
  9
$DIMDLI
 40
0.4443307087
  9
$DIMRND
 40
0.0
  9
$DIMDLE
 40
0.0
  9
$DIMEXE
 40
0.125
  9
$DIMTP
 40
0.01
  9
$DIMTM
 40
0.01
  9
$DIMTXT
 40
2.0
  9
$DIMCEN
 40
0.1052362205
  9
$DIMTSZ
 40
0.0
  9
$DIMTOL
 70
     1
  9
$DIMLIM
 70
     0
  9
$DIMTIH
 70
     1
  9
$DIMTOH
 70
     1
  9
$DIMSE1
 70
     0
  9
$DIMSE2
 70
     0
  9
$DIMTAD
 70
     0
  9
$DIMZIN
 70
     0
  9
$DIMBLK
  1

  9
$DIMASO
 70
     1
  9
$DIMSHO
 70
     1
  9
$DIMPOST
  1
\X
  9
$DIMAPOST
  1

  9
$DIMALT
 70
     1
  9
$DIMALTD
 70
     2
  9
$DIMALTF
 40
25.3999999999999986
  9
$DIMLFAC
 40
1.0
  9
$DIMTOFL
 70
     0
  9
$DIMTVP
 40
0.0
  9
$DIMTIX
 70
     0
  9
$DIMSOXD
 70
     0
  9
$DIMSAH
 70
     0
  9
$DIMBLK1
  1

  9
$DIMBLK2
  1

  9
$DIMSTYLE
  2
STANDARD
  9
$DIMCLRD
 70
     0
  9
$DIMCLRE
 70
     0
  9
$DIMCLRT
 70
     0
  9
$DIMTFAC
 40
1.0
  9
$DIMGAP
 40
0.09
  9
$LUNITS
 70
     2
  9
$LUPREC
 70
     4
  9
$SKETCHINC
 40
0.1
  9
$FILLETRAD
 40
0.0
  9
$AUNITS
 70
     0
  9
$AUPREC
 70
     0
  9
$MENU
  1
.
  9
$ELEVATION
 40
0.0
  9
$PELEVATION
 40
0.0
  9
$THICKNESS
 40
0.0
  9
$LIMCHECK
 70
     0
  9
$BLIPMODE
 70
     0
  9
$CHAMFERA
 40
0.0
  9
$CHAMFERB
 40
0.0
  9
$SKPOLY
 70
     0
  9
$TDCREATE
 40
2458060.468368056230247
  9
$TDUPDATE
 40
2460577.4957870370708406
  9
$TDINDWG
 40
1.0028774305999999
  9
$TDUSRTIMER
 40
1.0028774305999999
  9
$USRTIMER
 70
     1
  9
$ANGBASE
 50
0.0
  9
$ANGDIR
 70
     0
  9
$PDMODE
 70
     0
  9
$PDSIZE
 40
0.3125
  9
$PLINEWID
 40
0.0
  9
$COORDS
 70
     1
  9
$SPLFRAME
 70
     0
  9
$SPLINETYPE
 70
     6
  9
$SPLINESEGS
 70
     8
  9
$ATTDIA
 70
     1
  9
$ATTREQ
 70
     1
  9
$HANDLING
 70
     1
  9
$HANDSEED
  5
35472
  9
$SURFTAB1
 70
     6
  9
$SURFTAB2
 70
     6
  9
$SURFTYPE
 70
     6
  9
$SURFU
 70
     6
  9
$SURFV
 70
     6
  9
$UCSNAME
  2

  9
$UCSORG
 10
0.0
 20
0.0
 30
0.0
  9
$UCSXDIR
 10
1.0
 20
0.0
 30
0.0
  9
$UCSYDIR
 10
0.0
 20
1.0
 30
0.0
  9
$PUCSNAME
  2

  9
$PUCSORG
 10
0.0
 20
0.0
 30
0.0
  9
$PUCSXDIR
 10
1.0
 20
0.0
 30
0.0
  9
$PUCSYDIR
 10
0.0
 20
1.0
 30
0.0
  9
$USERI1
 70
     0
  9
$USERI2
 70
     0
  9
$USERI3
 70
     0
  9
$USERI4
 70
     0
  9
$USERI5
 70
     0
  9
$USERR1
 40
0.0
  9
$USERR2
 40
0.0
  9
$USERR3
 40
0.0
  9
$USERR4
 40
0.0
  9
$USERR5
 40
0.0
  9
$WORLDVIEW
 70
     1
  9
$SHADEDGE
 70
     3
  9
$SHADEDIF
 70
    70
  9
$TILEMODE
 70
     1
  9
$MAXACTVP
 70
    64
  9
$PLIMCHECK
 70
     0
  9
$PEXTMIN
 10
1.0000000000000000E+20
 20
1.0000000000000000E+20
 30
1.0000000000000000E+20
  9
$PEXTMAX
 10
-1.0000000000000000E+20
 20
-1.0000000000000000E+20
 30
-1.0000000000000000E+20
  9
$PLIMMIN
 10
0.0
 20
0.0
  9
$PLIMMAX
 10
12.0
 20
9.0
  9
$UNITMODE
 70
     0
  9
$VISRETAIN
 70
     1
  9
$PLINEGEN
 70
     0
  9
$PSLTSCALE
 70
     1
  0
ENDSEC
  0
SECTION
  2
TABLES
  0
TABLE
  2
VPORT
 70
     1
  0
VPORT
  2
*ACTIVE
 70
     0
 10
0.0
 20
0.0
 11
1.0
 21
1.0
 12
3341.123987467095958
 22
186.9703043427151954
 13
0.0
 23
0.0
 14
1.0
 24
1.0
 15
0.0
 25
0.0
 16
0.0
 26
0.0
 36
60.4960186965801583
 17
3911.3653564453120453
 27
132.5796051025390057
 37
0.0
 40
3.3937428613637048
 41
2.180252583237658
 42
50.0
 43
0.0
 44
0.0
 50
0.0
 51
0.0
 71
     0
 72
   100
 73
     1
 74
     1
 75
     0
 76
     0
 77
     0
 78
     0
  0
ENDTAB
  0
TABLE
  2
LTYPE
 70
     2
  0
LTYPE
  2
CONTINUOUS
 70
     0
  3
Solid line
 72
    65
 73
     0
 40
0.0
  0
LTYPE
  2
PHANTOM2
 70
     0
  3
___ _ _ ___ _ _ ___ _ _ ___ _ _
 72
    65
 73
     6
 40
1.25
 49
0.625
 49
-0.125
 49
0.125
 49
-0.125
 49
0.125
 49
-0.125
  0
ENDTAB
  0
TABLE
  2
LAYER
 70
     2
  0
LAYER
  2
0
 70
     0
 62
   255
  6
CONTINUOUS
  0
LAYER
  2
DEFPOINTS
 70
     0
 62
     7
  6
CONTINUOUS
  0
ENDTAB
  0
TABLE
  2
STYLE
 70
     1
  0
STYLE
  2
STANDARD
 70
     0
 40
0.0
 41
0.8
 50
0.0
 71
     0
 42
0.2
  3
txt
  4

  0
ENDTAB
  0
TABLE
  2
VIEW
 70
     0
  0
ENDTAB
  0
TABLE
  2
UCS
 70
     0
  0
ENDTAB
  0
TABLE
  2
APPID
 70
    11
  0
APPID
  2
ACAD
 70
     0
  0
APPID
  2
ACAD_MLEADERVER
 70
     0
  0
APPID
  2
ACAD_EXEMPT_FROM_CAD_STANDARDS
 70
     0
  0
APPID
  2
ACAD_NAV_VCDISPLAY
 70
     0
  0
APPID
  2
ACAECLAYERSTANDARD
 70
     0
  0
APPID
  2
ACCMTRANSPARENCY
 70
     0
  0
APPID
  2
ACAD_DSTYLE_DIMJAG
 70
     0
  0
APPID
  2
ACAD_DSTYLE_DIMTALN
 70
     0
  0
APPID
  2
ACDBATTR
 70
     0
  0
APPID
  2
ACADANNOTATIVE
 70
     0
  0
APPID
  2
DCO15
 70
     0
  0
ENDTAB
  0
TABLE
  2
DIMSTYLE
 70
     1
  0
DIMSTYLE
  2
STANDARD
 70
     0
  3

  4

  5

  6

  7

 40
1.0
 41
0.1875
 42
0.0625
 43
0.38
 44
0.125
 45
0.0
 46
0.0
 47
0.01
 48
0.01
140
0.15625
141
0.09
142
0.0
143
25.3999999999999986
144
1.0
145
0.0
146
1.0
147
0.09
 71
     1
 72
     0
 73
     1
 74
     1
 75
     0
 76
     0
 77
     0
 78
     4
170
     0
171
     2
172
     0
173
     0
174
     0
175
     0
176
     0
177
     0
178
     0
  0
ENDTAB
  0
ENDSEC
  0
SECTION
  2
BLOCKS
  0
BLOCK
  8
0
  2
$MODEL_SPACE
 70
     0
 10
0.0
 20
0.0
 30
0.0
  3
$MODEL_SPACE
  1

  0
ENDBLK
  5
21
  8
0
  0
BLOCK
 67
     1
  8
0
  2
$PAPER_SPACE
 70
     0
 10
0.0
 20
0.0
 30
0.0
  3
$PAPER_SPACE
  1

  0
ENDBLK
  5
1D
 67
     1
  8
0
  0
ENDSEC
  0
SECTION
  2
ENTITIES
  0
ATTDEF
  5
2842F
  8
DEFPOINTS
 10
7252.4857347962815766
 20
321.2341849436079997
 30
0.0
 40
0.001
  1
K-EX36246T-9BLPT
  3

  2
MODELNUMBER
 70
     0
1001
ACDBATTR
1070
     0
1070
     1
  0
ATTDEF
  5
28430
  8
DEFPOINTS
 10
7252.4856089866243565
 20
321.2325181032289265
 30
0.0
 40
0.001
  1
MODULO
  3

  2
TRADENAME
 70
     0
1001
ACDBATTR
1070
     0
1070
     1
  0
ATTDEF
  5
28431
  8
DEFPOINTS
 10
7252.4857347962815766
 20
321.2308516102747262
 30
0.0
 40
0.001
  1
VALVE TRIM
  3

  2
PRODUCT
 70
     0
1001
ACDBATTR
1070
     0
1070
     1
  0
LINE
  5
35275
  8
0
 10
7248.9460368258096423
 20
321.2303289131148745
 30
0.0
 11
7256.0326509990072736
 21
321.2303289131148745
 31
0.0
  0
LINE
  5
35276
  8
0
 10
7249.0338068077280695
 20
320.6397777320149203
 30
0.0
 11
7255.9448810172198137
 21
320.6397777320149203
 31
0.0
  0
LINE
  5
35277
  8
0
 10
7248.9945567366230534
 20
320.6757437957446086
 30
0.0
 11
7248.9460368258096423
 21
321.2303289131148745
 31
0.0
  0
ARC
  5
35278
  8
0
 10
7249.0338068077280695
 20
320.6791777320149208
 30
0.0
 40
0.0394
 50
185.0000000087649141
 51
270.0
  0
LINE
  5
35279
  8
0
 10
7251.8003670961934404
 20
319.124028931125622
 30
0.0
 11
7252.1325589646594381
 21
319.1240290334790757
 31
0.0
  0
LINE
  5
3527A
  8
0
 10
7251.6429021801077397
 20
319.143714739814925
 30
0.0
 11
7253.3358006053085774
 21
319.143714739814925
 31
0.0
  0
LINE
  5
3527B
  8
0
 10
7251.6232021802088639
 20
319.8641611965160223
 30
0.0
 11
7251.6232021801088194
 21
319.1634147398177106
 31
0.0
  0
LINE
  5
3527C
  8
0
 10
7251.6311021802075629
 20
319.8720611965148919
 30
0.0
 11
7253.3476116290094069
 21
319.8720611965148919
 31
0.0
  0
ARC
  5
3527D
  8
0
 10
7251.6311021802075629
 20
319.8641611965148854
 30
0.0
 40
0.0079
 50
90.0
 51
179.9999999918186973
  0
LINE
  5
3527E
  8
0
 10
7251.6232021802088639
 20
319.8838611965132941
 30
0.0
 11
7251.6232021801088194
 21
320.6397777320149203
 31
0.0
  0
ARC
  5
3527F
  8
0
 10
7251.6350021802081756
 20
319.8838611965148857
 30
0.0
 40
0.0118
 50
180.0000000075820026
 51
270.0
  0
ARC
  5
35280
  8
0
 10
7251.6429021801077397
 20
319.1634147398149253
 30
0.0
 40
0.0197
 50
179.9999999918252058
 51
270.0
  0
LINE
  5
35281
  8
0
 10
7251.800367534508041
 20
319.143714739814925
 30
0.0
 11
7251.800367534508041
 21
319.1240299130149083
 31
0.0
  0
LINE
  5
35282
  8
0
 10
7251.3672966683088816
 20
318.1555661729149165
 30
0.0
 11
7251.3666127916076221
 21
318.1523564961149191
 31
0.0
  0
LINE
  5
35283
  8
0
 10
7251.800367534508041
 20
319.1240299130149083
 30
0.0
 11
7251.3300178242598122
 21
318.0703784893148054
 31
0.0
  0
LINE
  5
35284
  8
0
 10
7251.3309384693084212
 20
318.0605956529149125
 30
0.0
 11
7253.6477493406082431
 21
318.0605956529149125
 31
0.0
  0
LINE
  5
35285
  8
0
 10
7251.3098311519333947
 20
317.9760762573955049
 30
0.0
 11
7251.3131915300591572
 21
317.8822718104149203
 31
0.0
  0
ARC
  5
35286
  8
0
 10
7251.5065616226920611
 20
317.982946431331527
 30
0.0
 40
0.1968503934840561
 50
158.332039630102912
 51
182.0000565814243032
  0
ARC
  5
35287
  8
0
 10
7251.3309384693402535
 20
318.0527216371692134
 30
0.0
 40
0.0078740157456605
 50
90.0000002255329719
 51
158.3320396300998141
  0
ARC
  5
35288
  8
0
 10
7251.33720796320722
 20
318.0671688125149217
 30
0.0
 40
0.0078740156999988
 50
155.9440236948445033
 51
236.5941104996167894
  0
LINE
  5
35289
  8
0
 10
7253.668856657984179
 20
317.9760762573955049
 30
0.0
 11
7253.6654962947586682
 21
317.8822718104149203
 31
0.0
  0
ARC
  5
3528A
  8
0
 10
7253.4721261872264222
 20
317.982946431331527
 30
0.0
 40
0.1968503934840561
 50
357.9999434185725136
 51
21.6679603698971199
  0
ARC
  5
3528B
  8
0
 10
7253.6477493405773203
 20
318.0527216371692134
 30
0.0
 40
0.0078740157456605
 50
21.6679603699001504
 51
89.9999997744670139
  0
ARC
  5
3528C
  8
0
 10
7253.6414798467094442
 20
318.0671688125149217
 30
0.0
 40
0.0078740156999988
 50
303.4058895003831253
 51
24.0559763051554611
  0
LINE
  5
3528D
  8
0
 10
7253.6486699856568521
 20
318.0703784893148054
 30
0.0
 11
7253.1783202904089194
 21
319.1240297005148818
 31
0.0
  0
LINE
  5
3528E
  8
0
 10
7253.1783202904089194
 20
319.1240297005148818
 30
0.0
 11
7253.1783202904089194
 21
319.143714739814925
 31
0.0
  0
LINE
  5
3528F
  8
0
 10
7253.3554856446080521
 20
319.8641611965160223
 30
0.0
 11
7253.3554856447080965
 21
319.1634147398177106
 31
0.0
  0
ARC
  5
35290
  8
0
 10
7253.347585644609353
 20
319.8641611965148854
 30
0.0
 40
0.0079
 50
0.0000000081813026
 51
90.0
  0
LINE
  5
35291
  8
0
 10
7253.3554856446080521
 20
319.8838611965132941
 30
0.0
 11
7253.3554856447099155
 21
320.6397777320149203
 31
0.0
  0
ARC
  5
35292
  8
0
 10
7253.3436856446078309
 20
319.8838611965148857
 30
0.0
 40
0.0118
 50
270.0
 51
359.9999999924178837
  0
ARC
  5
35293
  8
0
 10
7253.3357856447082668
 20
319.1634147398149253
 30
0.0
 40
0.0197
 50
270.0
 51
0.000000008171532
  0
LINE
  5
35294
  8
0
 10
7255.9841310883239203
 20
320.6757437957538173
 30
0.0
 11
7256.0326509990072736
 21
321.2303289131148745
 31
0.0
  0
ARC
  5
35295
  8
0
 10
7255.9448810172198137
 20
320.6791777320149208
 30
0.0
 40
0.0394
 50
270.0
 51
355.0000000046633772
  0
LINE
  5
35296
  8
0
 10
7251.6232184661612337
 20
318.2153639578506841
 30
0.0
 11
7251.6232188056155792
 21
318.2643476035709114
 31
0.0
  0
LINE
  5
35297
  8
0
 10
7251.6473625063172221
 20
318.1863937270629208
 30
0.0
 11
7251.6266493512976012
 21
318.2070866949179049
 31
0.0
  0
LINE
  5
35298
  8
0
 10
7251.6556316211790545
 20
318.1829709089149105
 30
0.0
 11
7253.3231926872513213
 21
318.1829709089149105
 31
0.0
  0
ARC
  5
35299
  8
0
 10
7251.6556316211790545
 20
318.1946709089148726
 30
0.0
 40
0.0117
 50
225.0279340137169868
 51
270.0
  0
ARC
  5
3529A
  8
0
 10
7251.6349184661594336
 20
318.2153638767697998
 30
0.0
 40
0.0117
 50
179.9996029407114122
 51
225.0279340137307997
  0
LINE
  5
3529B
  8
0
 10
7251.6498011533813042
 20
318.3428134252148993
 30
0.0
 11
7253.3290231550499811
 21
318.3428134252148993
 31
0.0
  0
ARC
  5
3529C
  8
0
 10
7251.7971804823573621
 20
318.2534445051721264
 30
0.0
 40
0.1743030192775574
 50
149.8755769381218954
 51
176.4136614822411104
  0
ARC
  5
3529D
  8
0
 10
7251.6498355285220896
 20
318.3387809754423188
 30
0.0
 40
0.0040325962875558
 50
90.4884134729551448
 51
147.9046737503350073
  0
LINE
  5
3529E
  8
0
 10
7251.6266493512976012
 20
318.2070866949179049
 30
0.0
 11
7253.3521749571318651
 21
318.2070866949179049
 31
0.0
  0
LINE
  5
3529F
  8
0
 10
7252.135011756107815
 20
319.1279798681148918
 30
0.0
 11
7251.6512901045098261
 21
318.3487705054571961
 31
0.0
  0
ARC
  5
352A0
  8
0
 10
7251.6546034745269935
 20
318.3467134252148867
 30
0.0
 40
0.0039
 50
148.166240544062191
 51
270.0
  0
LINE
  5
352A1
  8
0
 10
7253.3556058422700517
 20
318.2153639578506841
 30
0.0
 11
7253.3556055028138871
 21
318.2643476035709114
 31
0.0
  0
LINE
  5
352A2
  8
0
 10
7253.3314618021140632
 20
318.1863937270629208
 30
0.0
 11
7253.3521749571318651
 21
318.2070866949179049
 31
0.0
  0
ARC
  5
352A3
  8
0
 10
7253.3231926872513213
 20
318.1946709089148726
 30
0.0
 40
0.0117
 50
270.0
 51
314.9720659862829848
  0
ARC
  5
352A4
  8
0
 10
7253.3439058422709422
 20
318.2153638767697998
 30
0.0
 40
0.0117
 50
314.9720659862691718
 51
0.0003970592886133
  0
ARC
  5
352A5
  8
0
 10
7253.1816438260730138
 20
318.2534445051721264
 30
0.0
 40
0.1743030192775574
 50
3.5863385177588651
 51
30.1244230618780904
  0
ARC
  5
352A6
  8
0
 10
7253.3289887799091957
 20
318.3387809754423188
 30
0.0
 40
0.0040325962875558
 50
32.0953262496372815
 51
89.5115865270448694
  0
ARC
  5
352A7
  8
0
 10
7253.3242778046669628
 20
318.3466165474280274
 30
0.0
 40
0.0038035489002238
 50
269.1417735132231996
 51
34.4927658689744874
  0
LINE
  5
352A8
  8
0
 10
7252.135011756107815
 20
319.1279798681148918
 30
0.0
 11
7252.8436910293075925
 21
319.1279798681148918
 31
0.0
  0
LINE
  5
352A9
  8
0
 10
7252.1743832825086429
 20
319.1437147399149126
 30
0.0
 11
7252.1743832825086429
 21
319.1279923075148872
 31
0.0
  0
LINE
  5
352AA
  8
0
 10
7252.4204568310924515
 20
319.1279851456631036
 30
0.0
 11
7252.4194270244097424
 21
318.4308819122148861
 31
0.0
  0
LINE
  5
352AB
  8
0
 10
7252.4414053370082911
 20
318.3956176704148788
 30
0.0
 11
7252.5373631435086281
 21
318.3956527546149005
 31
0.0
  0
ARC
  5
352AC
  8
0
 10
7252.4431693782662478
 20
318.4159194923557834
 30
0.0
 40
0.0203783172925477
 50
200.7697607768787122
 51
265.0339974336221189
  0
ARC
  5
352AD
  8
0
 10
7252.4931155032027164
 20
318.434862087485385
 30
0.0
 40
0.0737958921776001
 50
183.0917432791474937
 51
200.7697607768787122
  0
LINE
  5
352AE
  8
0
 10
7252.4377697915815588
 20
318.1523564961149191
 30
0.0
 11
7252.540882531608986
 21
318.1523564961149191
 31
0.0
  0
ARC
  5
352AF
  8
0
 10
7252.4739045532141972
 20
318.1826753067261961
 30
0.0
 40
0.050982471000088
 50
179.6683494453334049
 51
208.1509816316415993
  0
ARC
  5
352B0
  8
0
 10
7252.4396582329000012
 20
318.1643502959893226
 30
0.0
 40
0.0121415586330642
 50
208.1509816316415993
 51
261.0521551000697968
  0
LINE
  5
352B1
  8
0
 10
7252.5583116494235583
 20
319.1279851456631036
 30
0.0
 11
7252.5593414561089958
 21
318.4308819122148861
 31
0.0
  0
ARC
  5
352B2
  8
0
 10
7252.5356937145661504
 20
318.4158486210070009
 30
0.0
 40
0.020264748020257
 50
274.7254353074757205
 51
339.3227359114176238
  0
ARC
  5
352B3
  8
0
 10
7252.4856529773132934
 20
318.434862087485385
 30
0.0
 40
0.0737958921776001
 50
339.2302392231213162
 51
356.9082567208524779
  0
ARC
  5
352B4
  8
0
 10
7252.504863927302722
 20
318.1826753067261961
 30
0.0
 40
0.050982471000088
 50
331.8490183683583723
 51
0.3316505546665649
  0
ARC
  5
352B5
  8
0
 10
7252.539172525610411
 20
318.1642954363674107
 30
0.0
 40
0.012060780027458
 50
278.1509975739804759
 51
331.9392205909942959
  0
LINE
  5
352B6
  8
0
 10
7252.8436910293075925
 20
319.1279798681148918
 30
0.0
 11
7253.3274126809074005
 21
318.3487705054571961
 31
0.0
  0
LINE
  5
352B7
  8
0
 10
7252.8043195029076742
 20
319.1437147399149126
 30
0.0
 11
7252.8043195029076742
 21
319.1279923075148872
 31
0.0
  0
LINE
  5
352B8
  8
0
 10
7253.1783202904089194
 20
319.1240297005148818
 30
0.0
 11
7252.8461432349504321
 21
319.1240297005148818
 31
0.0
  0
LINE
  5
352B9
  8
0
 10
7251.8200525738084252
 20
320.6397777320149203
 30
0.0
 11
7251.8200525738084252
 21
319.8838722202149256
 31
0.0
  0
LINE
  5
352BA
  8
0
 10
7251.8200525739093791
 20
319.8641871808148949
 30
0.0
 11
7251.8200525739093791
 21
319.1633997793148865
 31
0.0
  0
ARC
  5
352BB
  8
0
 10
7251.8397376131379133
 20
319.1633997791441857
 30
0.0
 40
0.0196850392292891
 50
179.9999995031226092
 51
270.0000002058353061
  0
ARC
  5
352BC
  8
0
 10
7251.8279265896799188
 20
319.8641871806441941
 30
0.0
 40
0.0078740158707102
 50
90.0000005145361968
 51
179.9999987577936054
  0
ARC
  5
352BD
  8
0
 10
7251.8318635974083008
 20
319.8838722202149256
 30
0.0
 40
0.0118110236
 50
180.0
 51
270.0
  0
LINE
  5
352BE
  8
0
 10
7253.1586612354094541
 20
320.6397777320149203
 30
0.0
 11
7253.1586612354094541
 21
319.8838722202149256
 31
0.0
  0
LINE
  5
352BF
  8
0
 10
7253.1586612353075907
 20
319.8641871808148949
 30
0.0
 11
7253.1586612353075907
 21
319.1633997793148865
 31
0.0
  0
ARC
  5
352C0
  8
0
 10
7253.138976196079966
 20
319.1633997791441857
 30
0.0
 40
0.0196850392292891
 50
269.9999997941646939
 51
0.0000004968773461
  0
ARC
  5
352C1
  8
0
 10
7253.1507872195379605
 20
319.8641871806441941
 30
0.0
 40
0.0078740158707102
 50
0.0000012422063928
 51
89.999999485463789
  0
ARC
  5
352C2
  8
0
 10
7253.146850211808669
 20
319.8838722202149256
 30
0.0
 40
0.0118110236
 50
270.0
 51
0.0
  0
ARC
  5
352C4
  8
0
 10
7253.3251989335303733
 20
318.0680763345807804
 30
0.0
 40
0.19148353661508
 50
251.1903738483285906
 51
288.811491591977699
  0
ARC
  5
352C5
  8
0
 10
7253.3913308480759952
 20
317.8739427513144733
 30
0.0
 40
0.0136049278908908
 50
75.1055228302334541
 51
108.811491591977699
  0
ARC
  5
352C6
  8
0
 10
7253.4468752662151019
 20
318.017011561817128
 30
0.0
 40
0.139958559795816
 50
248.1685576388171057
 51
291.5355823845379177
  0
ARC
  5
352C7
  8
0
 10
7253.5019040576025873
 20
317.8780007052989731
 30
0.0
 40
0.0095491586354328
 50
67.5191800078186475
 51
112.4911820723444009
  0
ARC
  5
352C8
  8
0
 10
7253.5447904004358861
 20
317.9649590576427158
 30
0.0
 40
0.0874324910413826
 50
243.3367349681242899
 51
296.668112459411077
  0
ARC
  5
352C9
  8
0
 10
7253.5867982315148765
 20
317.8813198513403222
 30
0.0
 40
0.0061633139020914
 50
63.3332504614903229
 51
116.6681124594082064
  0
ARC
  5
352CA
  8
0
 10
7253.6152503340226758
 20
317.9201278827201236
 30
0.0
 40
0.0420556844147691
 50
232.3553955940967057
 51
307.5260471252140064
  0
ARC
  5
352CB
  8
0
 10
7253.6425828502151489
 20
317.8833410373831043
 30
0.0
 40
0.0038381715314866
 50
65.4476146470058637
 51
116.548192257800693
  0
ARC
  5
352CC
  8
0
 10
7253.666098698150563
 20
317.9066673908063194
 30
0.0
 40
0.0295629267997473
 50
222.1404120209546136
 51
248.3653277418113134
  0
ARC
  5
352CD
  8
0
 10
7253.6580023311817058
 20
317.8862953078656233
 30
0.0
 40
0.0076409733871123
 50
248.4784181504298033
 51
355.3639222877595216
  0
ARC
  5
352CE
  8
0
 10
7252.6734128090747618
 20
318.2095719151599269
 30
0.0
 40
0.3338940754657595
 50
255.1610878766159942
 51
284.8391456973715776
  0
ARC
  5
352CF
  8
0
 10
7252.7648299043194129
 20
317.8645268035456866
 30
0.0
 40
0.0230558010600354
 50
75.1471632107592598
 51
104.839145697371606
  0
ARC
  5
352D0
  8
0
 10
7252.8531872564453806
 20
318.1977015988513813
 30
0.0
 40
0.3216360408823171
 50
255.1471632107592029
 51
284.8553378381157017
  0
ARC
  5
352D1
  8
0
 10
7252.9413359026793842
 20
317.8653723334898018
 30
0.0
 40
0.0221850236976964
 50
75.1389490812107681
 51
104.8553378381156023
  0
ARC
  5
352D2
  8
0
 10
7253.0244554836499447
 20
318.1786154730007183
 30
0.0
 40
0.3018984982397035
 50
255.1389490812107965
 51
284.8610509187892035
  0
ARC
  5
352D3
  8
0
 10
7253.1072549238333522
 20
317.8665788110014887
 30
0.0
 40
0.0209367937069306
 50
75.1317751715664457
 51
104.8610509187883935
  0
ARC
  5
352D4
  8
0
 10
7253.1831061203083664
 20
318.1522861210074211
 30
0.0
 40
0.2746677918416535
 50
255.1317751715664031
 51
284.8716241225833983
  0
ARC
  5
352D5
  8
0
 10
7253.2585306380769907
 20
317.8682539222265859
 30
0.0
 40
0.0192082837836754
 50
75.1302866757527283
 51
104.8716241225833983
  0
ARC
  5
352D6
  8
0
 10
7253.3212339762721967
 20
318.0570603270896868
 30
0.0
 40
0.19148353661508
 50
251.1903738483285906
 51
288.811491591977699
  0
ARC
  5
352D7
  8
0
 10
7253.3873658908187281
 20
317.8629267438233228
 30
0.0
 40
0.0136049278908908
 50
75.1055228302334541
 51
108.811491591977699
  0
ARC
  5
352D8
  8
0
 10
7253.4428964479438946
 20
318.0006269624474271
 30
0.0
 40
0.1349844137602993
 50
247.3265681435254066
 51
292.3775718798295884
  0
ARC
  5
352D9
  8
0
 10
7253.4979391003480487
 20
317.8669846978078795
 30
0.0
 40
0.0095491586354328
 50
67.5191800078186475
 51
112.4911820723444009
  0
ARC
  5
352DA
  8
0
 10
7253.5390595257422319
 20
317.9464903702906895
 30
0.0
 40
0.0799993857770819
 50
242.0716514773729102
 51
297.2017149234413864
  0
ARC
  5
352DB
  8
0
 10
7253.6124453834499946
 20
317.6168260698041763
 30
0.0
 40
0.261121066442257
 50
97.0864779901773147
 51
98.1052958965432538
  0
ARC
  5
352DC
  8
0
 10
7253.6072515612549978
 20
317.9121006814464749
 30
0.0
 40
0.0451306253674811
 50
233.222726648822487
 51
303.0784004641218985
  0
ARC
  5
352DD
  8
0
 10
7253.6461674144693461
 20
317.8873066000567746
 30
0.0
 40
0.0199738509061884
 50
269.5445458351741763
 51
345.4000181936572176
  0
ARC
  5
352DE
  8
0
 10
7252.6694478518184042
 20
318.1985559076687196
 30
0.0
 40
0.3338940754657595
 50
255.1610878766159942
 51
284.8391456973715776
  0
ARC
  5
352DF
  8
0
 10
7252.7608649470621458
 20
317.8535107960544792
 30
0.0
 40
0.0230558010600354
 50
75.1471632107592598
 51
104.839145697371606
  0
ARC
  5
352E0
  8
0
 10
7252.849222299187204
 20
318.1866855913602876
 30
0.0
 40
0.3216360408823171
 50
255.1471632107592029
 51
284.8553378381157017
  0
ARC
  5
352E1
  8
0
 10
7252.9373709454221171
 20
317.8543563259985945
 30
0.0
 40
0.0221850236976964
 50
75.1389490812107681
 51
104.8553378381156023
  0
ARC
  5
352E2
  8
0
 10
7253.0204905263926776
 20
318.1400604710138964
 30
0.0
 40
0.2753712617240892
 50
253.6691900974128941
 51
286.3308099025870206
  0
ARC
  5
352E3
  8
0
 10
7253.1032899665760851
 20
317.8555628035102814
 30
0.0
 40
0.0209367937069306
 50
75.1317751715664457
 51
104.8610509187883935
  0
ARC
  5
352E4
  8
0
 10
7253.1791424571511016
 20
318.0976455166871233
 30
0.0
 40
0.2327735132571219
 50
252.3750856187849934
 51
287.6283136753605731
  0
ARC
  5
352E5
  8
0
 10
7253.2545656808188141
 20
317.8572379147353786
 30
0.0
 40
0.0192082837836754
 50
75.1302866757527283
 51
104.8716241225833983
  0
LINE
  5
352E6
  8
0
 10
7253.6460086405077163
 20
317.8673333802148022
 30
0.0
 11
7253.6145521802345684
 21
317.8675848609127002
 31
0.0
  0
ARC
  5
352E7
  8
0
 10
7253.6514306269018562
 20
317.8956589027338282
 30
0.0
 40
0.0289648155364934
 50
227.5561805735488008
 51
257.8916537254727928
  0
LINE
  5
352E8
  8
0
 10
7253.4598250049511989
 20
317.8667082710115892
 30
0.0
 11
7253.533167297019645
 21
317.8667082710115892
 31
0.0
  0
LINE
  5
352E9
  8
0
 10
7253.5486955650212622
 20
317.8670734421725115
 30
0.0
 11
7253.604119111358159
 21
317.8670734421725115
 31
0.0
  0
LINE
  5
352EA
  8
0
 10
7253.3401305253373721
 20
317.8665114744874813
 30
0.0
 11
7253.4276050174203192
 21
317.8665114744874813
 31
0.0
  0
LINE
  5
352EB
  8
0
 10
7253.2062036438555879
 20
317.8664503596269242
 30
0.0
 11
7253.3029641897801412
 21
317.8664503596269242
 31
0.0
  0
LINE
  5
352EC
  8
0
 10
7253.0553209073959806
 20
317.8669008540446725
 30
0.0
 11
7253.1578631293941726
 21
317.8658466843252768
 31
0.0
  0
LINE
  5
352ED
  8
0
 10
7252.7208652269473532
 20
317.8686445450787232
 30
0.0
 11
7252.8051873271788281
 21
317.8680782090938806
 31
0.0
  0
LINE
  5
352EE
  8
0
 10
7252.888813494581882
 20
317.8674955538563154
 30
0.0
 11
7252.9841102674854483
 21
317.8671029495104108
 31
0.0
  0
ARC
  5
352EF
  8
0
 10
7251.6534888912874521
 20
318.0680763345807804
 30
0.0
 40
0.19148353661508
 50
251.188508408022301
 51
288.8096261516714094
  0
ARC
  5
352F0
  8
0
 10
7251.5873569767418303
 20
317.8739427513144733
 30
0.0
 40
0.0136049278908908
 50
71.188508408022301
 51
104.8944771697665033
  0
ARC
  5
352F1
  8
0
 10
7251.5318125586027236
 20
318.017011561817128
 30
0.0
 40
0.139958559795816
 50
248.4644176154621107
 51
291.8314423611827806
  0
ARC
  5
352F2
  8
0
 10
7251.4767837672143287
 20
317.8780007052989731
 30
0.0
 40
0.0095491586354328
 50
67.5088179276555707
 51
112.4808199921813952
  0
ARC
  5
352F3
  8
0
 10
7251.4338974243828488
 20
317.9649590576427158
 30
0.0
 40
0.0874324910413826
 50
243.3318875405888946
 51
296.6632650318757101
  0
ARC
  5
352F4
  8
0
 10
7251.3918895933020394
 20
317.8813198513403222
 30
0.0
 40
0.0061633139020914
 50
63.331887540591822
 51
116.6667495385097055
  0
ARC
  5
352F5
  8
0
 10
7251.3634374907942401
 20
317.9201278827201236
 30
0.0
 40
0.0420556844147691
 50
232.4739528747861073
 51
307.6446044059032943
  0
ARC
  5
352F6
  8
0
 10
7251.336104974601767
 20
317.8833410373831043
 30
0.0
 40
0.0038381715314866
 50
63.4518077421992714
 51
114.5523853529940936
  0
ARC
  5
352F7
  8
0
 10
7251.312589126666353
 20
317.9066673908063194
 30
0.0
 40
0.0295629267997473
 50
291.6346722581888002
 51
317.8595879790453864
  0
ARC
  5
352F8
  8
0
 10
7251.3209167226959835
 20
317.8866468419311104
 30
0.0
 40
0.0078906765642068
 50
185.4418103053415905
 51
289.0224393241689995
  0
ARC
  5
352F9
  8
0
 10
7252.3052750157430637
 20
318.2095719151599269
 30
0.0
 40
0.3338940754657595
 50
255.160854302628394
 51
284.8389121233839774
  0
ARC
  5
352FA
  8
0
 10
7252.2138579204993221
 20
317.8645268035456866
 30
0.0
 40
0.0230558010600354
 50
75.160854302628394
 51
104.8528367892406976
  0
ARC
  5
352FB
  8
0
 10
7252.1255005683742638
 20
318.1977015988513813
 30
0.0
 40
0.3216360408823171
 50
255.1446621618842983
 51
284.8528367892407118
  0
ARC
  5
352FC
  8
0
 10
7252.0373519221384413
 20
317.8653723334898018
 30
0.0
 40
0.0221850236976964
 50
75.1446621618843267
 51
104.8610509187892035
  0
ARC
  5
352FD
  8
0
 10
7251.9542323411669713
 20
318.1786154730007183
 30
0.0
 40
0.3018984982397035
 50
255.1389490812107965
 51
284.8610509187892035
  0
ARC
  5
352FE
  8
0
 10
7251.8714329009826542
 20
317.8665788110014887
 30
0.0
 40
0.0209367937069306
 50
75.1389490812116065
 51
104.8682248284334975
  0
ARC
  5
352FF
  8
0
 10
7251.7955817045085496
 20
318.1522861210074211
 30
0.0
 40
0.2746677918416535
 50
255.1283758774166017
 51
284.8682248284335969
  0
ARC
  5
35300
  8
0
 10
7251.7201571867399252
 20
317.8682539222265859
 30
0.0
 40
0.0192082837836754
 50
75.1283758774166017
 51
104.8697133242473001
  0
ARC
  5
35301
  8
0
 10
7251.6574538485438097
 20
318.0570603270896868
 30
0.0
 40
0.19148353661508
 50
251.188508408022301
 51
288.8096261516714094
  0
ARC
  5
35302
  8
0
 10
7251.5913219339981879
 20
317.8629267438233228
 30
0.0
 40
0.0136049278908908
 50
71.188508408022301
 51
104.8944771697665033
  0
ARC
  5
35303
  8
0
 10
7251.5357913768721119
 20
318.0006269624474271
 30
0.0
 40
0.1349844137602993
 50
247.6224281201704116
 51
292.6734318564746218
  0
ARC
  5
35304
  8
0
 10
7251.4807487244688673
 20
317.8669846978078795
 30
0.0
 40
0.0095491586354328
 50
67.5088179276555707
 51
112.4808199921813952
  0
ARC
  5
35305
  8
0
 10
7251.4396282990737745
 20
317.9464903702906895
 30
0.0
 40
0.0799993857770819
 50
242.7982850765586136
 51
297.9283485226271182
  0
ARC
  5
35306
  8
0
 10
7251.3662424413669214
 20
317.6168260698041763
 30
0.0
 40
0.261121066442257
 50
81.8947041034567462
 51
82.9135220098226995
  0
ARC
  5
35307
  8
0
 10
7251.3714362635610087
 20
317.9121006814464749
 30
0.0
 40
0.0451306253674811
 50
236.9215995358781015
 51
306.7772733511774277
  0
ARC
  5
35308
  8
0
 10
7251.3325204103502983
 20
317.8873066000567746
 30
0.0
 40
0.0199738509061884
 50
194.5999818063428108
 51
270.4554541648258237
  0
ARC
  5
35309
  8
0
 10
7252.3092399729994213
 20
318.1985559076687196
 30
0.0
 40
0.3338940754657595
 50
255.160854302628394
 51
284.8389121233839774
  0
ARC
  5
3530A
  8
0
 10
7252.2178228777547702
 20
317.8535107960544792
 30
0.0
 40
0.0230558010600354
 50
75.160854302628394
 51
104.8528367892406976
  0
ARC
  5
3530B
  8
0
 10
7252.1294655256297119
 20
318.1866855913602876
 30
0.0
 40
0.3216360408823171
 50
255.1446621618842983
 51
284.8528367892407118
  0
ARC
  5
3530C
  8
0
 10
7252.0413168793947989
 20
317.8543563259985945
 30
0.0
 40
0.0221850236976964
 50
75.1446621618843267
 51
104.8610509187892035
  0
ARC
  5
3530D
  8
0
 10
7251.9581972984242384
 20
318.1400604710138964
 30
0.0
 40
0.2753712617240892
 50
253.6691900974128941
 51
286.3308099025870206
  0
ARC
  5
3530E
  8
0
 10
7251.8753978582408308
 20
317.8555628035102814
 30
0.0
 40
0.0209367937069306
 50
75.1389490812116065
 51
104.8682248284334975
  0
ARC
  5
3530F
  8
0
 10
7251.7995453676667239
 20
318.0976455166871233
 30
0.0
 40
0.2327735132571219
 50
252.3716863246393984
 51
287.6249143812149782
  0
ARC
  5
35310
  8
0
 10
7251.7241221439971923
 20
317.8572379147353786
 30
0.0
 40
0.0192082837836754
 50
75.1283758774166017
 51
104.8697133242473001
  0
LINE
  5
35311
  8
0
 10
7251.3326791843082901
 20
317.8673333802148022
 30
0.0
 11
7251.3641356445832571
 21
317.8675848609127002
 31
0.0
  0
ARC
  5
35312
  8
0
 10
7251.3272571979159693
 20
317.8956589027338282
 30
0.0
 40
0.0289648155364934
 50
282.1083462745272072
 51
312.4438194264512276
  0
LINE
  5
35313
  8
0
 10
7251.518862819865717
 20
317.8667082710115892
 30
0.0
 11
7251.4455205277972709
 21
317.8667082710115892
 31
0.0
  0
LINE
  5
35314
  8
0
 10
7251.4299922597956538
 20
317.8670734421725115
 30
0.0
 11
7251.3745687134578475
 21
317.8670734421725115
 31
0.0
  0
LINE
  5
35315
  8
0
 10
7251.6385572994786344
 20
317.8665114744874813
 30
0.0
 11
7251.5510828073965968
 21
317.8665114744874813
 31
0.0
  0
LINE
  5
35316
  8
0
 10
7251.7724841809604186
 20
317.8664503596269242
 30
0.0
 11
7251.6757236350367748
 21
317.8664503596269242
 31
0.0
  0
LINE
  5
35317
  8
0
 10
7251.9233669174227543
 20
317.8669008540446725
 30
0.0
 11
7251.8208246954245624
 21
317.8658466843252768
 31
0.0
  0
LINE
  5
35318
  8
0
 10
7252.2578225978722912
 20
317.8686445450787232
 30
0.0
 11
7252.1735004976371783
 21
317.8680782090938806
 31
0.0
  0
LINE
  5
35319
  8
0
 10
7252.089874330236853
 20
317.8674955538563154
 30
0.0
 11
7251.9945775573323772
 21
317.8671029495104108
 31
0.0
  0
ARC
  5
3531A
  8
0
 10
7252.4893609350101542
 20
318.2163155676030897
 30
0.0
 40
0.3406741179135066
 50
255.2851776842582012
 51
284.7148354308695843
  0
ARC
  5
3531B
  8
0
 10
7252.5818954220294472
 20
317.8639668003751808
 30
0.0
 40
0.0236228557970529
 50
75.2702712643179552
 51
104.7148354308695986
  0
ARC
  5
3531C
  8
0
 10
7252.5809770937230496
 20
317.8644491906392204
 30
0.0
 40
0.011727729048464
 50
75.3822674048660133
 51
104.5649649608281067
  0
ARC
  5
3531D
  8
0
 10
7252.4893692535733862
 20
318.2221911588455896
 30
0.0
 40
0.3575572119450038
 50
255.644845678708208
 51
284.3566120732264153
  0
ARC
  5
3531E
  8
0
 10
7252.3977361479583124
 20
317.8643145763082885
 30
0.0
 40
0.0118644041939396
 50
75.4364927910971659
 51
104.5724426714752013
  0
LINE
  5
3531F
  8
0
 10
7252.6155408292033826
 20
317.8690421954443082
 30
0.0
 11
7252.5595256897631771
 21
317.8715211127804992
 31
0.0
  0
LINE
  5
35320
  8
0
 10
7252.4192086089660734
 20
317.8715219940738734
 30
0.0
 11
7252.3521890255096878
 21
317.8674356387035118
 31
0.0
  0
ARC
  5
35321
  8
0
 10
7252.396809367494825
 20
317.8643544908259173
 30
0.0
 40
0.0232525041516417
 50
75.0016108963208268
 51
105.0130516961640978
  0
ENDSEC
  0
EOF
