  0
SECTION
  2
HEADER
  9
$ACADVER
  1
AC1009
  9
$INSBASE
 10
7259.9371162008201281
 20
316.9216261723211119
 30
0.0
  9
$EXTMIN
 10
7256.3938091142208577
 20
313.3783190857211025
 30
0.0
  9
$EXTMAX
 10
7263.480423287420308
 20
320.4649332589211213
 30
0.0
  9
$LIMMIN
 10
0.0
 20
0.0
  9
$LIMMAX
 10
11.6929133858000007
 20
8.2677165353999982
  9
$ORTHOMODE
 70
     0
  9
$REGENMODE
 70
     1
  9
$FILLMODE
 70
     1
  9
$QTEXTMODE
 70
     0
  9
$MIRRTEXT
 70
     0
  9
$DRAGMODE
 70
     2
  9
$LTSCALE
 40
0.6431102362
  9
$OSMODE
 70
  4095
  9
$ATTMODE
 70
     1
  9
$TEXTSIZE
 40
0.2
  9
$TRACEWID
 40
0.05
  9
$TEXTSTYLE
  7
STANDARD
  9
$CLAYER
  8
0
  9
$CELTYPE
  6
BYLAYER
  9
$CECOLOR
 62
   256
  9
$DIMSCALE
 40
1.0
  9
$DIMASZ
 40
0.1875
  9
$DIMEXO
 40
0.0625
  9
$DIMDLI
 40
0.4443307087
  9
$DIMRND
 40
0.0
  9
$DIMDLE
 40
0.0
  9
$DIMEXE
 40
0.125
  9
$DIMTP
 40
0.01
  9
$DIMTM
 40
0.01
  9
$DIMTXT
 40
2.0
  9
$DIMCEN
 40
0.1052362205
  9
$DIMTSZ
 40
0.0
  9
$DIMTOL
 70
     1
  9
$DIMLIM
 70
     0
  9
$DIMTIH
 70
     1
  9
$DIMTOH
 70
     1
  9
$DIMSE1
 70
     0
  9
$DIMSE2
 70
     0
  9
$DIMTAD
 70
     0
  9
$DIMZIN
 70
     0
  9
$DIMBLK
  1

  9
$DIMASO
 70
     1
  9
$DIMSHO
 70
     1
  9
$DIMPOST
  1
\X
  9
$DIMAPOST
  1

  9
$DIMALT
 70
     1
  9
$DIMALTD
 70
     2
  9
$DIMALTF
 40
25.3999999999999986
  9
$DIMLFAC
 40
1.0
  9
$DIMTOFL
 70
     0
  9
$DIMTVP
 40
0.0
  9
$DIMTIX
 70
     0
  9
$DIMSOXD
 70
     0
  9
$DIMSAH
 70
     0
  9
$DIMBLK1
  1

  9
$DIMBLK2
  1

  9
$DIMSTYLE
  2
STANDARD
  9
$DIMCLRD
 70
     0
  9
$DIMCLRE
 70
     0
  9
$DIMCLRT
 70
     0
  9
$DIMTFAC
 40
1.0
  9
$DIMGAP
 40
0.09
  9
$LUNITS
 70
     2
  9
$LUPREC
 70
     4
  9
$SKETCHINC
 40
0.1
  9
$FILLETRAD
 40
0.0
  9
$AUNITS
 70
     0
  9
$AUPREC
 70
     0
  9
$MENU
  1
.
  9
$ELEVATION
 40
0.0
  9
$PELEVATION
 40
0.0
  9
$THICKNESS
 40
0.0
  9
$LIMCHECK
 70
     0
  9
$BLIPMODE
 70
     0
  9
$CHAMFERA
 40
0.0
  9
$CHAMFERB
 40
0.0
  9
$SKPOLY
 70
     0
  9
$TDCREATE
 40
2458060.468368056230247
  9
$TDUPDATE
 40
2460570.680497684981674
  9
$TDINDWG
 40
1.0048450230999999
  9
$TDUSRTIMER
 40
1.0048450230999999
  9
$USRTIMER
 70
     1
  9
$ANGBASE
 50
0.0
  9
$ANGDIR
 70
     0
  9
$PDMODE
 70
     0
  9
$PDSIZE
 40
0.3125
  9
$PLINEWID
 40
0.0
  9
$COORDS
 70
     1
  9
$SPLFRAME
 70
     0
  9
$SPLINETYPE
 70
     6
  9
$SPLINESEGS
 70
     8
  9
$ATTDIA
 70
     1
  9
$ATTREQ
 70
     1
  9
$HANDLING
 70
     1
  9
$HANDSEED
  5
35C0B
  9
$SURFTAB1
 70
     6
  9
$SURFTAB2
 70
     6
  9
$SURFTYPE
 70
     6
  9
$SURFU
 70
     6
  9
$SURFV
 70
     6
  9
$UCSNAME
  2

  9
$UCSORG
 10
0.0
 20
0.0
 30
0.0
  9
$UCSXDIR
 10
1.0
 20
0.0
 30
0.0
  9
$UCSYDIR
 10
0.0
 20
1.0
 30
0.0
  9
$PUCSNAME
  2

  9
$PUCSORG
 10
0.0
 20
0.0
 30
0.0
  9
$PUCSXDIR
 10
1.0
 20
0.0
 30
0.0
  9
$PUCSYDIR
 10
0.0
 20
1.0
 30
0.0
  9
$USERI1
 70
     0
  9
$USERI2
 70
     0
  9
$USERI3
 70
     0
  9
$USERI4
 70
     0
  9
$USERI5
 70
     0
  9
$USERR1
 40
0.0
  9
$USERR2
 40
0.0
  9
$USERR3
 40
0.0
  9
$USERR4
 40
0.0
  9
$USERR5
 40
0.0
  9
$WORLDVIEW
 70
     1
  9
$SHADEDGE
 70
     3
  9
$SHADEDIF
 70
    70
  9
$TILEMODE
 70
     1
  9
$MAXACTVP
 70
    64
  9
$PLIMCHECK
 70
     0
  9
$PEXTMIN
 10
1.0000000000000000E+20
 20
1.0000000000000000E+20
 30
1.0000000000000000E+20
  9
$PEXTMAX
 10
-1.0000000000000000E+20
 20
-1.0000000000000000E+20
 30
-1.0000000000000000E+20
  9
$PLIMMIN
 10
0.0
 20
0.0
  9
$PLIMMAX
 10
12.0
 20
9.0
  9
$UNITMODE
 70
     0
  9
$VISRETAIN
 70
     1
  9
$PLINEGEN
 70
     0
  9
$PSLTSCALE
 70
     1
  0
ENDSEC
  0
SECTION
  2
TABLES
  0
TABLE
  2
VPORT
 70
     1
  0
VPORT
  2
*ACTIVE
 70
     0
 10
0.0
 20
0.0
 11
1.0
 21
1.0
 12
3348.5717597555080829
 22
184.3420210697819925
 13
0.0
 23
0.0
 14
1.0
 24
1.0
 15
0.0
 25
0.0
 16
0.0
 26
0.0
 36
60.4960186965801583
 17
3911.3653564453120453
 27
132.5796051025390057
 37
0.0
 40
7.1343354807636379
 41
1.8179775280898871
 42
50.0
 43
0.0
 44
0.0
 50
0.0
 51
0.0
 71
     0
 72
   100
 73
     1
 74
     1
 75
     0
 76
     0
 77
     0
 78
     0
  0
ENDTAB
  0
TABLE
  2
LTYPE
 70
     2
  0
LTYPE
  2
CONTINUOUS
 70
     0
  3
Solid line
 72
    65
 73
     0
 40
0.0
  0
LTYPE
  2
PHANTOM2
 70
     0
  3
___ _ _ ___ _ _ ___ _ _ ___ _ _
 72
    65
 73
     6
 40
1.25
 49
0.625
 49
-0.125
 49
0.125
 49
-0.125
 49
0.125
 49
-0.125
  0
ENDTAB
  0
TABLE
  2
LAYER
 70
     2
  0
LAYER
  2
0
 70
     0
 62
   255
  6
CONTINUOUS
  0
LAYER
  2
DEFPOINTS
 70
     0
 62
     7
  6
CONTINUOUS
  0
ENDTAB
  0
TABLE
  2
STYLE
 70
     1
  0
STYLE
  2
STANDARD
 70
     0
 40
0.0
 41
0.8
 50
0.0
 71
     0
 42
0.2
  3
txt
  4

  0
ENDTAB
  0
TABLE
  2
VIEW
 70
     0
  0
ENDTAB
  0
TABLE
  2
UCS
 70
     0
  0
ENDTAB
  0
TABLE
  2
APPID
 70
    11
  0
APPID
  2
ACAD
 70
     0
  0
APPID
  2
ACAD_MLEADERVER
 70
     0
  0
APPID
  2
ACAD_EXEMPT_FROM_CAD_STANDARDS
 70
     0
  0
APPID
  2
ACAD_NAV_VCDISPLAY
 70
     0
  0
APPID
  2
ACAECLAYERSTANDARD
 70
     0
  0
APPID
  2
ACCMTRANSPARENCY
 70
     0
  0
APPID
  2
ACAD_DSTYLE_DIMJAG
 70
     0
  0
APPID
  2
ACAD_DSTYLE_DIMTALN
 70
     0
  0
APPID
  2
ACDBATTR
 70
     0
  0
APPID
  2
ACADANNOTATIVE
 70
     0
  0
APPID
  2
DCO15
 70
     0
  0
ENDTAB
  0
TABLE
  2
DIMSTYLE
 70
     1
  0
DIMSTYLE
  2
STANDARD
 70
     0
  3

  4

  5

  6

  7

 40
1.0
 41
0.1875
 42
0.0625
 43
0.38
 44
0.125
 45
0.0
 46
0.0
 47
0.01
 48
0.01
140
0.15625
141
0.09
142
0.0
143
25.3999999999999986
144
1.0
145
0.0
146
1.0
147
0.09
 71
     1
 72
     0
 73
     1
 74
     1
 75
     0
 76
     0
 77
     0
 78
     4
170
     0
171
     2
172
     0
173
     0
174
     0
175
     0
176
     0
177
     0
178
     0
  0
ENDTAB
  0
ENDSEC
  0
SECTION
  2
BLOCKS
  0
BLOCK
  8
0
  2
$MODEL_SPACE
 70
     0
 10
0.0
 20
0.0
 30
0.0
  3
$MODEL_SPACE
  1

  0
ENDBLK
  5
21
  8
0
  0
BLOCK
 67
     1
  8
0
  2
$PAPER_SPACE
 70
     0
 10
0.0
 20
0.0
 30
0.0
  3
$PAPER_SPACE
  1

  0
ENDBLK
  5
1D
 67
     1
  8
0
  0
BLOCK
  8
0
  2
_FILLED
 70
     0
 10
0.0
 20
0.0
 30
0.0
  3
_FILLED
  1

  0
SOLID
  5
2853B
  8
0
  6
BYBLOCK
 62
     0
 10
0.0
 20
0.0
 30
0.0
 11
-1.0
 21
0.1666666667
 31
0.0
 12
-1.0
 22
-0.1666666667
 32
0.0
 13
-1.0
 23
-0.1666666667
 33
0.0
  0
ENDBLK
  5
2853C
  8
0
  6
BYBLOCK
 62
     0
  0
ENDSEC
  0
SECTION
  2
ENTITIES
  0
ATTDEF
  5
2842F
  8
DEFPOINTS
 10
7259.9330258958580089
 20
316.9253613963396106
 30
0.0
 40
0.001
  1
K-EX36246T-9WPL
  3

  2
MODELNUMBER
 70
     0
1001
ACDBATTR
1070
     0
1070
     1
  0
ATTDEF
  5
28430
  8
DEFPOINTS
 10
7259.9329000862016983
 20
316.9236945559604806
 30
0.0
 40
0.001
  1
MODULO
  3

  2
TRADENAME
 70
     0
1001
ACDBATTR
1070
     0
1070
     1
  0
ATTDEF
  5
28431
  8
DEFPOINTS
 10
7259.9330258958580089
 20
316.9220280630062803
 30
0.0
 40
0.001
  1
VALVE TRIM
  3

  2
PRODUCT
 70
     0
1001
ACDBATTR
1070
     0
1070
     1
  0
ARC
  5
35928
  8
0
 10
7259.9371162008201281
 20
316.9216261723211119
 30
0.0
 40
3.5433070866
 50
279.1182077253794205
 51
260.8817922732483225
  0
ARC
  5
35929
  8
0
 10
7259.9371162008201281
 20
316.9216261723211119
 30
0.0
 40
3.5433070866
 50
266.3448937538360042
 51
273.655106243657599
  0
CIRCLE
  5
3592A
  8
0
 10
7259.9371162008201281
 20
316.9216261723211119
 30
0.0
 40
3.4555645225999991
  0
ARC
  5
3592C
  8
0
 10
7259.944644196216359
 20
315.3240892482829736
 30
0.0
 40
1.2614352640514239
 50
90.2669196194507748
 51
98.6093036572930401
  0
ARC
  5
3592D
  8
0
 10
7259.9387676621026912
 20
315.399803191404601
 30
0.0
 40
1.185707632617214
 50
98.8762232767927571
 51
261.8493327134572155
  0
ARC
  5
3592E
  8
0
 10
7259.944585015679877
 20
315.481181691036511
 30
0.0
 40
1.267102046193471
 50
262.1106633225613791
 51
269.7369501692782023
  0
ARC
  5
3592F
  8
0
 10
7259.9511188196402145
 20
314.9116107771653787
 30
0.0
 40
1.671546283483115
 50
90.4233658653024008
 51
93.6236163931398551
  0
ARC
  5
35930
  8
0
 10
7259.9612474667019342
 20
315.2566640042592212
 30
0.0
 40
1.3282065757005479
 50
95.0005495880244837
 51
101.9612179228846998
  0
ARC
  5
35931
  8
0
 10
7259.9598803932512965
 20
315.3296965348877734
 30
0.0
 40
1.25655215954947
 50
102.5904123424871983
 51
111.5029944650055
  0
ARC
  5
35932
  8
0
 10
7259.9649669836089743
 20
315.3497906530333239
 30
0.0
 40
1.2397801420317449
 50
112.0621083573692971
 51
122.7299335307873065
  0
ARC
  5
35933
  8
0
 10
7259.9684499321037947
 20
315.3619095002380277
 30
0.0
 40
1.2315050903168829
 50
123.1711052958533941
 51
132.3706800997208859
  0
ARC
  5
35934
  8
0
 10
7260.0301342356906389
 20
315.3103835442346963
 30
0.0
 40
1.311187914164218
 50
132.8447076973498895
 51
139.6358040867457078
  0
ARC
  5
35935
  8
0
 10
7259.9476632430905738
 20
315.395608312742695
 30
0.0
 40
1.193210060506072
 50
140.1892028407166038
 51
154.3867844137793952
  0
ARC
  5
35936
  8
0
 10
7259.9380058794731667
 20
315.3989006496721004
 30
0.0
 40
1.1830790566046621
 50
154.3283781120042875
 51
167.8637866093125126
  0
ARC
  5
35937
  8
0
 10
7259.9942338285109145
 20
315.3929264163716084
 30
0.0
 40
1.239320773838787
 50
168.1402737162248116
 51
177.4144302963022142
  0
ARC
  5
35938
  8
0
 10
7259.8498048846158781
 20
315.3994484464225252
 30
0.0
 40
1.0947446461062009
 50
177.4144302963022142
 51
184.7864444491819995
  0
ARC
  5
35939
  8
0
 10
7260.016293578015393
 20
315.413389226264087
 30
0.0
 40
1.2618159792902759
 50
184.7864444491819995
 51
195.3273311514211912
  0
ARC
  5
3593A
  8
0
 10
7259.866028528710558
 20
315.3722043067610912
 30
0.0
 40
1.1060091032002419
 50
195.3273311514211912
 51
205.661482177977291
  0
ARC
  5
3593B
  8
0
 10
7259.9923393192320873
 20
315.4328890371364764
 30
0.0
 40
1.2461413703740229
 50
205.661482177977291
 51
218.3618103451009915
  0
ARC
  5
3593C
  8
0
 10
7259.9406574582999383
 20
315.4019339967949236
 30
0.0
 40
1.186431425155918
 50
218.7386395310149112
 51
243.3639953691597952
  0
ARC
  5
3593D
  8
0
 10
7259.9393222887538286
 20
315.4007625837156752
 30
0.0
 40
1.184785935363724
 50
243.3963377589963955
 51
250.1591408754264876
  0
ARC
  5
3593E
  8
0
 10
7259.9379372453859105
 20
315.3969240687461024
 30
0.0
 40
1.1807051826999959
 50
250.1591408754264876
 51
258.6102587037103717
  0
ARC
  5
3593F
  8
0
 10
7259.9402485178197821
 20
315.4083973045492826
 30
0.0
 40
1.1924089051874009
 50
258.6102587037103717
 51
264.9785491654693033
  0
ARC
  5
35940
  8
0
 10
7259.9374774298221382
 20
315.376859619561003
 30
0.0
 40
1.160749712160515
 50
264.9785491654693033
 51
268.4623830810655818
  0
ARC
  5
35941
  8
0
 10
7259.8019063411311436
 20
304.9406610319928177
 30
0.0
 40
9.2764546019177594
 50
89.1546489566022871
 51
89.3550118380157841
  0
LINE
  5
35942
  8
0
 10
7259.9320243910033241
 20
314.2338494343823072
 30
0.0
 11
7259.8543428462189695
 21
316.5617473498497816
 31
0.0
  0
LINE
  5
35943
  8
0
 10
7259.8394906458488549
 20
316.560558783102806
 30
0.0
 11
7259.9243333302074461
 21
314.2340882057246176
 31
0.0
  0
LINE
  5
35944
  8
0
 10
7259.9107309768196501
 20
314.2339984388676157
 30
0.0
 11
7259.6724778296065779
 21
316.5352617599365885
 31
0.0
  0
LINE
  5
35945
  8
0
 10
7259.6579934423516534
 20
316.5307604816413232
 30
0.0
 11
7259.902905345767067
 21
314.2347211167157184
 31
0.0
  0
LINE
  5
35946
  8
0
 10
7259.8890640906156477
 20
314.2345516224959283
 30
0.0
 11
7259.4968501057473986
 21
316.479458425639109
 31
0.0
  0
LINE
  5
35947
  8
0
 10
7259.4830896323410343
 20
316.4719571362849138
 30
0.0
 11
7259.8809620575329973
 21
314.2357768679055994
 31
0.0
  0
LINE
  5
35948
  8
0
 10
7259.866703199713811
 20
314.2355491363994133
 30
0.0
 11
7259.3315894278248379
 21
316.3963077977549005
 31
0.0
  0
LINE
  5
35949
  8
0
 10
7259.3189318510712837
 20
316.3858165861371958
 30
0.0
 11
7259.858168437045606
 21
314.2373100204455909
 31
0.0
  0
LINE
  5
3594A
  8
0
 10
7259.8432778153483014
 20
314.2370610421606898
 30
0.0
 11
7259.180711404836984
 21
316.2873612445745266
 31
0.0
  0
LINE
  5
3594B
  8
0
 10
7259.169557703636201
 20
316.2738838175848173
 30
0.0
 11
7259.8341253558055541
 21
314.2394100818247011
 31
0.0
  0
LINE
  5
3594C
  8
0
 10
7259.8083371495822576
 20
314.2422149727335068
 30
0.0
 11
7259.8183314290081398
 21
314.2391996826361833
 31
0.0
  0
LINE
  5
3594D
  8
0
 10
7259.8183314290081398
 20
314.2391996826361833
 30
0.0
 11
7259.0480542446830441
 21
316.1546113910882241
 31
0.0
  0
LINE
  5
3594E
  8
0
 10
7259.0480542446830441
 20
316.1546113910882241
 30
0.0
 11
7259.0388428438091069
 21
316.138141855581523
 31
0.0
  0
LINE
  5
3594F
  8
0
 10
7259.0388428438091069
 20
316.138141855581523
 30
0.0
 11
7259.8083371495822576
 21
314.2422149727335068
 31
0.0
  0
LINE
  5
35950
  8
0
 10
7259.7801535584458179
 20
314.2459377864797716
 30
0.0
 11
7259.7912792518609422
 21
314.2421400862098722
 31
0.0
  0
LINE
  5
35951
  8
0
 10
7259.7912792518609422
 20
314.2421400862098722
 30
0.0
 11
7258.9372654640883411
 21
316.0004410434680722
 31
0.0
  0
LINE
  5
35952
  8
0
 10
7258.9372654640883411
 20
316.0004410434680722
 30
0.0
 11
7258.93049378390333
 21
315.9809505879023845
 31
0.0
  0
LINE
  5
35953
  8
0
 10
7258.93049378390333
 20
315.9809505879023845
 30
0.0
 11
7259.7801535584458179
 21
314.2459377864797716
 31
0.0
  0
LINE
  5
35954
  8
0
 10
7258.8518222866241558
 20
315.8275317229669099
 30
0.0
 11
7259.7613176988834311
 21
314.2461573296145048
 31
0.0
  0
LINE
  5
35955
  8
0
 10
7259.7613176988834311
 20
314.2461573296145048
 30
0.0
 11
7259.7486661493967404
 21
314.2509159501788076
 31
0.0
  0
LINE
  5
35956
  8
0
 10
7259.7486661493967404
 20
314.2509159501788076
 30
0.0
 11
7258.8480856525302443
 21
315.8049455190667913
 31
0.0
  0
LINE
  5
35957
  8
0
 10
7258.8480856525302443
 20
315.8049455190667913
 30
0.0
 11
7258.8518222866241558
 21
315.8275317229669099
 31
0.0
  0
LINE
  5
35958
  8
0
 10
7258.7951981278347375
 20
315.61288271757968
 30
0.0
 11
7258.7951331884069077
 21
315.6387315365357722
 31
0.0
  0
LINE
  5
35959
  8
0
 10
7258.7951331884069077
 20
315.6387315365357722
 30
0.0
 11
7259.7272742316699805
 21
314.2517034594785059
 31
0.0
  0
LINE
  5
3595A
  8
0
 10
7259.7272742316699805
 20
314.2517034594785059
 30
0.0
 11
7259.7125222861850489
 21
314.2577086181267987
 31
0.0
  0
LINE
  5
3595B
  8
0
 10
7259.7125222861850489
 20
314.2577086181267987
 30
0.0
 11
7258.7951981278347375
 21
315.61288271757968
 31
0.0
  0
LINE
  5
3595C
  8
0
 10
7258.7757620468955793
 20
315.407356364422526
 30
0.0
 11
7258.7708010628339252
 21
315.4368286599205931
 31
0.0
  0
LINE
  5
3595D
  8
0
 10
7258.7708010628339252
 20
315.4368286599205931
 30
0.0
 11
7259.6873008770999149
 21
314.259568745079207
 31
0.0
  0
LINE
  5
3595E
  8
0
 10
7259.6873008770999149
 20
314.259568745079207
 30
0.0
 11
7259.6695350820382373
 21
314.2673159361107196
 31
0.0
  0
LINE
  5
3595F
  8
0
 10
7259.6695350820382373
 20
314.2673159361107196
 30
0.0
 11
7258.7757620468955793
 21
315.407356364422526
 31
0.0
  0
LINE
  5
35960
  8
0
 10
7258.7949808394942011
 20
315.1901606960972799
 30
0.0
 11
7258.7833018234950941
 21
315.2240806678428839
 31
0.0
  0
LINE
  5
35961
  8
0
 10
7258.7833018234950941
 20
315.2240806678428839
 30
0.0
 11
7259.63816194320043
 21
314.2712827569167757
 31
0.0
  0
LINE
  5
35962
  8
0
 10
7259.63816194320043
 20
314.2712827569167757
 30
0.0
 11
7259.615727350733323
 21
314.2817464022364788
 31
0.0
  0
LINE
  5
35963
  8
0
 10
7259.615727350733323
 20
314.2817464022364788
 30
0.0
 11
7258.7949808394942011
 21
315.1901606960972799
 31
0.0
  0
LINE
  5
35964
  8
0
 10
7258.8623443104379476
 20
314.9602876407569738
 30
0.0
 11
7258.840086068540586
 21
315.0007896791246935
 31
0.0
  0
LINE
  5
35965
  8
0
 10
7258.840086068540586
 20
315.0007896791246935
 30
0.0
 11
7259.5731672598076329
 21
314.2903544288624857
 31
0.0
  0
LINE
  5
35966
  8
0
 10
7259.5731672598076329
 20
314.2903544288624857
 30
0.0
 11
7259.5421478358975946
 21
314.3060216423818929
 31
0.0
  0
LINE
  5
35967
  8
0
 10
7259.5421478358975946
 20
314.3060216423818929
 30
0.0
 11
7258.8623443104379476
 21
314.9602876407569738
 31
0.0
  0
LINE
  5
35968
  8
0
 10
7259.0087698706529409
 20
314.7020818838205969
 30
0.0
 11
7258.9605307039346371
 21
314.7597900444174002
 31
0.0
  0
LINE
  5
35969
  8
0
 10
7258.9605307039346371
 20
314.7597900444174002
 30
0.0
 11
7259.4729674509308097
 21
314.3282108601371192
 31
0.0
  0
LINE
  5
3596A
  8
0
 10
7259.4729674509308097
 20
314.3282108601371192
 30
0.0
 11
7259.4185459799964519
 21
314.3594972159390863
 31
0.0
  0
LINE
  5
3596B
  8
0
 10
7259.4185459799964519
 20
314.3594972159390863
 30
0.0
 11
7259.0087698706529409
 21
314.7020818838205969
 31
0.0
  0
ARC
  5
3596C
  8
0
 10
7259.9510234626177407
 20
315.2602468965616254
 30
0.0
 40
1.305086422999181
 50
90.5380608923704671
 51
102.3234817754660071
  0
LINE
  5
3596D
  8
0
 10
7259.6724778296065779
 20
316.5352617599365885
 30
0.0
 11
7259.6579934423516534
 21
316.5307604816413232
 31
0.0
  0
LINE
  5
3596E
  8
0
 10
7259.4968501057473986
 20
316.479458425639109
 30
0.0
 11
7259.4830896323410343
 21
316.4719571362849138
 31
0.0
  0
LINE
  5
3596F
  8
0
 10
7259.3315894278248379
 20
316.3963077977549005
 30
0.0
 11
7259.3189318510712837
 21
316.3858165861371958
 31
0.0
  0
LINE
  5
35970
  8
0
 10
7259.180711404836984
 20
316.2873612445745266
 30
0.0
 11
7259.169557703636201
 21
316.2738838175848173
 31
0.0
  0
LINE
  5
35971
  8
0
 10
7259.8341253558055541
 20
314.2394100818247011
 30
0.0
 11
7259.8432778153483014
 21
314.2370610421606898
 31
0.0
  0
LINE
  5
35972
  8
0
 10
7259.858168437045606
 20
314.2373100204455909
 30
0.0
 11
7259.866703199713811
 21
314.2355491363994133
 31
0.0
  0
LINE
  5
35973
  8
0
 10
7259.8809620575329973
 20
314.2357768679055994
 30
0.0
 11
7259.8890640906156477
 21
314.2345516224959283
 31
0.0
  0
LINE
  5
35974
  8
0
 10
7259.902905345767067
 20
314.2347211167157184
 30
0.0
 11
7259.9107309768196501
 21
314.2339984388676157
 31
0.0
  0
LINE
  5
35975
  8
0
 10
7259.9243333302074461
 20
314.2340882057246176
 30
0.0
 11
7259.9320243910033241
 21
314.2338494343823072
 31
0.0
  0
ARC
  5
35976
  8
0
 10
7260.0051668460200744
 20
315.161532344178795
 30
0.0
 40
1.4125562164506751
 50
104.2277388453432962
 51
111.0913488634167976
  0
ARC
  5
35977
  8
0
 10
7260.0354064580496924
 20
315.1763254605641009
 30
0.0
 40
1.408444288955838
 50
113.088141472171003
 51
119.9809722154407012
  0
ARC
  5
35978
  8
0
 10
7260.0600555644414271
 20
315.1991097854494228
 30
0.0
 40
1.3991202197514809
 50
121.9856571974641071
 51
128.9393891517636916
  0
ARC
  5
35979
  8
0
 10
7260.0784969749593074
 20
315.226418194185726
 30
0.0
 40
1.386850688127186
 50
130.9498410047739014
 51
137.9883825198110117
  0
ARC
  5
3597A
  8
0
 10
7260.0887537375811007
 20
315.2573414119813719
 30
0.0
 40
1.3704460245876
 50
140.0057456269748002
 51
147.1642924509864088
  0
ARC
  5
3597B
  8
0
 10
7260.0921535581746866
 20
315.2883839331034892
 30
0.0
 40
1.3524429756929479
 50
149.1971453170307882
 51
156.5063558595442998
  0
ARC
  5
3597C
  8
0
 10
7260.0907955471648165
 20
315.3175011079471233
 30
0.0
 40
1.334889484621709
 50
158.5827470198229889
 51
166.0755672597099135
  0
ARC
  5
3597D
  8
0
 10
7260.0143302271417269
 20
315.3542214309520091
 30
0.0
 40
1.2462699293325801
 50
168.0212812403615033
 51
176.1994443431910042
  0
ARC
  5
3597E
  8
0
 10
7260.0538277302448478
 20
315.3681417549659045
 30
0.0
 40
1.2786671484576331
 50
178.2425575118153063
 51
186.46896645220599
  0
ARC
  5
3597F
  8
0
 10
7260.0174653418716844
 20
315.3812802886679947
 30
0.0
 40
1.2373338503479969
 50
188.8855265277119884
 51
197.9091418582038102
  0
ARC
  5
35980
  8
0
 10
7259.9711116147445864
 20
315.3789756318658988
 30
0.0
 40
1.1851854576387999
 50
200.6873259515168115
 51
211.4959113951356073
  0
ARC
  5
35981
  8
0
 10
7259.8609625859990047
 20
315.3050506604287762
 30
0.0
 40
1.0439366693687651
 50
215.2813078315161022
 51
244.9254965650773102
  0
ARC
  5
35982
  8
0
 10
7259.7887291651813939
 20
315.193738146275507
 30
0.0
 40
0.9213267299043945
 50
249.9570162645294999
 51
254.4762837812602072
  0
LINE
  5
35983
  8
0
 10
7259.5731672598076329
 20
314.2903544288624857
 30
0.0
 11
7259.615727350733323
 21
314.2817464022364788
 31
0.0
  0
LINE
  5
35984
  8
0
 10
7259.63816194320043
 20
314.2712827569167757
 30
0.0
 11
7259.6695350820382373
 21
314.2673159361107196
 31
0.0
  0
LINE
  5
35985
  8
0
 10
7259.6873008770999149
 20
314.259568745079207
 30
0.0
 11
7259.7125222861850489
 21
314.2577086181267987
 31
0.0
  0
LINE
  5
35986
  8
0
 10
7259.7272742316699805
 20
314.2517034594785059
 30
0.0
 11
7259.7486661493967404
 21
314.2509159501788076
 31
0.0
  0
LINE
  5
35987
  8
0
 10
7259.7613176988834311
 20
314.2461573296145048
 30
0.0
 11
7259.7801535584458179
 21
314.2459377864797716
 31
0.0
  0
LINE
  5
35988
  8
0
 10
7259.7912792518609422
 20
314.2421400862098722
 30
0.0
 11
7259.8083371495822576
 21
314.2422149727335068
 31
0.0
  0
LINE
  5
35989
  8
0
 10
7259.8183314290081398
 20
314.2391996826361833
 30
0.0
 11
7259.8341253558055541
 21
314.2394100818247011
 31
0.0
  0
LINE
  5
3598A
  8
0
 10
7259.8432778153483014
 20
314.2370610421606898
 30
0.0
 11
7259.858168437045606
 21
314.2373100204455909
 31
0.0
  0
LINE
  5
3598B
  8
0
 10
7259.866703199713811
 20
314.2355491363994133
 30
0.0
 11
7259.8809620575329973
 21
314.2357768679055994
 31
0.0
  0
LINE
  5
3598C
  8
0
 10
7259.8890640906156477
 20
314.2345516224959283
 30
0.0
 11
7259.902905345767067
 21
314.2347211167157184
 31
0.0
  0
LINE
  5
3598D
  8
0
 10
7259.9107309768196501
 20
314.2339984388676157
 30
0.0
 11
7259.9243333302074461
 21
314.2340882057246176
 31
0.0
  0
ARC
  5
3598E
  8
0
 10
7259.906293182672016
 20
316.5670559894790017
 30
0.0
 40
0.0522208685517895
 50
165.151844299083308
 51
185.8346210405925945
  0
ARC
  5
3598F
  8
0
 10
7259.7918051136321083
 20
316.5586341444894742
 30
0.0
 40
0.047724356639239
 50
2.3112638950793949
 51
25.0750983731977293
  0
ARC
  5
35990
  8
0
 10
7259.7210214413171343
 20
316.5475195148341072
 30
0.0
 40
0.0500673026326032
 50
174.1271532617199114
 51
194.1715245061919859
  0
ARC
  5
35991
  8
0
 10
7259.6098840040231153
 20
316.5207094228633764
 30
0.0
 40
0.049148162109851
 50
11.8005402975743703
 51
33.2891501810543886
  0
ARC
  5
35992
  8
0
 10
7259.5543190545213292
 20
316.5025416251108936
 30
0.0
 40
0.0619315280851951
 50
185.9641355153555082
 51
201.8835449210168917
  0
ARC
  5
35993
  8
0
 10
7259.4251468858028602
 20
316.4483663978841719
 30
0.0
 40
0.0625610487018875
 50
22.1531437282737009
 51
39.3277608425421974
  0
ARC
  5
35994
  8
0
 10
7259.3766455026097901
 20
316.4240972210321843
 30
0.0
 40
0.0529367728632396
 50
193.5085661848542884
 51
211.6652135169769053
  0
ARC
  5
35995
  8
0
 10
7259.2696718643519489
 20
316.3569675660273219
 30
0.0
 40
0.0570860075048663
 50
30.3552940055240192
 51
49.5299069232299587
  0
ARC
  5
35996
  8
0
 10
7259.2189319362778406
 20
316.3205742829636051
 30
0.0
 40
0.0506351157069158
 50
202.3783800414950065
 51
220.9901256134743903
  0
ARC
  5
35997
  8
0
 10
7259.1250935969374041
 20
316.2378037442869072
 30
0.0
 40
0.0572610554718409
 50
39.0573490027834822
 51
58.424365312407069
  0
ARC
  5
35998
  8
0
 10
7259.0824352525442009
 20
316.1953721350769229
 30
0.0
 40
0.0533244029700831
 50
212.2852578404418011
 51
229.8529268571749071
  0
ARC
  5
35999
  8
0
 10
7258.9945437368960484
 20
316.0870767493196922
 30
0.0
 40
0.0676021889496718
 50
49.0582801755931115
 51
65.8611038213817324
  0
ARC
  5
3599A
  8
0
 10
7258.9667809981110622
 20
316.0493705677469052
 30
0.0
 40
0.0571424981501899
 50
223.034641170108614
 51
238.9005512614089923
  0
ARC
  5
3599B
  8
0
 10
7258.8876027660362524
 20
315.9098668123776861
 30
0.0
 40
0.083021337958568
 50
58.8937697375276485
 51
72.5472794636267224
  0
ARC
  5
3599C
  8
0
 10
7258.8758465762648484
 20
315.8870533842123223
 30
0.0
 40
0.0641871844700416
 50
234.1433351261528912
 51
248.0198819283320972
  0
ARC
  5
3599D
  8
0
 10
7258.8165143333571905
 20
315.7262098194324835
 30
0.0
 40
0.0848295855896667
 50
68.1502780939296571
 51
81.73587495229323
  0
ARC
  5
3599E
  8
0
 10
7258.8110092447459465
 20
315.7097568114144792
 30
0.0
 40
0.0727780106659312
 50
245.2519533324210954
 51
257.3999796791417793
  0
ARC
  5
3599F
  8
0
 10
7258.7762825716381485
 20
315.525068280078699
 30
0.0
 40
0.0898285795271942
 50
77.8440124149405648
 51
90.8490568076316833
  0
ARC
  5
359A0
  8
0
 10
7258.7735506722301579
 20
315.5083916832955993
 30
0.0
 40
0.0716158269266789
 50
255.6289162781696973
 51
267.7996519628475198
  0
ARC
  5
359A1
  8
0
 10
7258.7723981999715761
 20
315.3053490205913931
 30
0.0
 40
0.1020627927386706
 50
88.1112691789867171
 51
99.7696408954352165
  0
ARC
  5
359A2
  8
0
 10
7258.7706394332781201
 20
315.3137566199310982
 30
0.0
 40
0.0905655150092756
 50
268.8944383290240125
 51
278.037123819369981
  0
ARC
  5
359A3
  8
0
 10
7258.815080756729003
 20
315.0651224444187051
 30
0.0
 40
0.1266434801151302
 50
99.1321793902120589
 51
108.3283249006996982
  0
ARC
  5
359A4
  8
0
 10
7258.7750058349502069
 20
315.2066691889709773
 30
0.0
 40
0.2159208405384328
 50
283.5748583203259159
 51
287.5421807326644057
  0
ARC
  5
359A5
  8
0
 10
7258.9233001484662964
 20
314.8033566654617061
 30
0.0
 40
0.1683536313741294
 50
111.2273904830849034
 51
118.4151719394555045
  0
ARC
  5
359A6
  8
0
 10
7258.8375349047391865
 20
314.9566009994492788
 30
0.0
 40
0.2320829994633961
 50
298.4937038710854722
 51
302.0030703648964163
  0
ARC
  5
359A7
  8
0
 10
7259.1916645286682979
 20
314.4536057365284023
 30
0.0
 40
0.3085301471553564
 50
126.3554932562171018
 51
130.2185159465863933
  0
ARC
  5
359A8
  8
0
 10
7259.0899696737869817
 20
314.5210821775798991
 30
0.0
 40
0.3661585569533372
 50
330.596263540993391
 51
333.813285461925318
  0
ARC
  5
359A9
  8
0
 10
7259.6846702081347757
 20
314.2370641435114749
 30
0.0
 40
0.2304903064324557
 50
156.7061403364639034
 51
160.4960011883256925
  0
ARC
  5
359AA
  8
0
 10
7259.4074222978370017
 20
314.3489133369720889
 30
0.0
 40
0.1413883590339149
 50
334.1339597067956788
 51
342.3404233639747076
  0
ARC
  5
359AB
  8
0
 10
7259.7115165020477434
 20
314.2447510634789865
 30
0.0
 40
0.1456714788918023
 50
161.7564894441024137
 51
167.8898253396793052
  0
ARC
  5
359AC
  8
0
 10
7259.4514557454504029
 20
314.3269751237007767
 30
0.0
 40
0.170384264378242
 50
337.8995139764945748
 51
344.6062302167503049
  0
ARC
  5
359AD
  8
0
 10
7259.7708120084107577
 20
314.2362366888995098
 30
0.0
 40
0.1372015549598024
 50
165.2006423610050092
 51
171.8267754284950968
  0
ARC
  5
359AE
  8
0
 10
7259.5270073693563972
 20
314.2990811753339813
 30
0.0
 40
0.1460245845922517
 50
339.7098898802846065
 51
347.4357951360560719
  0
ARC
  5
359AF
  8
0
 10
7259.8023221661405842
 20
314.2340845753860208
 30
0.0
 40
0.1178106100388149
 50
167.5073292495260944
 51
175.3420264449941044
  0
ARC
  5
359B0
  8
0
 10
7259.582816021886174
 20
314.281436677803697
 30
0.0
 40
0.1318587722324548
 50
341.1799290345924192
 51
349.6331200209202734
  0
ARC
  5
359B1
  8
0
 10
7259.8425255606844075
 20
314.2305009507007867
 30
0.0
 40
0.1171853882449675
 50
169.5759878541308012
 51
177.5573676380437007
  0
ARC
  5
359B2
  8
0
 10
7259.6211127867727555
 20
314.2704458916874728
 30
0.0
 40
0.1290398346711747
 50
342.7546035751481099
 51
351.2949375333902253
  0
ARC
  5
359B3
  8
0
 10
7259.8674894379828402
 20
314.2296503522293278
 30
0.0
 40
0.1074472823555216
 50
171.1627308039257116
 51
179.9819696652390064
  0
ARC
  5
359B4
  8
0
 10
7259.6580364646342787
 20
314.261185679689504
 30
0.0
 40
0.1230653600672177
 50
344.0205189586375241
 51
352.882718766512312
  0
ARC
  5
359B5
  8
0
 10
7259.8509156033069303
 20
314.2314386531630817
 30
0.0
 40
0.0605889023098741
 50
169.8268416601833906
 51
185.7078087763821941
  0
ARC
  5
359B6
  8
0
 10
7259.6853173249601241
 20
314.2548195967514744
 30
0.0
 40
0.1236638742587718
 50
345.4172643250449255
 51
354.1498831295701848
  0
ARC
  5
359B7
  8
0
 10
7259.9316883042838526
 20
314.2273920063387891
 30
0.0
 40
0.1139701820302501
 50
174.0533027248471001
 51
182.5663546127319137
  0
ARC
  5
359B8
  8
0
 10
7259.7205824169186599
 20
314.2483303805951778
 30
0.0
 40
0.1138928035524397
 50
346.1104433624647072
 51
355.5078860097158895
  0
ARC
  5
359B9
  8
0
 10
7259.9466551878249447
 20
314.2280827036778987
 30
0.0
 40
0.1037665249602563
 50
175.0363092436946033
 51
184.4983658659064076
  0
ARC
  5
359BA
  8
0
 10
7259.7505041778267696
 20
314.2435060129532189
 30
0.0
 40
0.1078423990648642
 50
346.8689300860153821
 51
356.7063063825655149
  0
ARC
  5
359BB
  8
0
 10
7259.9654406098361505
 20
314.2287376422294187
 30
0.0
 40
0.0989720799547022
 50
176.0536485272347136
 51
186.0828576810226025
  0
ARC
  5
359BC
  8
0
 10
7259.7764133138998659
 20
314.2397425889387819
 30
0.0
 40
0.1046239300458083
 50
347.7819170448858017
 51
357.8277099447847149
  0
ARC
  5
359BD
  8
0
 10
7259.9862355931245474
 20
314.2295483734786217
 30
0.0
 40
0.0973002230241035
 50
177.0525090044912133
 51
187.3551175368691872
  0
ARC
  5
359BE
  8
0
 10
7259.7975921871939136
 20
314.2369165742802011
 30
0.0
 40
0.1053360403790036
 50
348.9261521063713758
 51
358.8057310562430757
  0
ARC
  5
359BF
  8
0
 10
7260.0073046977076956
 20
314.2306900089296278
 30
0.0
 40
0.0966303744942524
 50
178.0379241248830908
 51
188.4649793475699937
  0
ARC
  5
359C0
  8
0
 10
7259.8143031997360595
 20
314.234849963867191
 30
0.0
 40
0.1100327673319631
 50
350.3093352542770731
 51
359.6033374758367245
  0
ARC
  5
359C1
  8
0
 10
7260.0487470952766671
 20
314.2330232964470156
 30
0.0
 40
0.1167256278493231
 50
179.5944796952398121
 51
188.293733220978595
  0
ARC
  5
359C2
  8
0
 10
7259.932891127991752
 20
315.3240892482829736
 30
0.0
 40
1.2614352640514239
 50
81.3906963427069883
 51
89.7330803805492252
  0
ARC
  5
359C3
  8
0
 10
7259.9387676621026912
 20
315.3998031914048852
 30
0.0
 40
1.1857076326171729
 50
278.150650303456473
 51
81.1237588095445403
  0
ARC
  5
359C4
  8
0
 10
7259.932950308528234
 20
315.481181691036511
 30
0.0
 40
1.267102046193471
 50
270.2630498307217977
 51
277.8893366774386209
  0
ARC
  5
359C5
  8
0
 10
7259.9264165045660775
 20
314.9116107771653787
 30
0.0
 40
1.671546283483115
 50
86.3763836068601449
 51
89.576634134697585
  0
ARC
  5
359C6
  8
0
 10
7259.9162878575043578
 20
315.2566640042592212
 30
0.0
 40
1.3282065757005479
 50
78.0387820771153145
 51
84.9994504119755447
  0
ARC
  5
359C7
  8
0
 10
7259.9176549309549955
 20
315.3296965348877734
 30
0.0
 40
1.25655215954947
 50
68.4970055349944431
 51
77.4095876575127306
  0
ARC
  5
359C8
  8
0
 10
7259.9125683405973177
 20
315.3497906530333239
 30
0.0
 40
1.2397801420317449
 50
57.2700664692126793
 51
67.9378916426307029
  0
ARC
  5
359C9
  8
0
 10
7259.9090853921015878
 20
315.3619095002380277
 30
0.0
 40
1.2315050903168829
 50
47.6293199002790715
 51
56.828894704146613
  0
ARC
  5
359CA
  8
0
 10
7259.8474010885147436
 20
315.3103835442346963
 30
0.0
 40
1.311187914164218
 50
40.3641959132542709
 51
47.1552923026500395
  0
ARC
  5
359CB
  8
0
 10
7259.9298720811157182
 20
315.395608312742695
 30
0.0
 40
1.193210060506072
 50
25.6132155862206012
 51
39.8107971592833678
  0
ARC
  5
359CC
  8
0
 10
7259.9395294447331253
 20
315.3989006496721004
 30
0.0
 40
1.1830790566046621
 50
12.1362133906874998
 51
25.6716218879956593
  0
ARC
  5
359CD
  8
0
 10
7259.8833014956971965
 20
315.3929264163716084
 30
0.0
 40
1.239320773838787
 50
2.585569703697784
 51
11.8597262837751298
  0
ARC
  5
359CE
  8
0
 10
7260.0277304395904139
 20
315.3994484464225252
 30
0.0
 40
1.0947446461062009
 50
355.2135555508180005
 51
2.585569703697784
  0
ARC
  5
359CF
  8
0
 10
7259.8612417461918085
 20
315.413389226264087
 30
0.0
 40
1.2618159792902759
 50
344.6726688485757109
 51
355.2135555508180005
  0
ARC
  5
359D0
  8
0
 10
7260.0115067954966435
 20
315.3722043067610912
 30
0.0
 40
1.1060091032002419
 50
334.338517822022709
 51
344.6726688485757109
  0
ARC
  5
359D1
  8
0
 10
7259.8851960049723857
 20
315.4328890371364764
 30
0.0
 40
1.2461413703740229
 50
321.6381896548990085
 51
334.338517822022709
  0
ARC
  5
359D2
  8
0
 10
7259.9368778659072632
 20
315.4019339967949236
 30
0.0
 40
1.1864314251559149
 50
296.6359811270115756
 51
321.261331842851007
  0
ARC
  5
359D3
  8
0
 10
7259.9382130354533729
 20
315.4007625837156752
 30
0.0
 40
1.184785935363724
 50
289.8408591245735124
 51
296.6036622410035193
  0
ARC
  5
359D4
  8
0
 10
7259.9395980788203815
 20
315.3969240687461024
 30
0.0
 40
1.1807051826999959
 50
281.3897412962896283
 51
289.8408591245735124
  0
ARC
  5
359D5
  8
0
 10
7259.9372868063846909
 20
315.4083973045492826
 30
0.0
 40
1.1924089051874009
 50
275.0214508345306967
 51
281.3897412962896283
  0
ARC
  5
359D6
  8
0
 10
7259.9400578943823348
 20
315.376859619561003
 30
0.0
 40
1.160749712160515
 50
271.5376169189344182
 51
275.0214508345306967
  0
ARC
  5
359D7
  8
0
 10
7260.0756289830751484
 20
304.9406610319928177
 30
0.0
 40
9.2764546019177594
 50
90.6449881619842301
 51
90.8453510433977272
  0
LINE
  5
359D8
  8
0
 10
7259.9455109332029679
 20
314.2338494343823072
 30
0.0
 11
7260.0231924779891415
 21
316.5617473498497816
 31
0.0
  0
LINE
  5
359D9
  8
0
 10
7260.0380446783574371
 20
316.560558783102806
 30
0.0
 11
7259.9532019939979364
 21
314.2340882057246176
 31
0.0
  0
LINE
  5
359DA
  8
0
 10
7259.9668043473866419
 20
314.2339984388676157
 30
0.0
 11
7260.2050574946006236
 21
316.5352617599365885
 31
0.0
  0
LINE
  5
359DB
  8
0
 10
7260.2195418818555481
 20
316.5307604816413232
 30
0.0
 11
7259.9746299784401344
 21
314.2347211167157184
 31
0.0
  0
LINE
  5
359DC
  8
0
 10
7259.9884712335897348
 20
314.2345516224959283
 30
0.0
 11
7260.3806852184570744
 21
316.479458425639109
 31
0.0
  0
LINE
  5
359DD
  8
0
 10
7260.3944456918670767
 20
316.4719571362849138
 30
0.0
 11
7259.9965732666751137
 21
314.2357768679055994
 31
0.0
  0
LINE
  5
359DE
  8
0
 10
7260.0108321244933904
 20
314.2355491363994133
 30
0.0
 11
7260.5459458963823636
 21
316.3963077977549005
 31
0.0
  0
LINE
  5
359DF
  8
0
 10
7260.5586034731350082
 20
316.3858165861371958
 30
0.0
 11
7260.019366887160686
 21
314.2373100204455909
 31
0.0
  0
LINE
  5
359E0
  8
0
 10
7260.0342575088589001
 20
314.2370610421606898
 30
0.0
 11
7260.696823919369308
 21
316.2873612445745266
 31
0.0
  0
LINE
  5
359E1
  8
0
 10
7260.7079776205710004
 20
316.2738838175848173
 30
0.0
 11
7260.0434099684007379
 21
314.2394100818247011
 31
0.0
  0
LINE
  5
359E2
  8
0
 10
7260.0691981746231249
 20
314.2422149727335068
 30
0.0
 11
7260.0592038951990617
 21
314.2391996826361833
 31
0.0
  0
LINE
  5
359E3
  8
0
 10
7260.0592038951990617
 20
314.2391996826361833
 30
0.0
 11
7260.8294810795241574
 21
316.1546113910882241
 31
0.0
  0
LINE
  5
359E4
  8
0
 10
7260.8294810795241574
 20
316.1546113910882241
 30
0.0
 11
7260.8386924803980946
 21
316.138141855581523
 31
0.0
  0
LINE
  5
359E5
  8
0
 10
7260.8386924803980946
 20
316.138141855581523
 30
0.0
 11
7260.0691981746231249
 21
314.2422149727335068
 31
0.0
  0
LINE
  5
359E6
  8
0
 10
7260.0973817657595646
 20
314.2459377864797716
 30
0.0
 11
7260.0862560723471688
 21
314.2421400862098722
 31
0.0
  0
LINE
  5
359E7
  8
0
 10
7260.0862560723471688
 20
314.2421400862098722
 30
0.0
 11
7260.9402698601179509
 21
316.0004410434680722
 31
0.0
  0
LINE
  5
359E8
  8
0
 10
7260.9402698601179509
 20
316.0004410434680722
 30
0.0
 11
7260.9470415403038714
 21
315.9809505879023845
 31
0.0
  0
LINE
  5
359E9
  8
0
 10
7260.9470415403038714
 20
315.9809505879023845
 30
0.0
 11
7260.0973817657595646
 21
314.2459377864797716
 31
0.0
  0
LINE
  5
359EA
  8
0
 10
7261.0257130375821362
 20
315.8275317229669099
 30
0.0
 11
7260.1162176253228608
 21
314.2461573296145048
 31
0.0
  0
LINE
  5
359EB
  8
0
 10
7260.1162176253228608
 20
314.2461573296145048
 30
0.0
 11
7260.1288691748095516
 21
314.2509159501788076
 31
0.0
  0
LINE
  5
359EC
  8
0
 10
7260.1288691748095516
 20
314.2509159501788076
 30
0.0
 11
7261.0294496716760477
 21
315.8049455190667913
 31
0.0
  0
LINE
  5
359ED
  8
0
 10
7261.0294496716760477
 20
315.8049455190667913
 30
0.0
 11
7261.0257130375821362
 21
315.8275317229669099
 31
0.0
  0
LINE
  5
359EE
  8
0
 10
7261.0823371963697355
 20
315.61288271757968
 30
0.0
 11
7261.0824021358002938
 21
315.6387315365357722
 31
0.0
  0
LINE
  5
359EF
  8
0
 10
7261.0824021358002938
 20
315.6387315365357722
 30
0.0
 11
7260.150261092537221
 21
314.2517034594785059
 31
0.0
  0
LINE
  5
359F0
  8
0
 10
7260.150261092537221
 20
314.2517034594785059
 30
0.0
 11
7260.1650130380212431
 21
314.2577086181267987
 31
0.0
  0
LINE
  5
359F1
  8
0
 10
7260.1650130380212431
 20
314.2577086181267987
 30
0.0
 11
7261.0823371963697355
 21
315.61288271757968
 31
0.0
  0
LINE
  5
359F2
  8
0
 10
7261.1017732773098032
 20
315.407356364422526
 30
0.0
 11
7261.1067342613723667
 21
315.4368286599205931
 31
0.0
  0
LINE
  5
359F3
  8
0
 10
7261.1067342613723667
 20
315.4368286599205931
 30
0.0
 11
7260.1902344471072865
 21
314.259568745079207
 31
0.0
  0
LINE
  5
359F4
  8
0
 10
7260.1902344471072865
 20
314.259568745079207
 30
0.0
 11
7260.2080002421689642
 21
314.2673159361107196
 31
0.0
  0
LINE
  5
359F5
  8
0
 10
7260.2080002421689642
 20
314.2673159361107196
 30
0.0
 11
7261.1017732773098032
 21
315.407356364422526
 31
0.0
  0
LINE
  5
359F6
  8
0
 10
7261.0825544847120909
 20
315.1901606960972799
 30
0.0
 11
7261.0942335007121073
 21
315.2240806678428839
 31
0.0
  0
LINE
  5
359F7
  8
0
 10
7261.0942335007121073
 20
315.2240806678428839
 30
0.0
 11
7260.239373381004043
 21
314.2712827569167757
 31
0.0
  0
LINE
  5
359F8
  8
0
 10
7260.239373381004043
 20
314.2712827569167757
 30
0.0
 11
7260.2618079734720595
 21
314.2817464022364788
 31
0.0
  0
LINE
  5
359F9
  8
0
 10
7260.2618079734720595
 20
314.2817464022364788
 30
0.0
 11
7261.0825544847120909
 21
315.1901606960972799
 31
0.0
  0
LINE
  5
359FA
  8
0
 10
7261.0151910137683444
 20
314.9602876407569738
 30
0.0
 11
7261.037449255663887
 21
315.0007896791246935
 31
0.0
  0
LINE
  5
359FB
  8
0
 10
7261.037449255663887
 20
315.0007896791246935
 30
0.0
 11
7260.304368064398659
 21
314.2903544288624857
 31
0.0
  0
LINE
  5
359FC
  8
0
 10
7260.304368064398659
 20
314.2903544288624857
 30
0.0
 11
7260.3353874883077879
 21
314.3060216423818929
 31
0.0
  0
LINE
  5
359FD
  8
0
 10
7260.3353874883077879
 20
314.3060216423818929
 30
0.0
 11
7261.0151910137683444
 21
314.9602876407569738
 31
0.0
  0
LINE
  5
359FE
  8
0
 10
7260.8687654535533511
 20
314.7020818838205969
 30
0.0
 11
7260.9170046202716549
 21
314.7597900444174002
 31
0.0
  0
LINE
  5
359FF
  8
0
 10
7260.9170046202716549
 20
314.7597900444174002
 30
0.0
 11
7260.4045678732763918
 21
314.3282108601371192
 31
0.0
  0
LINE
  5
35A00
  8
0
 10
7260.4045678732763918
 20
314.3282108601371192
 30
0.0
 11
7260.4589893442089306
 21
314.3594972159390863
 31
0.0
  0
LINE
  5
35A01
  8
0
 10
7260.4589893442089306
 20
314.3594972159390863
 30
0.0
 11
7260.8687654535533511
 21
314.7020818838205969
 31
0.0
  0
ARC
  5
35A02
  8
0
 10
7259.9265118615885513
 20
315.2602468965616254
 30
0.0
 40
1.305086422999181
 50
77.6765182245339361
 51
89.4619391076295472
  0
LINE
  5
35A03
  8
0
 10
7260.2050574946006236
 20
316.5352617599365885
 30
0.0
 11
7260.2195418818555481
 21
316.5307604816413232
 31
0.0
  0
LINE
  5
35A04
  8
0
 10
7260.3806852184570744
 20
316.479458425639109
 30
0.0
 11
7260.3944456918670767
 21
316.4719571362849138
 31
0.0
  0
LINE
  5
35A05
  8
0
 10
7260.5459458963823636
 20
316.3963077977549005
 30
0.0
 11
7260.5586034731350082
 21
316.3858165861371958
 31
0.0
  0
LINE
  5
35A06
  8
0
 10
7260.696823919369308
 20
316.2873612445745266
 30
0.0
 11
7260.7079776205710004
 21
316.2738838175848173
 31
0.0
  0
LINE
  5
35A07
  8
0
 10
7260.0434099684007379
 20
314.2394100818247011
 30
0.0
 11
7260.0342575088589001
 21
314.2370610421606898
 31
0.0
  0
LINE
  5
35A08
  8
0
 10
7260.019366887160686
 20
314.2373100204455909
 30
0.0
 11
7260.0108321244933904
 21
314.2355491363994133
 31
0.0
  0
LINE
  5
35A09
  8
0
 10
7259.9965732666751137
 20
314.2357768679055994
 30
0.0
 11
7259.9884712335897348
 21
314.2345516224959283
 31
0.0
  0
LINE
  5
35A0A
  8
0
 10
7259.9746299784401344
 20
314.2347211167157184
 30
0.0
 11
7259.9668043473866419
 21
314.2339984388676157
 31
0.0
  0
LINE
  5
35A0B
  8
0
 10
7259.9532019939979364
 20
314.2340882057246176
 30
0.0
 11
7259.9455109332029679
 21
314.2338494343823072
 31
0.0
  0
ARC
  5
35A0C
  8
0
 10
7259.8723684781880365
 20
315.161532344178795
 30
0.0
 40
1.4125562164506751
 50
68.9086511365832308
 51
75.772261154656718
  0
ARC
  5
35A0D
  8
0
 10
7259.8421288661565995
 20
315.1763254605641009
 30
0.0
 40
1.408444288955838
 50
60.0190277845592703
 51
66.9118585278289544
  0
ARC
  5
35A0E
  8
0
 10
7259.8174797597657744
 20
315.1991097854494228
 30
0.0
 40
1.3991202197514809
 50
51.0606108482362586
 51
58.0143428025359071
  0
ARC
  5
35A0F
  8
0
 10
7259.7990383492460751
 20
315.226418194185726
 30
0.0
 40
1.386850688127186
 50
42.0116174801889883
 51
49.0501589952260417
  0
ARC
  5
35A10
  8
0
 10
7259.7887815866251913
 20
315.2573414119813719
 30
0.0
 40
1.3704460245876
 50
32.8357075490135699
 51
39.9942543730251572
  0
ARC
  5
35A11
  8
0
 10
7259.7853817660316054
 20
315.2883839331034892
 30
0.0
 40
1.3524429756929479
 50
23.4936441404557215
 51
30.8028546829692296
  0
ARC
  5
35A12
  8
0
 10
7259.786739777040566
 20
315.3175011079471233
 30
0.0
 40
1.334889484621709
 50
13.9244327402900598
 51
21.4172529801770217
  0
ARC
  5
35A13
  8
0
 10
7259.8632050970645651
 20
315.3542214309520091
 30
0.0
 40
1.2462699293325801
 50
3.8005556568089931
 51
11.9787187596384594
  0
ARC
  5
35A14
  8
0
 10
7259.8237075939632632
 20
315.3681417549659045
 30
0.0
 40
1.2786671484576331
 50
353.5310335477939816
 51
1.7574424881847019
  0
ARC
  5
35A15
  8
0
 10
7259.8600699823346076
 20
315.3812802886679947
 30
0.0
 40
1.2373338503479969
 50
342.0908581417962182
 51
351.1144734722880116
  0
ARC
  5
35A16
  8
0
 10
7259.9064237094626151
 20
315.3789756318658988
 30
0.0
 40
1.1851854576387999
 50
328.5040886048644779
 51
339.3126740484831885
  0
ARC
  5
35A17
  8
0
 10
7260.0165727382081968
 20
315.3050506604287762
 30
0.0
 40
1.0439366693687651
 50
295.0745034349226898
 51
324.7186921684813115
  0
ARC
  5
35A18
  8
0
 10
7260.0888061590248981
 20
315.193738146275507
 30
0.0
 40
0.9213267299043945
 50
285.5237162187398212
 51
290.0429837354705001
  0
LINE
  5
35A19
  8
0
 10
7260.304368064398659
 20
314.2903544288624857
 30
0.0
 11
7260.2618079734720595
 21
314.2817464022364788
 31
0.0
  0
LINE
  5
35A1A
  8
0
 10
7260.239373381004043
 20
314.2712827569167757
 30
0.0
 11
7260.2080002421689642
 21
314.2673159361107196
 31
0.0
  0
LINE
  5
35A1B
  8
0
 10
7260.1902344471072865
 20
314.259568745079207
 30
0.0
 11
7260.1650130380212431
 21
314.2577086181267987
 31
0.0
  0
LINE
  5
35A1C
  8
0
 10
7260.150261092537221
 20
314.2517034594785059
 30
0.0
 11
7260.1288691748095516
 21
314.2509159501788076
 31
0.0
  0
LINE
  5
35A1D
  8
0
 10
7260.1162176253228608
 20
314.2461573296145048
 30
0.0
 11
7260.0973817657595646
 21
314.2459377864797716
 31
0.0
  0
LINE
  5
35A1E
  8
0
 10
7260.0862560723471688
 20
314.2421400862098722
 30
0.0
 11
7260.0691981746231249
 21
314.2422149727335068
 31
0.0
  0
LINE
  5
35A1F
  8
0
 10
7260.0592038951990617
 20
314.2391996826361833
 30
0.0
 11
7260.0434099684007379
 21
314.2394100818247011
 31
0.0
  0
LINE
  5
35A20
  8
0
 10
7260.0342575088589001
 20
314.2370610421606898
 30
0.0
 11
7260.019366887160686
 21
314.2373100204455909
 31
0.0
  0
LINE
  5
35A21
  8
0
 10
7260.0108321244933904
 20
314.2355491363994133
 30
0.0
 11
7259.9965732666751137
 21
314.2357768679055994
 31
0.0
  0
LINE
  5
35A22
  8
0
 10
7259.9884712335897348
 20
314.2345516224959283
 30
0.0
 11
7259.9746299784401344
 21
314.2347211167157184
 31
0.0
  0
LINE
  5
35A23
  8
0
 10
7259.9668043473866419
 20
314.2339984388676157
 30
0.0
 11
7259.9532019939979364
 21
314.2340882057246176
 31
0.0
  0
ARC
  5
35A24
  8
0
 10
7259.9712421415351855
 20
316.5670559894790017
 30
0.0
 40
0.0522208685517895
 50
354.1653789594042223
 51
14.84815570091666
  0
ARC
  5
35A25
  8
0
 10
7260.0857302105750932
 20
316.5586341444894742
 30
0.0
 40
0.047724356639239
 50
154.9249016268022956
 51
177.6887361049205936
  0
ARC
  5
35A26
  8
0
 10
7260.1565138828900672
 20
316.5475195148341072
 30
0.0
 40
0.0500673026326032
 50
345.828475493804774
 51
5.8728467382800247
  0
ARC
  5
35A27
  8
0
 10
7260.2676513201831767
 20
316.5207094228633764
 30
0.0
 40
0.049148162109851
 50
146.7108498189456043
 51
168.1994597024255995
  0
ARC
  5
35A28
  8
0
 10
7260.3232162696858722
 20
316.5025416251108936
 30
0.0
 40
0.0619315280851951
 50
338.1164550789831083
 51
354.0358644846444918
  0
ARC
  5
35A29
  8
0
 10
7260.4523884384052508
 20
316.4483663978841719
 30
0.0
 40
0.0625610487018875
 50
140.6722391574577955
 51
157.8468562717262955
  0
ARC
  5
35A2A
  8
0
 10
7260.5008898215974114
 20
316.4240972210321843
 30
0.0
 40
0.0529367728632396
 50
328.3347864830230947
 51
346.4914338151456263
  0
ARC
  5
35A2B
  8
0
 10
7260.6078634598543431
 20
316.3569675660273219
 30
0.0
 40
0.0570860075048663
 50
130.4700930767700129
 51
149.6447059944759133
  0
ARC
  5
35A2C
  8
0
 10
7260.6586033879284514
 20
316.3205742829636051
 30
0.0
 40
0.0506351157069158
 50
319.009874386525496
 51
337.6216199585019808
  0
ARC
  5
35A2D
  8
0
 10
7260.7524417272688879
 20
316.2378037442869072
 30
0.0
 40
0.0572610554718409
 50
121.5756346875928955
 51
140.9426509972165036
  0
ARC
  5
35A2E
  8
0
 10
7260.7951000716620911
 20
316.1953721350769229
 30
0.0
 40
0.0533244029700831
 50
310.1470731428252066
 51
327.7147421595582273
  0
ARC
  5
35A2F
  8
0
 10
7260.8829915873102436
 20
316.0870767493196922
 30
0.0
 40
0.0676021889496718
 50
114.1388961786181966
 51
130.941719824406789
  0
ARC
  5
35A30
  8
0
 10
7260.9107543260943203
 20
316.0493705677469052
 30
0.0
 40
0.0571424981501899
 50
301.0994487385892739
 51
316.965358829891386
  0
ARC
  5
35A31
  8
0
 10
7260.9899325581709491
 20
315.9098668123776861
 30
0.0
 40
0.083021337958568
 50
107.4527205363732065
 51
121.1062302624722946
  0
ARC
  5
35A32
  8
0
 10
7261.0016887479423531
 20
315.8870533842123223
 30
0.0
 40
0.0641871844700416
 50
291.9801180716679028
 51
305.8566648738470803
  0
ARC
  5
35A33
  8
0
 10
7261.0610209908509205
 20
315.7262098194324835
 30
0.0
 40
0.0848295855896667
 50
98.2641250477067842
 51
111.8497219060703003
  0
ARC
  5
35A34
  8
0
 10
7261.0665260794603455
 20
315.7097568114144792
 30
0.0
 40
0.0727780106659312
 50
282.6000203208582207
 51
294.7480466675788762
  0
ARC
  5
35A35
  8
0
 10
7261.101252752569053
 20
315.525068280078699
 30
0.0
 40
0.0898285795271942
 50
89.1509431923683024
 51
102.1559875850594068
  0
ARC
  5
35A36
  8
0
 10
7261.103984651977953
 20
315.5083916832955993
 30
0.0
 40
0.0716158269266789
 50
272.2003480371524802
 51
284.3710837218303027
  0
ARC
  5
35A37
  8
0
 10
7261.1051371242356254
 20
315.3053490205913931
 30
0.0
 40
0.1020627927386706
 50
80.2303591045647977
 51
91.8887308210132829
  0
ARC
  5
35A38
  8
0
 10
7261.1068958909290814
 20
315.3137566199310982
 30
0.0
 40
0.0905655150092756
 50
261.962876180630019
 51
271.1055616709761011
  0
ARC
  5
35A39
  8
0
 10
7261.0624545674781984
 20
315.0651224444187051
 30
0.0
 40
0.1266434801151302
 50
71.6716750993002449
 51
80.8678206097879411
  0
ARC
  5
35A3A
  8
0
 10
7261.1025294892560851
 20
315.2066691889709773
 30
0.0
 40
0.2159208405384328
 50
252.4578192673355943
 51
256.4251416796740273
  0
ARC
  5
35A3B
  8
0
 10
7260.9542351757399956
 20
314.8033566654617061
 30
0.0
 40
0.1683536313741294
 50
61.5848280605445026
 51
68.7726095168665239
  0
ARC
  5
35A3C
  8
0
 10
7261.040000419466196
 20
314.9566009994492788
 30
0.0
 40
0.2320829994633961
 50
237.9969296351034984
 51
241.5062961289144141
  0
ARC
  5
35A3D
  8
0
 10
7260.6858707955379941
 20
314.4536057365284023
 30
0.0
 40
0.3085301471553564
 50
49.7814840534135428
 51
53.6445067437828698
  0
ARC
  5
35A3E
  8
0
 10
7260.7875656504193103
 20
314.5210821775798991
 30
0.0
 40
0.3661585569533372
 50
206.1867145380745967
 51
209.4037364590066943
  0
ARC
  5
35A3F
  8
0
 10
7260.1928651160724257
 20
314.2370641435114749
 30
0.0
 40
0.2304903064324557
 50
19.5039988116742897
 51
23.2938596635361002
  0
ARC
  5
35A40
  8
0
 10
7260.4701130263692903
 20
314.3489133369720889
 30
0.0
 40
0.1413883590339149
 50
197.6595766360252924
 51
205.8660402932013938
  0
ARC
  5
35A41
  8
0
 10
7260.1660188221603676
 20
314.2447510634789865
 30
0.0
 40
0.1456714788918023
 50
12.1101746603206895
 51
18.2435105558976289
  0
ARC
  5
35A42
  8
0
 10
7260.4260795787558891
 20
314.3269751237007767
 30
0.0
 40
0.170384264378242
 50
195.3937697832496951
 51
202.1004860235053116
  0
ARC
  5
35A43
  8
0
 10
7260.1067233157964438
 20
314.2362366888995098
 30
0.0
 40
0.1372015549598024
 50
8.1732245715048695
 51
14.7993576389950192
  0
ARC
  5
35A44
  8
0
 10
7260.3505279548498947
 20
314.2990811753339813
 30
0.0
 40
0.1460245845922517
 50
192.564204863943786
 51
200.2901101197122955
  0
ARC
  5
35A45
  8
0
 10
7260.0752131580657078
 20
314.2340845753860208
 30
0.0
 40
0.1178106100388149
 50
4.6579735550059089
 51
12.4926707504738808
  0
ARC
  5
35A46
  8
0
 10
7260.2947193023210275
 20
314.281436677803697
 30
0.0
 40
0.1318587722324548
 50
190.3668799790796982
 51
198.8200709654074956
  0
ARC
  5
35A47
  8
0
 10
7260.035009763520975
 20
314.2305009507007867
 30
0.0
 40
0.1171853882449675
 50
2.4426323619562709
 51
10.4240121458691508
  0
ARC
  5
35A48
  8
0
 10
7260.2564225374317175
 20
314.2704458916874728
 30
0.0
 40
0.1290398346711747
 50
188.7050624666065062
 51
197.2453964248487921
  0
ARC
  5
35A49
  8
0
 10
7260.0100458862252708
 20
314.2296503522293278
 30
0.0
 40
0.1074472823555216
 50
0.0180303347609515
 51
8.837269196074315
  0
ARC
  5
35A4A
  8
0
 10
7260.2194988595729228
 20
314.261185679689504
 30
0.0
 40
0.1230653600672177
 50
187.117281233487688
 51
195.9794810413625044
  0
ARC
  5
35A4B
  8
0
 10
7260.0266197209002712
 20
314.2314386531630817
 30
0.0
 40
0.0605889023098741
 50
354.2921912236178059
 51
10.1731583398166094
  0
ARC
  5
35A4C
  8
0
 10
7260.1922179992461679
 20
314.2548195967514744
 30
0.0
 40
0.1236638742587718
 50
185.8501168704297015
 51
194.5827356749551029
  0
ARC
  5
35A4D
  8
0
 10
7259.9458470199224394
 20
314.2273920063387891
 30
0.0
 40
0.1139701820302501
 50
357.4336453872680863
 51
5.9466972751528697
  0
ARC
  5
35A4E
  8
0
 10
7260.1569529072867226
 20
314.2483303805951778
 30
0.0
 40
0.1138928035524397
 50
184.4921139902841105
 51
193.8895566375352928
  0
ARC
  5
35A4F
  8
0
 10
7259.9308801363822568
 20
314.2280827036778987
 30
0.0
 40
0.1037665249602563
 50
355.5016341340935924
 51
4.9636907563054429
  0
ARC
  5
35A50
  8
0
 10
7260.1270311463786129
 20
314.2435060129532189
 30
0.0
 40
0.1078423990648642
 50
183.2936936174345135
 51
193.1310699139845894
  0
ARC
  5
35A51
  8
0
 10
7259.9120947143701414
 20
314.2287376422294187
 30
0.0
 40
0.0989720799547022
 50
353.9171423189774259
 51
3.9463514727652651
  0
ARC
  5
35A52
  8
0
 10
7260.1011220103064261
 20
314.2397425889387819
 30
0.0
 40
0.1046239300458083
 50
182.1722900552153135
 51
192.2180829551141983
  0
ARC
  5
35A53
  8
0
 10
7259.8912997310817445
 20
314.2295483734786217
 30
0.0
 40
0.0973002230241035
 50
352.6448824631307843
 51
2.9474909955087529
  0
ARC
  5
35A54
  8
0
 10
7260.0799431370132879
 20
314.2369165742802011
 30
0.0
 40
0.1053360403790036
 50
181.1942689437535137
 51
191.0738478936285958
  0
ARC
  5
35A55
  8
0
 10
7259.8702306264976869
 20
314.2306900089296278
 30
0.0
 40
0.0966303744942524
 50
351.5350206524267946
 51
1.9620758751169041
  0
ARC
  5
35A56
  8
0
 10
7260.063232124469323
 20
314.234849963867191
 30
0.0
 40
0.1100327673319631
 50
180.3966625241633039
 51
189.6906647457196868
  0
ARC
  5
35A57
  8
0
 10
7259.8287882289287154
 20
314.2330232964470156
 30
0.0
 40
0.1167256278493231
 50
351.7062667790212913
 51
0.4055203047634476
  0
LINE
  5
35A58
  8
0
 10
7259.9320243910033241
 20
314.2338494343823072
 30
0.0
 11
7259.9455109332029679
 21
314.2338494343823072
 31
0.0
  0
ARC
  5
35A59
  8
0
 10
7259.9370630258936217
 20
314.4971827021212789
 30
0.0
 40
0.2959774063695475
 50
250.2234800541976938
 51
289.5628818078220093
  0
ARC
  5
35A5A
  8
0
 10
7259.9571574608307856
 20
318.5384902953653068
 30
0.0
 40
0.8834147043840239
 50
91.2990239235356853
 51
95.7511096055015685
  0
ARC
  5
35A5B
  8
0
 10
7259.9536351208716951
 20
318.4459851150701866
 30
0.0
 40
0.9751849740402565
 50
95.0005495880244837
 51
101.9612179228846998
  0
ARC
  5
35A5C
  8
0
 10
7259.9526313993792428
 20
318.4996064626740235
 30
0.0
 40
0.9225754543822903
 50
102.5904123424871983
 51
111.5029944650055
  0
ARC
  5
35A5D
  8
0
 10
7259.9563660341691502
 20
318.5143598018311195
 30
0.0
 40
0.9102612407901769
 50
112.0621083573692971
 51
122.7299335307873065
  0
ARC
  5
35A5E
  8
0
 10
7259.9589232561402241
 20
318.5232576027552227
 30
0.0
 40
0.9041855999679027
 50
123.1711052958533941
 51
132.3706800997208859
  0
ARC
  5
35A5F
  8
0
 10
7260.0042126012558583
 20
318.4854266365586
 30
0.0
 40
0.9626896714930969
 50
132.8447076973498895
 51
139.6358040867457078
  0
ARC
  5
35A60
  8
0
 10
7259.9436614232608918
 20
318.5479996693877069
 30
0.0
 40
0.8760689362386713
 50
140.1892028407166038
 51
154.3867844137793952
  0
ARC
  5
35A61
  8
0
 10
7259.9365708726945741
 20
318.5504169420934204
 30
0.0
 40
0.8686306333742333
 50
154.3283781120042875
 51
167.8637866093125126
  0
ARC
  5
35A62
  8
0
 10
7259.9778540977804369
 20
318.546030589358395
 30
0.0
 40
0.9099239672308371
 50
168.1402737162248116
 51
177.4144302963022142
  0
ARC
  5
35A63
  8
0
 10
7259.8718126592866611
 20
318.5508191409454071
 30
0.0
 40
0.8037744646240009
 50
177.4144302963022142
 51
184.7864444491819995
  0
ARC
  5
35A64
  8
0
 10
7259.9940506267230376
 20
318.5610546263559968
 30
0.0
 40
0.9264402130811262
 50
184.7864444491819995
 51
195.3273311514211912
  0
ARC
  5
35A65
  8
0
 10
7259.8837242506260736
 20
318.5308161714414723
 30
0.0
 40
0.8120449622256529
 50
195.3273311514211912
 51
205.661482177977291
  0
ARC
  5
35A66
  8
0
 10
7259.9764631266652941
 20
318.5753716180855122
 30
0.0
 40
0.9149317298611688
 50
205.661482177977291
 51
218.3618103451009915
  0
ARC
  5
35A67
  8
0
 10
7259.9375373959555873
 20
318.5605575936472178
 30
0.0
 40
0.86988384394313
 50
243.3963377589963955
 51
250.1591408754264876
  0
ARC
  5
35A68
  8
0
 10
7259.936520480737272
 20
318.5577393105658075
 30
0.0
 40
0.8668877070821579
 50
250.1591408754264876
 51
258.6102587037103717
  0
ARC
  5
35A69
  8
0
 10
7259.9382174442898759
 20
318.5661630959644981
 30
0.0
 40
0.8754807185299702
 50
258.6102587037103717
 51
264.9785491654693033
  0
ARC
  5
35A6A
  8
0
 10
7259.7641293871829475
 20
316.1720385303581224
 30
0.0
 40
1.5251210240243149
 50
84.4068142438963633
 51
86.3361855155512075
  0
ARC
  5
35A6B
  8
0
 10
7260.0360961087699252
 20
322.1417757101789903
 30
0.0
 40
4.4535849969762511
 50
268.413254654009279
 51
268.7265095520534146
  0
LINE
  5
35A6C
  8
0
 10
7259.9321791931279222
 20
317.7037961605548162
 30
0.0
 11
7259.8751444843574063
 21
319.4041927401295879
 31
0.0
  0
LINE
  5
35A6D
  8
0
 10
7259.8642398232150299
 20
319.4033200803689851
 30
0.0
 11
7259.9265323253439419
 21
317.7039714692976986
 31
0.0
  0
LINE
  5
35A6E
  8
0
 10
7259.9165453166388033
 20
317.703905561409897
 30
0.0
 11
7259.7416170385904479
 21
319.3847467068208061
 31
0.0
  0
LINE
  5
35A6F
  8
0
 10
7259.7309824301883054
 20
319.3814418150683991
 30
0.0
 11
7259.9107996457796617
 21
317.7044361600317188
 31
0.0
  0
LINE
  5
35A70
  8
0
 10
7259.9006372325748089
 20
317.7043117153713183
 30
0.0
 11
7259.6126690869186859
 21
319.3437752389002071
 31
0.0
  0
LINE
  5
35A71
  8
0
 10
7259.6025659846245617
 20
319.3382677035530151
 30
0.0
 11
7259.8946886240782987
 21
317.7052113050397111
 31
0.0
  0
LINE
  5
35A72
  8
0
 10
7259.8842196020559641
 20
317.7050441018748757
 30
0.0
 11
7259.4913327429667333
 21
319.2827250646441257
 31
0.0
  0
LINE
  5
35A73
  8
0
 10
7259.4820394004373156
 20
319.2750222930147856
 30
0.0
 11
7259.8779532783801187
 21
317.7063369637642154
 31
0.0
  0
LINE
  5
35A74
  8
0
 10
7259.8670204078453025
 20
317.7061541609631945
 30
0.0
 11
7259.3805563143423569
 21
319.2027352169963024
 31
0.0
  0
LINE
  5
35A75
  8
0
 10
7259.3723671350280711
 20
319.1928399307287236
 30
0.0
 11
7259.8603005638206014
 21
317.7078788536621801
 31
0.0
  0
LINE
  5
35A76
  8
0
 10
7259.8413665578636937
 20
317.7099382377355141
 30
0.0
 11
7259.84870447600224
 21
317.7077243760900274
 31
0.0
  0
LINE
  5
35A77
  8
0
 10
7259.84870447600224
 20
317.7077243760900274
 30
0.0
 11
7259.2831578586738033
 21
319.1052687047878749
 31
0.0
  0
LINE
  5
35A78
  8
0
 10
7259.2831578586738033
 20
319.1052687047878749
 30
0.0
 11
7259.2763947392268165
 21
319.0931765770652078
 31
0.0
  0
LINE
  5
35A79
  8
0
 10
7259.2763947392268165
 20
319.0931765770652078
 30
0.0
 11
7259.8413665578636937
 21
317.7099382377355141
 31
0.0
  0
LINE
  5
35A7A
  8
0
 10
7259.8206738319795477
 20
317.7126715716105991
 30
0.0
 11
7259.8288424476459113
 21
317.7098832551643
 31
0.0
  0
LINE
  5
35A7B
  8
0
 10
7259.8288424476459113
 20
317.7098832551643
 30
0.0
 11
7259.2018154258739742
 21
318.9920750124870779
 31
0.0
  0
LINE
  5
35A7C
  8
0
 10
7259.2018154258739742
 20
318.9920750124870779
 30
0.0
 11
7259.1968435782064262
 21
318.9777648895343987
 31
0.0
  0
LINE
  5
35A7D
  8
0
 10
7259.1968435782064262
 20
318.9777648895343987
 30
0.0
 11
7259.8207760795821741
 21
317.712670379854103
 31
0.0
  0
LINE
  5
35A7E
  8
0
 10
7259.1390820346059627
 20
318.865122944707025
 30
0.0
 11
7259.8068443211532212
 21
317.7128327627763156
 31
0.0
  0
LINE
  5
35A7F
  8
0
 10
7259.8068443211532212
 20
317.7128327627763156
 30
0.0
 11
7259.7975554039130657
 21
317.7163265982655957
 31
0.0
  0
LINE
  5
35A80
  8
0
 10
7259.7975554039130657
 20
317.7163265982655957
 30
0.0
 11
7259.1363385536697024
 21
318.8485398867197205
 31
0.0
  0
LINE
  5
35A81
  8
0
 10
7259.1363385536697024
 20
318.8485398867197205
 30
0.0
 11
7259.1390820346059627
 21
318.865122944707025
 31
0.0
  0
LINE
  5
35A82
  8
0
 10
7259.0975079076388283
 20
318.7075251067082036
 30
0.0
 11
7259.0974602283431523
 21
318.7265036152502944
 31
0.0
  0
LINE
  5
35A83
  8
0
 10
7259.0974602283431523
 20
318.7265036152502944
 30
0.0
 11
7259.7818492049573251
 21
317.7169047969059079
 31
0.0
  0
LINE
  5
35A84
  8
0
 10
7259.7818492049573251
 20
317.7169047969059079
 30
0.0
 11
7259.7710181521388222
 21
317.7213138553969998
 31
0.0
  0
LINE
  5
35A85
  8
0
 10
7259.7710181521388222
 20
317.7213138553969998
 30
0.0
 11
7259.0975079076388283
 21
318.7075251067082036
 31
0.0
  0
LINE
  5
35A86
  8
0
 10
7259.0832377071801602
 20
318.5566252278526918
 30
0.0
 11
7259.0795952940179632
 21
318.5782641357200191
 31
0.0
  0
LINE
  5
35A87
  8
0
 10
7259.0795952940179632
 20
318.5782641357200191
 30
0.0
 11
7259.7525002953434523
 21
317.7226795826015859
 31
0.0
  0
LINE
  5
35A88
  8
0
 10
7259.7525002953434523
 20
317.7226795826015859
 30
0.0
 11
7259.7394564385267586
 21
317.7283676618682193
 31
0.0
  0
LINE
  5
35A89
  8
0
 10
7259.7394564385267586
 20
317.7283676618682193
 30
0.0
 11
7259.0832377071801602
 21
318.5566252278526918
 31
0.0
  0
LINE
  5
35A8A
  8
0
 10
7259.0973483719699288
 20
318.3971575998103276
 30
0.0
 11
7259.0887735003179841
 21
318.4220620441724918
 31
0.0
  0
LINE
  5
35A8B
  8
0
 10
7259.0887735003179841
 20
318.4220620441724918
 30
0.0
 11
7259.7164219090027473
 21
317.7312801486119724
 31
0.0
  0
LINE
  5
35A8C
  8
0
 10
7259.7164219090027473
 20
317.7312801486119724
 30
0.0
 11
7259.6999501659229281
 21
317.7389626807391778
 31
0.0
  0
LINE
  5
35A8D
  8
0
 10
7259.6999501659229281
 20
317.7389626807391778
 30
0.0
 11
7259.0973483719699288
 21
318.3971575998103276
 31
0.0
  0
LINE
  5
35A8E
  8
0
 10
7259.1468074289159631
 20
318.2283820843101125
 30
0.0
 11
7259.1304651645095873
 21
318.2581191598198984
 31
0.0
  0
LINE
  5
35A8F
  8
0
 10
7259.1304651645095873
 20
318.2581191598198984
 30
0.0
 11
7259.6687020438876061
 21
317.7452827956788042
 31
0.0
  0
LINE
  5
35A90
  8
0
 10
7259.6687020438876061
 20
317.7452827956788042
 30
0.0
 11
7259.6459272160464025
 21
317.7567858491108836
 31
0.0
  0
LINE
  5
35A91
  8
0
 10
7259.6459272160464025
 20
317.7567858491108836
 30
0.0
 11
7259.1468074289159631
 21
318.2283820843101125
 31
0.0
  0
LINE
  5
35A92
  8
0
 10
7259.2543148067206857
 20
318.0388043642614093
 30
0.0
 11
7259.2188970400820835
 21
318.0811743781757173
 31
0.0
  0
LINE
  5
35A93
  8
0
 10
7259.2188970400820835
 20
318.0811743781757173
 30
0.0
 11
7259.5623135467303655
 21
317.7919456749730784
 31
0.0
  0
LINE
  5
35A94
  8
0
 10
7259.595134159337249
 20
317.7730774351762761
 30
0.0
 11
7259.5551772718390566
 21
317.7960482475700132
 31
0.0
  0
LINE
  5
35A95
  8
0
 10
7259.5508227967866333
 20
317.7909151169750999
 30
0.0
 11
7259.2543148067206857
 21
318.0388043642614093
 31
0.0
  0
ARC
  5
35A96
  8
0
 10
7259.9461285361740011
 20
318.448615716966799
 30
0.0
 40
0.9582098845290506
 50
90.5380608923704671
 51
102.3234817754660071
  0
LINE
  5
35A97
  8
0
 10
7259.7416170385904479
 20
319.3847467068208061
 30
0.0
 11
7259.7309824301883054
 21
319.3814418150683991
 31
0.0
  0
LINE
  5
35A98
  8
0
 10
7259.6126690869186859
 20
319.3437752389002071
 30
0.0
 11
7259.6025659846245617
 21
319.3382677035530151
 31
0.0
  0
LINE
  5
35A99
  8
0
 10
7259.4913327429667333
 20
319.2827250646441257
 30
0.0
 11
7259.4820394004373156
 21
319.2750222930147856
 31
0.0
  0
LINE
  5
35A9A
  8
0
 10
7259.3805563143423569
 20
319.2027352169963024
 30
0.0
 11
7259.3723671350280711
 21
319.1928399307287236
 31
0.0
  0
LINE
  5
35A9B
  8
0
 10
7259.8603005638206014
 20
317.7078788536621801
 30
0.0
 11
7259.8670204078453025
 21
317.7061541609631945
 31
0.0
  0
LINE
  5
35A9C
  8
0
 10
7259.8779532783801187
 20
317.7063369637642154
 30
0.0
 11
7259.8842196020559641
 21
317.7050441018748757
 31
0.0
  0
LINE
  5
35A9D
  8
0
 10
7259.8946886240782987
 20
317.7052113050397111
 30
0.0
 11
7259.9006372325748089
 21
317.7043117153713183
 31
0.0
  0
LINE
  5
35A9E
  8
0
 10
7259.9107996457796617
 20
317.7044361600317188
 30
0.0
 11
7259.9165453166388033
 21
317.703905561409897
 31
0.0
  0
LINE
  5
35A9F
  8
0
 10
7259.9265323253439419
 20
317.7039714692976986
 30
0.0
 11
7259.9321791931279222
 21
317.7037961605548162
 31
0.0
  0
ARC
  5
35AA0
  8
0
 10
7259.9858812485181261
 20
318.3761383252988821
 30
0.0
 40
1.037115477721005
 50
104.2277388453432962
 51
111.0913488634167976
  0
ARC
  5
35AA1
  8
0
 10
7260.0080835292556003
 20
318.3869996062790051
 30
0.0
 40
1.034096451930387
 50
113.088141472171003
 51
119.9809722154407012
  0
ARC
  5
35AA2
  8
0
 10
7260.0261811946456874
 20
318.4037281270364019
 30
0.0
 40
1.0272506100626011
 50
121.9856571974641071
 51
128.9393891517636916
  0
ARC
  5
35AA3
  8
0
 10
7260.0397210963210455
 20
318.4237782836548831
 30
0.0
 40
1.01824217485574
 50
130.9498410047739014
 51
137.9883825198110117
  0
ARC
  5
35AA4
  8
0
 10
7260.0472517327252717
 20
318.4464824758302939
 30
0.0
 40
1.00619767689837
 50
140.0057456269748002
 51
147.1642924509864088
  0
ARC
  5
35AA5
  8
0
 10
7260.0497479212081089
 20
318.4692742619188266
 30
0.0
 40
0.992979625512263
 50
149.1971453170307882
 51
156.5063558595442998
  0
ARC
  5
35AA6
  8
0
 10
7260.0487508534652079
 20
318.4906524360021081
 30
0.0
 40
0.9800916447961657
 50
158.5827470198229889
 51
166.0755672597099135
  0
ARC
  5
35AA7
  8
0
 10
7259.9926091112947688
 20
318.5176129313733213
 30
0.0
 40
0.9150261193687621
 50
168.0212812403615033
 51
176.1994443431910042
  0
ARC
  5
35AA8
  8
0
 10
7260.0216086451337105
 20
318.5278333978735077
 30
0.0
 40
0.9388125407503745
 50
178.2425575118153063
 51
186.46896645220599
  0
ARC
  5
35AA9
  8
0
 10
7259.9949109496019446
 20
318.5374798646819272
 30
0.0
 40
0.9084651445083524
 50
188.8855265277119884
 51
197.9091418582038102
  0
ARC
  5
35AAA
  8
0
 10
7259.9608774950102088
 20
318.5357877584049788
 30
0.0
 40
0.8701771779218773
 50
200.6873259515168115
 51
211.4959113951356073
  0
ARC
  5
35AAB
  8
0
 10
7259.8638336421972781
 20
318.4665928723512138
 30
0.0
 40
0.7446584575861328
 50
215.0629534352023029
 51
245.1438509614297061
  0
ARC
  5
35AAC
  8
0
 10
7259.8269701438512129
 20
318.4085578035961817
 30
0.0
 40
0.6764489798663482
 50
249.9570162645294999
 51
254.4762837812602072
  0
LINE
  5
35AAD
  8
0
 10
7259.6687020438876061
 20
317.7452827956788042
 30
0.0
 11
7259.6999501659229281
 21
317.7389626807391778
 31
0.0
  0
LINE
  5
35AAE
  8
0
 10
7259.7164219090027473
 20
317.7312801486119724
 30
0.0
 11
7259.7394564385267586
 21
317.7283676618682193
 31
0.0
  0
LINE
  5
35AAF
  8
0
 10
7259.7525002953434523
 20
317.7226795826015859
 30
0.0
 11
7259.7710181521388222
 21
317.7213138553969998
 31
0.0
  0
LINE
  5
35AB0
  8
0
 10
7259.7818492049573251
 20
317.7169047969059079
 30
0.0
 11
7259.7975554039130657
 21
317.7163265982655957
 31
0.0
  0
LINE
  5
35AB1
  8
0
 10
7259.8068443211532212
 20
317.7128327627763156
 30
0.0
 11
7259.8206738319795477
 21
317.7126715716105991
 31
0.0
  0
LINE
  5
35AB2
  8
0
 10
7259.8288424476459113
 20
317.7098832551643
 30
0.0
 11
7259.8413665578636937
 21
317.7099382377355141
 31
0.0
  0
LINE
  5
35AB3
  8
0
 10
7259.84870447600224
 20
317.7077243760900274
 30
0.0
 11
7259.8603005638206014
 21
317.7078788536621801
 31
0.0
  0
LINE
  5
35AB4
  8
0
 10
7259.8670204078453025
 20
317.7061541609631945
 30
0.0
 11
7259.8779532783801187
 21
317.7063369637642154
 31
0.0
  0
LINE
  5
35AB5
  8
0
 10
7259.8842196020559641
 20
317.7050441018748757
 30
0.0
 11
7259.8946886240782987
 21
317.7052113050397111
 31
0.0
  0
LINE
  5
35AB6
  8
0
 10
7259.9006372325748089
 20
317.7043117153713183
 30
0.0
 11
7259.9107996457796617
 21
317.7044361600317188
 31
0.0
  0
LINE
  5
35AB7
  8
0
 10
7259.9165453166388033
 20
317.703905561409897
 30
0.0
 11
7259.9265323253439419
 21
317.7039714692976986
 31
0.0
  0
ARC
  5
35AB8
  8
0
 10
7259.9132870356979765
 20
319.4080904061204933
 30
0.0
 40
0.03834117920714
 50
164.7164132633691906
 51
185.8346210405925945
  0
ARC
  5
35AB9
  8
0
 10
7259.8292285415764127
 20
319.4019069879400945
 30
0.0
 40
0.0350397869892921
 50
2.3112638950793949
 51
25.0750983731977293
  0
ARC
  5
35ABA
  8
0
 10
7259.7772583323394429
 20
319.3937464954155985
 30
0.0
 40
0.0367600056431649
 50
174.1271532617199114
 51
194.1715245061919859
  0
ARC
  5
35ABB
  8
0
 10
7259.6956599116692814
 20
319.3740622088590158
 30
0.0
 40
0.0360851618024418
 50
11.8005402975743703
 51
33.2891501810543886
  0
ARC
  5
35ABC
  8
0
 10
7259.6548634686841979
 20
319.360723196913284
 30
0.0
 40
0.0454708602659793
 50
185.9641355153555082
 51
201.8835449210168917
  0
ARC
  5
35ABD
  8
0
 10
7259.5600237349381132
 20
319.320947104456593
 30
0.0
 40
0.0459330617468921
 50
22.1531437282737009
 51
39.3277608425421974
  0
ARC
  5
35ABE
  8
0
 10
7259.5244134458653207
 20
319.303128387826689
 30
0.0
 40
0.0388668046182388
 50
193.5085661848542884
 51
211.6652135169769053
  0
ARC
  5
35ABF
  8
0
 10
7259.4458721356841124
 20
319.253841001307876
 30
0.0
 40
0.0419132217571899
 50
30.3552940055240192
 51
49.5299069232299587
  0
ARC
  5
35AC0
  8
0
 10
7259.4086182804867349
 20
319.2271206225286733
 30
0.0
 40
0.0371769007167652
 50
202.3783800414950065
 51
220.9901256134743903
  0
ARC
  5
35AC1
  8
0
 10
7259.3397210620960323
 20
319.1663495142632883
 30
0.0
 40
0.0420417440445005
 50
39.0573490027834822
 51
58.424365312407069
  0
ARC
  5
35AC2
  8
0
 10
7259.3084008012037884
 20
319.1351957250237774
 30
0.0
 40
0.0391514072264438
 50
212.2852578404418011
 51
229.8529268571749071
  0
ARC
  5
35AC3
  8
0
 10
7259.2438698110909172
 20
319.0556839721983238
 30
0.0
 40
0.0496343265287472
 50
49.0582801755931115
 51
65.8611038213817324
  0
ARC
  5
35AC4
  8
0
 10
7259.2234860799781018
 20
319.0279996478085991
 30
0.0
 40
0.0419546978569934
 50
223.034641170108614
 51
238.9005512614089923
  0
ARC
  5
35AC5
  8
0
 10
7259.165352485699259
 20
318.9255743409722186
 30
0.0
 40
0.0609552480638875
 50
58.8937697375276485
 51
72.5472794636267224
  0
ARC
  5
35AC6
  8
0
 10
7259.1567209521517725
 20
318.9088244522424134
 30
0.0
 40
0.047126989857071
 50
234.1433351261528912
 51
248.0198819283320972
  0
ARC
  5
35AC7
  8
0
 10
7259.1131585177990928
 20
318.7907312049915731
 30
0.0
 40
0.0622828848573293
 50
68.1502780939296571
 51
81.73587495229323
  0
ARC
  5
35AC8
  8
0
 10
7259.109116616641586
 20
318.7786512119465101
 30
0.0
 40
0.0534344760373771
 50
245.2519533324210954
 51
257.3999796791417793
  0
ARC
  5
35AC9
  8
0
 10
7259.0836198826009422
 20
318.6430507082814074
 30
0.0
 40
0.06595320531981
 50
77.8440124149405648
 51
90.8490568076316833
  0
ARC
  5
35ACA
  8
0
 10
7259.0816140897495643
 20
318.6308065537210155
 30
0.0
 40
0.052581186993092
 50
255.6289162781696973
 51
267.7996519628475198
  0
ARC
  5
35ACB
  8
0
 10
7259.0807679309900777
 20
318.4817302297660149
 30
0.0
 40
0.0749357093303355
 50
88.1112691789867171
 51
99.7696408954352165
  0
ARC
  5
35ACC
  8
0
 10
7259.0794766236867872
 20
318.4879031886218854
 30
0.0
 40
0.0664942720650817
 50
268.8944383290240125
 51
278.037123819369981
  0
ARC
  5
35ACD
  8
0
 10
7259.1121059688857713
 20
318.3053530368393922
 30
0.0
 40
0.0929831406709471
 50
99.1321793902120589
 51
108.3283249006996982
  0
ARC
  5
35ACE
  8
0
 10
7259.0826824874266094
 20
318.4092783304924978
 30
0.0
 40
0.1585316344064649
 50
283.5748583203259159
 51
287.5421807326644057
  0
ARC
  5
35ACF
  8
0
 10
7259.1915619260053063
 20
318.1131615065256142
 30
0.0
 40
0.1236072269515534
 50
111.2273904830849034
 51
118.4151719394555045
  0
ARC
  5
35AD0
  8
0
 10
7259.1285920698783229
 20
318.225675308667121
 30
0.0
 40
0.1703980826081401
 50
298.4937038710854722
 51
302.0030703648964163
  0
ARC
  5
35AD1
  8
0
 10
7259.3885982273814079
 20
317.8563702386668979
 30
0.0
 40
0.2265264824378994
 50
126.3554932562171018
 51
130.2185159465863933
  0
ARC
  5
35AD2
  8
0
 10
7259.3139326623786474
 20
317.9146858371631765
 30
0.0
 40
0.2688379423726494
 50
330.596263540993391
 51
333.813285461925318
  0
ARC
  5
35AD3
  8
0
 10
7259.7505688270812243
 20
317.7061564380115897
 30
0.0
 40
0.1692287085510868
 50
156.7061403364639034
 51
160.4960011883256925
  0
ARC
  5
35AD4
  8
0
 10
7259.5470101328601231
 20
317.7882774384771096
 30
0.0
 40
0.1038090051326237
 50
334.1339597067956788
 51
342.3404233639747076
  0
ARC
  5
35AD5
  8
0
 10
7259.7702796935318474
 20
317.7118002655503233
 30
0.0
 40
0.106953722380558
 50
161.7564894441024137
 51
167.8898253396793052
  0
ARC
  5
35AD6
  8
0
 10
7259.5793400107959314
 20
317.772170142872028
 30
0.0
 40
0.1250981417155888
 50
337.8995139764945748
 51
344.6062302167503049
  0
ARC
  5
35AD7
  8
0
 10
7259.8138151554776414
 20
317.705548911050812
 30
0.0
 40
0.1007350040720797
 50
165.2006423610050092
 51
171.8267754284950968
  0
ARC
  5
35AD8
  8
0
 10
7259.6348109064729215
 20
317.7516900761327179
 30
0.0
 40
0.1072129767613342
 50
339.7098898802846065
 51
347.4357951360560719
  0
ARC
  5
35AD9
  8
0
 10
7259.8369502858940905
 20
317.7039688038602776
 30
0.0
 40
0.086497943011442
 50
167.5073292495260944
 51
175.3420264449941044
  0
ARC
  5
35ADA
  8
0
 10
7259.6757862791018852
 20
317.7387352773981775
 30
0.0
 40
0.0968122698147801
 50
341.1799290345924192
 51
349.6331200209202734
  0
ARC
  5
35ADB
  8
0
 10
7259.866468093576259
 20
317.701337664239702
 30
0.0
 40
0.0860388977770959
 50
169.5759878541308012
 51
177.5573676380437007
  0
ARC
  5
35ADC
  8
0
 10
7259.7039042167452862
 20
317.7306657122646243
 30
0.0
 40
0.0947425725231008
 50
342.7546035751481099
 51
351.2949375333902253
  0
ARC
  5
35ADD
  8
0
 10
7259.8847968674881486
 20
317.7007131447834922
 30
0.0
 40
0.0788890652790963
 50
171.1627308039257116
 51
179.9819696652390064
  0
ARC
  5
35ADE
  8
0
 10
7259.7310140176568893
 20
317.7238667551129083
 30
0.0
 40
0.0903560426201818
 50
344.0205189586375241
 51
352.882718766512312
  0
ARC
  5
35ADF
  8
0
 10
7259.8726281620820373
 20
317.702026136475979
 30
0.0
 40
0.0444850885450693
 50
169.8268416601833906
 51
185.7078087763821941
  0
ARC
  5
35AE0
  8
0
 10
7259.7510439479074194
 20
317.7191927017403259
 30
0.0
 40
0.0907954788171045
 50
345.4172643250449255
 51
354.1498831295701848
  0
ARC
  5
35AE1
  8
0
 10
7259.9319324342859545
 20
317.6990550405255931
 30
0.0
 40
0.0836782553541508
 50
174.0533027248471001
 51
182.5663546127319137
  0
ARC
  5
35AE2
  8
0
 10
7259.7769359954372703
 20
317.7144282425027768
 30
0.0
 40
0.0836214431607351
 50
346.1104433624647072
 51
355.5078860097158895
  0
ARC
  5
35AE3
  8
0
 10
7259.9429212971663219
 20
317.6995621586794982
 30
0.0
 40
0.0761866096742089
 50
175.0363092436946033
 51
184.4213766412854056
  0
ARC
  5
35AE4
  8
0
 10
7259.7989049061234255
 20
317.7108861347314814
 30
0.0
 40
0.0791791646393858
 50
346.9797955214634726
 51
356.7063063825655149
  0
ARC
  5
35AE5
  8
0
 10
7259.9567137761450795
 20
317.7000430223087051
 30
0.0
 40
0.0726664714563923
 50
176.0536485272347136
 51
186.0327743073436011
  0
ARC
  5
35AE6
  8
0
 10
7259.8179277002036542
 20
317.7081229843172991
 30
0.0
 40
0.0768161266269125
 50
347.7819170448858017
 51
357.8277099447847149
  0
ARC
  5
35AE7
  8
0
 10
7259.9719816987790182
 20
317.7006382707788816
 30
0.0
 40
0.0714389743280898
 50
177.0525090044912133
 51
187.7637612366276869
  0
ARC
  5
35AE8
  8
0
 10
7259.8334774794184341
 20
317.7060480909369744
 30
0.0
 40
0.0773389664543126
 50
348.2099439103467944
 51
358.8057310562430757
  0
ARC
  5
35AE9
  8
0
 10
7259.9874508845077798
 20
317.7014764730270144
 30
0.0
 40
0.0709471636164547
 50
178.0379241248830908
 51
189.4968177792617041
  0
ARC
  5
35AEA
  8
0
 10
7259.8457469024369857
 20
317.704530761133924
 30
0.0
 40
0.0807873589223894
 50
349.3302536745658244
 51
359.6033374758367245
  0
ARC
  5
35AEB
  8
0
 10
7260.0178783828623637
 20
317.7031896003135216
 30
0.0
 40
0.0857013362579062
 50
179.5944796952398121
 51
189.2747006315047997
  0
ARC
  5
35AEC
  8
0
 10
7259.912047651661851
 20
318.4564268604170252
 30
0.0
 40
0.9655769339679769
 50
84.438390877285002
 51
88.5114755936483562
  0
ARC
  5
35AED
  8
0
 10
7259.9206252441481411
 20
318.4459851150701866
 30
0.0
 40
0.9751849740402565
 50
78.0387820771153145
 51
84.9994504119755447
  0
ARC
  5
35AEE
  8
0
 10
7259.9216289656405934
 20
318.4996064626740235
 30
0.0
 40
0.9225754543822903
 50
68.4970055349944431
 51
77.4095876575127306
  0
ARC
  5
35AEF
  8
0
 10
7259.9178943308497765
 20
318.5143598018311195
 30
0.0
 40
0.9102612407901769
 50
57.2700664692126793
 51
67.9378916426307029
  0
ARC
  5
35AF0
  8
0
 10
7259.9153371088796121
 20
318.5232576027552227
 30
0.0
 40
0.9041855999679027
 50
47.6293199002790715
 51
56.828894704146613
  0
ARC
  5
35AF1
  8
0
 10
7259.8700477637630684
 20
318.4854266365586
 30
0.0
 40
0.9626896714930969
 50
40.3641959132542709
 51
47.1552923026500395
  0
ARC
  5
35AF2
  8
0
 10
7259.9305989417589444
 20
318.5479996693877069
 30
0.0
 40
0.8760689362386713
 50
25.6132155862206012
 51
39.8107971592833678
  0
ARC
  5
35AF3
  8
0
 10
7259.9376894923252621
 20
318.5504169420934204
 30
0.0
 40
0.8686306333742333
 50
12.1362133906874998
 51
25.6716218879956593
  0
ARC
  5
35AF4
  8
0
 10
7259.8964062672412183
 20
318.546030589358395
 30
0.0
 40
0.9099239672308371
 50
2.585569703697784
 51
11.8597262837751298
  0
ARC
  5
35AF5
  8
0
 10
7260.0024477057331751
 20
318.5508191409454071
 30
0.0
 40
0.8037744646240009
 50
355.2135555508180005
 51
2.585569703697784
  0
ARC
  5
35AF6
  8
0
 10
7259.8802097382967986
 20
318.5610546263559968
 30
0.0
 40
0.9264402130811262
 50
344.6726688485757109
 51
355.2135555508180005
  0
ARC
  5
35AF7
  8
0
 10
7259.9905361143928531
 20
318.5308161714414723
 30
0.0
 40
0.8120449622256529
 50
334.338517822022709
 51
344.6726688485757109
  0
ARC
  5
35AF8
  8
0
 10
7259.8977972383554516
 20
318.5753716180855122
 30
0.0
 40
0.9149317298611688
 50
321.6381896548990085
 51
334.338517822022709
  0
ARC
  5
35AF9
  8
0
 10
7260.0402774959884482
 20
318.4484916557237284
 30
0.0
 40
0.7245514259161898
 50
293.2483958040297125
 51
322.5128390955226791
  0
ARC
  5
35AFA
  8
0
 10
7259.9367229690642489
 20
318.5605575936472178
 30
0.0
 40
0.86988384394313
 50
289.8408591245735124
 51
296.6036622410035193
  0
ARC
  5
35AFB
  8
0
 10
7259.9377398842825642
 20
318.5577393105658075
 30
0.0
 40
0.8668877070821579
 50
281.3897412962896283
 51
289.8408591245735124
  0
ARC
  5
35AFC
  8
0
 10
7259.9360429207308698
 20
318.5661630959644981
 30
0.0
 40
0.8754807185299702
 50
275.0214508345306967
 51
281.3897412962896283
  0
ARC
  5
35AFD
  8
0
 10
7261.4933532788072625
 20
297.1145564402610262
 30
0.0
 40
20.6326842814002909
 50
94.1153027001579119
 51
94.2645976769815093
  0
ARC
  5
35AFE
  8
0
 10
7259.9253706129438797
 20
318.2946834252613826
 30
0.0
 40
0.605506604187265
 50
271.1114904777579113
 51
273.1889169741970136
  0
LINE
  5
35AFF
  8
0
 10
7259.9420811718910045
 20
317.7037961605548162
 30
0.0
 11
7259.9991158806633393
 21
319.4041927401295879
 31
0.0
  0
LINE
  5
35B00
  8
0
 10
7260.0100205418029873
 20
319.4033200803689851
 30
0.0
 11
7259.9477280396758943
 21
317.7039714692976986
 31
0.0
  0
LINE
  5
35B01
  8
0
 10
7259.9577150483810328
 20
317.703905561409897
 30
0.0
 11
7260.1326433264293883
 21
319.3847467068208061
 31
0.0
  0
LINE
  5
35B02
  8
0
 10
7260.1432779348306212
 20
319.3814418150683991
 30
0.0
 11
7259.9635681409363315
 21
317.7044348445905939
 31
0.0
  0
LINE
  5
35B03
  8
0
 10
7259.9736231324450273
 20
317.7043117153713183
 30
0.0
 11
7260.2615912781011502
 21
319.3437752389002071
 31
0.0
  0
LINE
  5
35B04
  8
0
 10
7260.271694380394365
 20
319.3382677035530151
 30
0.0
 11
7259.9795717409424469
 21
317.7052113050397111
 31
0.0
  0
LINE
  5
35B05
  8
0
 10
7259.9900407629638721
 20
317.7050441018748757
 30
0.0
 11
7260.3829276220531028
 21
319.2827250646441257
 31
0.0
  0
LINE
  5
35B06
  8
0
 10
7260.39222096458343
 20
319.2750222930147856
 30
0.0
 11
7259.996307086638808
 21
317.7063369637642154
 31
0.0
  0
LINE
  5
35B07
  8
0
 10
7260.0072399571736241
 20
317.7061541609631945
 30
0.0
 11
7260.4937040506783887
 21
319.2027352169963024
 31
0.0
  0
LINE
  5
35B08
  8
0
 10
7260.5018932299917651
 20
319.1928399307287236
 30
0.0
 11
7260.0139598011983253
 21
317.7078788536621801
 31
0.0
  0
LINE
  5
35B09
  8
0
 10
7260.0328938071561424
 20
317.7099382377355141
 30
0.0
 11
7260.0255558890175962
 21
317.7077243760900274
 31
0.0
  0
LINE
  5
35B0A
  8
0
 10
7260.0256727459782269
 20
317.7077228193771248
 30
0.0
 11
7260.5911025063451234
 21
319.1052687047878749
 31
0.0
  0
LINE
  5
35B0B
  8
0
 10
7260.5911025063451234
 20
319.1052687047878749
 30
0.0
 11
7260.5978656257930197
 21
319.0931765770652078
 31
0.0
  0
LINE
  5
35B0C
  8
0
 10
7260.5978656257930197
 20
319.0931765770652078
 30
0.0
 11
7260.0329323237156132
 21
317.7099380686424865
 31
0.0
  0
LINE
  5
35B0D
  8
0
 10
7260.0535865330402885
 20
317.7126715716105991
 30
0.0
 11
7260.0454179173739249
 21
317.7098832551643
 31
0.0
  0
LINE
  5
35B0E
  8
0
 10
7260.0454564339343051
 20
317.7098830860712724
 30
0.0
 11
7260.672444939145862
 21
318.9920750124870779
 31
0.0
  0
LINE
  5
35B0F
  8
0
 10
7260.672444939145862
 20
318.9920750124870779
 30
0.0
 11
7260.6774167868143195
 21
318.9777648895343987
 31
0.0
  0
LINE
  5
35B10
  8
0
 10
7260.6774167868143195
 20
318.9777648895343987
 30
0.0
 11
7260.0535865330402885
 21
317.7126715716105991
 31
0.0
  0
LINE
  5
35B11
  8
0
 10
7260.735178330412964
 20
318.865122944707025
 30
0.0
 11
7260.0674160438666149
 21
317.7128327627763156
 31
0.0
  0
LINE
  5
35B12
  8
0
 10
7260.0674160438666149
 20
317.7128327627763156
 30
0.0
 11
7260.0767049611067705
 21
317.7163265982655957
 31
0.0
  0
LINE
  5
35B13
  8
0
 10
7260.0767049611067705
 20
317.7163265982655957
 30
0.0
 11
7260.7379218113510433
 21
318.8485398867197205
 31
0.0
  0
LINE
  5
35B14
  8
0
 10
7260.7379218113510433
 20
318.8485398867197205
 30
0.0
 11
7260.735178330412964
 21
318.865122944707025
 31
0.0
  0
LINE
  5
35B15
  8
0
 10
7260.7767524573810078
 20
318.7075251067082036
 30
0.0
 11
7260.7768001366775934
 21
318.7265036152502944
 31
0.0
  0
LINE
  5
35B16
  8
0
 10
7260.7768001366775934
 20
318.7265036152502944
 30
0.0
 11
7260.0924111600634205
 21
317.7169047969059079
 31
0.0
  0
LINE
  5
35B17
  8
0
 10
7260.0924111600634205
 20
317.7169047969059079
 30
0.0
 11
7260.103242212879195
 21
317.7213138553969998
 31
0.0
  0
LINE
  5
35B18
  8
0
 10
7260.103242212879195
 20
317.7213138553969998
 30
0.0
 11
7260.7767524573810078
 21
318.7075251067082036
 31
0.0
  0
LINE
  5
35B19
  8
0
 10
7260.791022657839676
 20
318.5566252278526918
 30
0.0
 11
7260.794665071001873
 21
318.5782641357200191
 31
0.0
  0
LINE
  5
35B1A
  8
0
 10
7260.794665071001873
 20
318.5782641357200191
 30
0.0
 11
7260.1217600696772934
 21
317.7226795826015859
 31
0.0
  0
LINE
  5
35B1B
  8
0
 10
7260.1217600696772934
 20
317.7226795826015859
 30
0.0
 11
7260.1348039264921681
 21
317.7283676618682193
 31
0.0
  0
LINE
  5
35B1C
  8
0
 10
7260.1348039264921681
 20
317.7283676618682193
 30
0.0
 11
7260.791022657839676
 21
318.5566252278526918
 31
0.0
  0
LINE
  5
35B1D
  8
0
 10
7260.7769119930508168
 20
318.3971575998103276
 30
0.0
 11
7260.785486864701852
 21
318.4220620441724918
 31
0.0
  0
LINE
  5
35B1E
  8
0
 10
7260.785486864701852
 20
318.4220620441724918
 30
0.0
 11
7260.1578384560170889
 21
317.7312801486119724
 31
0.0
  0
LINE
  5
35B1F
  8
0
 10
7260.1578384560170889
 20
317.7312801486119724
 30
0.0
 11
7260.174310199096908
 21
317.7389626807391778
 31
0.0
  0
LINE
  5
35B20
  8
0
 10
7260.174310199096908
 20
317.7389626807391778
 30
0.0
 11
7260.7769119930508168
 21
318.3971575998103276
 31
0.0
  0
LINE
  5
35B21
  8
0
 10
7260.7274529361029636
 20
318.2283820843101125
 30
0.0
 11
7260.7437952005102488
 21
318.2581191598198984
 31
0.0
  0
LINE
  5
35B22
  8
0
 10
7260.7437952005102488
 20
318.2581191598198984
 30
0.0
 11
7260.20555832113223
 21
317.7452827956788042
 31
0.0
  0
LINE
  5
35B23
  8
0
 10
7260.20555832113223
 20
317.7452827956788042
 30
0.0
 11
7260.2283331489743432
 21
317.7567858491108836
 31
0.0
  0
LINE
  5
35B24
  8
0
 10
7260.2283331489743432
 20
317.7567858491108836
 30
0.0
 11
7260.7274529361029636
 21
318.2283820843101125
 31
0.0
  0
LINE
  5
35B25
  8
0
 10
7260.6199455583000599
 20
318.0388043642614093
 30
0.0
 11
7260.6553633249368431
 21
318.0811743781757173
 31
0.0
  0
LINE
  5
35B26
  8
0
 10
7260.6553633249368431
 20
318.0811743781757173
 30
0.0
 11
7260.3190830931789606
 21
317.7960482475700132
 31
0.0
  0
LINE
  5
35B27
  8
0
 10
7260.2791262056807682
 20
317.7730774351762761
 30
0.0
 11
7260.3190830931789606
 21
317.7960482475700132
 31
0.0
  0
LINE
  5
35B28
  8
0
 10
7260.3275481826431133
 20
317.7912986663508264
 30
0.0
 11
7260.6199455583000599
 21
318.0388043642614093
 31
0.0
  0
ARC
  5
35B29
  8
0
 10
7259.9281318288458351
 20
318.448615716966799
 30
0.0
 40
0.9582098845290506
 50
77.6765182245339361
 51
89.4619391076295472
  0
LINE
  5
35B2A
  8
0
 10
7260.1326433264293883
 20
319.3847467068208061
 30
0.0
 11
7260.1432779348306212
 21
319.3814418150683991
 31
0.0
  0
LINE
  5
35B2B
  8
0
 10
7260.2615912781011502
 20
319.3437752389002071
 30
0.0
 11
7260.271694380394365
 21
319.3382677035530151
 31
0.0
  0
LINE
  5
35B2C
  8
0
 10
7260.3829276220531028
 20
319.2827250646441257
 30
0.0
 11
7260.39222096458343
 21
319.2750222930147856
 31
0.0
  0
LINE
  5
35B2D
  8
0
 10
7260.4937040506783887
 20
319.2027352169963024
 30
0.0
 11
7260.5018932299917651
 21
319.1928399307287236
 31
0.0
  0
LINE
  5
35B2E
  8
0
 10
7260.0139598011983253
 20
317.7078788536621801
 30
0.0
 11
7260.0072399571736241
 21
317.7061541609631945
 31
0.0
  0
LINE
  5
35B2F
  8
0
 10
7259.996307086638808
 20
317.7063369637642154
 30
0.0
 11
7259.9900407629638721
 21
317.7050441018748757
 31
0.0
  0
LINE
  5
35B30
  8
0
 10
7259.9795717409424469
 20
317.7052113050397111
 30
0.0
 11
7259.9736231324450273
 21
317.7043117153713183
 31
0.0
  0
LINE
  5
35B31
  8
0
 10
7259.9634607192401745
 20
317.7044361600317188
 30
0.0
 11
7259.9577150483810328
 21
317.703905561409897
 31
0.0
  0
LINE
  5
35B32
  8
0
 10
7259.9477280396758943
 20
317.7039714692976986
 30
0.0
 11
7259.9420811718910045
 21
317.7037961605548162
 31
0.0
  0
ARC
  5
35B33
  8
0
 10
7259.8883791165017101
 20
318.3761383252988821
 30
0.0
 40
1.037115477721005
 50
68.9086511365832308
 51
75.772261154656718
  0
ARC
  5
35B34
  8
0
 10
7259.8661768357633264
 20
318.3869996062790051
 30
0.0
 40
1.034096451930387
 50
60.0190277845592703
 51
66.9118585278289544
  0
ARC
  5
35B35
  8
0
 10
7259.8480791703741488
 20
318.4037281270364019
 30
0.0
 40
1.0272506100626011
 50
51.0606108482362586
 51
58.0143428025359071
  0
ARC
  5
35B36
  8
0
 10
7259.8345392686987907
 20
318.4237782836548831
 30
0.0
 40
1.01824217485574
 50
42.0116174801889883
 51
49.0501589952260417
  0
ARC
  5
35B37
  8
0
 10
7259.8270086322963834
 20
318.4464824758302939
 30
0.0
 40
1.00619767689837
 50
32.8357075490135699
 51
39.9942543730251572
  0
ARC
  5
35B38
  8
0
 10
7259.8245124438117273
 20
318.4692742619188266
 30
0.0
 40
0.992979625512263
 50
23.4936441404557215
 51
30.8028546829692296
  0
ARC
  5
35B39
  8
0
 10
7259.8255095115537188
 20
318.4906524360021081
 30
0.0
 40
0.9800916447961657
 50
13.9244327402900598
 51
21.4172529801770217
  0
ARC
  5
35B3A
  8
0
 10
7259.8816512537250674
 20
318.5176129313733213
 30
0.0
 40
0.9150261193687621
 50
3.8005556568089931
 51
11.9787187596384594
  0
ARC
  5
35B3B
  8
0
 10
7259.8526517198861256
 20
318.5278333978735077
 30
0.0
 40
0.9388125407503745
 50
353.5310335477939816
 51
1.7574424881847019
  0
ARC
  5
35B3C
  8
0
 10
7259.8793494154169821
 20
318.5374798646819272
 30
0.0
 40
0.9084651445083524
 50
342.0908581417962182
 51
351.1144734722880116
  0
ARC
  5
35B3D
  8
0
 10
7259.9133828700096274
 20
318.5357877584049788
 30
0.0
 40
0.8701771779218773
 50
328.5040886048644779
 51
339.3126740484831885
  0
ARC
  5
35B3E
  8
0
 10
7259.9942555894367615
 20
318.4815111702064883
 30
0.0
 40
0.7664706472945449
 50
295.775154519737498
 51
324.7186921684813115
  0
ARC
  5
35B3F
  8
0
 10
7260.0472902211686232
 20
318.4085578035961817
 30
0.0
 40
0.6764489798663482
 50
285.5237162187398212
 51
290.0429837354705001
  0
LINE
  5
35B40
  8
0
 10
7260.20555832113223
 20
317.7452827956788042
 30
0.0
 11
7260.174310199096908
 21
317.7389626807391778
 31
0.0
  0
LINE
  5
35B41
  8
0
 10
7260.1578384560170889
 20
317.7312801486119724
 30
0.0
 11
7260.1348039264921681
 21
317.7283676618682193
 31
0.0
  0
LINE
  5
35B42
  8
0
 10
7260.1217600696772934
 20
317.7226795826015859
 30
0.0
 11
7260.103242212879195
 21
317.7213138553969998
 31
0.0
  0
LINE
  5
35B43
  8
0
 10
7260.0924111600634205
 20
317.7169047969059079
 30
0.0
 11
7260.0767049611067705
 21
317.7163265982655957
 31
0.0
  0
LINE
  5
35B44
  8
0
 10
7260.0674160438666149
 20
317.7128327627763156
 30
0.0
 11
7260.0535865330402885
 21
317.7126715716105991
 31
0.0
  0
LINE
  5
35B45
  8
0
 10
7260.0454179173739249
 20
317.7098832551643
 30
0.0
 11
7260.0328938071561424
 21
317.7099382377355141
 31
0.0
  0
LINE
  5
35B46
  8
0
 10
7260.0255558890175962
 20
317.7077243760900274
 30
0.0
 11
7260.0139598011983253
 21
317.7078788536621801
 31
0.0
  0
LINE
  5
35B47
  8
0
 10
7260.0072399571736241
 20
317.7061541609631945
 30
0.0
 11
7259.996307086638808
 21
317.7063369637642154
 31
0.0
  0
LINE
  5
35B48
  8
0
 10
7259.9900407629638721
 20
317.7050441018748757
 30
0.0
 11
7259.9795717409424469
 21
317.7052113050397111
 31
0.0
  0
LINE
  5
35B49
  8
0
 10
7259.9736231324450273
 20
317.7043117153713183
 30
0.0
 11
7259.9634607192401745
 21
317.7044361600317188
 31
0.0
  0
LINE
  5
35B4A
  8
0
 10
7259.9577150483810328
 20
317.703905561409897
 30
0.0
 11
7259.9477280396758943
 21
317.7039714692976986
 31
0.0
  0
ARC
  5
35B4B
  8
0
 10
7259.9609733293218596
 20
319.4080904061204933
 30
0.0
 40
0.03834117920714
 50
354.1653789594042223
 51
15.2475247009552302
  0
ARC
  5
35B4C
  8
0
 10
7260.0450318234416045
 20
319.4019069879400945
 30
0.0
 40
0.0350397869892921
 50
154.9249016268022956
 51
177.6887361049205936
  0
ARC
  5
35B4D
  8
0
 10
7260.0970020326813028
 20
319.3937464954155985
 30
0.0
 40
0.0367600056431649
 50
345.828475493804774
 51
5.8728467382800247
  0
ARC
  5
35B4E
  8
0
 10
7260.1786004533496452
 20
319.3740622088590158
 30
0.0
 40
0.0360851618024418
 50
146.7108498189456043
 51
168.1994597024255995
  0
ARC
  5
35B4F
  8
0
 10
7260.2193968963356383
 20
319.360723196913284
 30
0.0
 40
0.0454708602659793
 50
338.1164550789831083
 51
354.0358644846444918
  0
ARC
  5
35B50
  8
0
 10
7260.3142366300808135
 20
319.320947104456593
 30
0.0
 40
0.0459330617468921
 50
140.6722391574577955
 51
157.8468562717262955
  0
ARC
  5
35B51
  8
0
 10
7260.349846919153606
 20
319.303128387826689
 30
0.0
 40
0.0388668046182388
 50
328.3347864830230947
 51
346.4914338151456263
  0
ARC
  5
35B52
  8
0
 10
7260.4283882293348142
 20
319.253841001307876
 30
0.0
 40
0.0419132217571899
 50
130.4700930767700129
 51
149.6447059944759133
  0
ARC
  5
35B53
  8
0
 10
7260.4656420845331013
 20
319.2271206225286733
 30
0.0
 40
0.0371769007167652
 50
319.009874386525496
 51
337.6216199585019808
  0
ARC
  5
35B54
  8
0
 10
7260.5345393029228944
 20
319.1663495142632883
 30
0.0
 40
0.0420417440445005
 50
121.5756346875928955
 51
140.9426509972165036
  0
ARC
  5
35B55
  8
0
 10
7260.5658595638151382
 20
319.1351957250237774
 30
0.0
 40
0.0391514072264438
 50
310.1470731428252066
 51
327.7147421595582273
  0
ARC
  5
35B56
  8
0
 10
7260.630390553928919
 20
319.0556839721983238
 30
0.0
 40
0.0496343265287472
 50
114.1388961786181966
 51
130.941719824406789
  0
ARC
  5
35B57
  8
0
 10
7260.6507742850426439
 20
319.0279996478085991
 30
0.0
 40
0.0419546978569934
 50
301.0994487385892739
 51
316.965358829891386
  0
ARC
  5
35B58
  8
0
 10
7260.7089078793205772
 20
318.9255743409722186
 30
0.0
 40
0.0609552480638875
 50
107.4527205363732065
 51
121.1062302624722946
  0
ARC
  5
35B59
  8
0
 10
7260.7175394128689732
 20
318.9088244522424134
 30
0.0
 40
0.047126989857071
 50
291.9801180716679028
 51
305.8566648738470803
  0
ARC
  5
35B5A
  8
0
 10
7260.7611018472207434
 20
318.7907312049915731
 30
0.0
 40
0.0622828848573293
 50
98.2641250477067842
 51
111.8497219060703003
  0
ARC
  5
35B5B
  8
0
 10
7260.7651437483782502
 20
318.7786512119465101
 30
0.0
 40
0.0534344760373771
 50
282.6000203208582207
 51
294.7480466675788762
  0
ARC
  5
35B5C
  8
0
 10
7260.790640482418894
 20
318.6430507082814074
 30
0.0
 40
0.06595320531981
 50
89.1509431923683024
 51
102.1559875850594068
  0
ARC
  5
35B5D
  8
0
 10
7260.7926462752702719
 20
318.6308065537210155
 30
0.0
 40
0.052581186993092
 50
272.2003480371524802
 51
284.3710837218303027
  0
ARC
  5
35B5E
  8
0
 10
7260.7934924340297584
 20
318.4817302297660149
 30
0.0
 40
0.0749357093303355
 50
80.2303591045647977
 51
91.8887308210132829
  0
ARC
  5
35B5F
  8
0
 10
7260.794783741333049
 20
318.4879031886218854
 30
0.0
 40
0.0664942720650817
 50
261.962876180630019
 51
271.1055616709761011
  0
ARC
  5
35B60
  8
0
 10
7260.7621543961340649
 20
318.3053530368393922
 30
0.0
 40
0.0929831406709471
 50
71.6716750993002449
 51
80.8678206097879411
  0
ARC
  5
35B61
  8
0
 10
7260.7915778775923172
 20
318.4092783304924978
 30
0.0
 40
0.1585316344064649
 50
252.4578192673355943
 51
256.4251416796740273
  0
ARC
  5
35B62
  8
0
 10
7260.6826984390163489
 20
318.1131615065256142
 30
0.0
 40
0.1236072269515534
 50
61.5848280605445026
 51
68.7726095168665239
  0
ARC
  5
35B63
  8
0
 10
7260.7456682951406037
 20
318.225675308667121
 30
0.0
 40
0.1703980826081401
 50
237.9969296351034984
 51
241.5062961289144141
  0
ARC
  5
35B64
  8
0
 10
7260.4856621376393377
 20
317.8563702386668979
 30
0.0
 40
0.2265264824378994
 50
49.7814840534135428
 51
53.6445067437828698
  0
ARC
  5
35B65
  8
0
 10
7260.5603277026411888
 20
317.9146858371631765
 30
0.0
 40
0.2688379423726494
 50
206.1867145380745967
 51
209.4037364590066943
  0
ARC
  5
35B66
  8
0
 10
7260.1236915379386119
 20
317.7061564380115897
 30
0.0
 40
0.1692287085510868
 50
19.5039988116742897
 51
23.2938596635361002
  0
ARC
  5
35B67
  8
0
 10
7260.3272502321597131
 20
317.7882774384771096
 30
0.0
 40
0.1038090051326237
 50
197.6595766360252924
 51
205.8660402932013938
  0
ARC
  5
35B68
  8
0
 10
7260.1039806714870792
 20
317.7118002655503233
 30
0.0
 40
0.106953722380558
 50
12.1101746603206895
 51
18.2435105558976289
  0
ARC
  5
35B69
  8
0
 10
7260.2949203542229952
 20
317.772170142872028
 30
0.0
 40
0.1250981417155888
 50
195.3937697832496951
 51
202.1004860235022988
  0
ARC
  5
35B6A
  8
0
 10
7260.0604452095431043
 20
317.705548911050812
 30
0.0
 40
0.1007350040720797
 50
8.1732245715048695
 51
14.7993576389950192
  0
ARC
  5
35B6B
  8
0
 10
7260.2394494585469147
 20
317.7516900761327179
 30
0.0
 40
0.1072129767613342
 50
192.564204863943786
 51
200.2901101197122955
  0
ARC
  5
35B6C
  8
0
 10
7260.0373100791257457
 20
317.7039688038602776
 30
0.0
 40
0.086497943011442
 50
4.6579735550059089
 51
12.4926707504738808
  0
ARC
  5
35B6D
  8
0
 10
7260.198474085917951
 20
317.7387352773981775
 30
0.0
 40
0.0968122698147801
 50
190.3668799790796982
 51
198.8200709654074956
  0
ARC
  5
35B6E
  8
0
 10
7260.0077922714426677
 20
317.701337664239702
 30
0.0
 40
0.0860388977770959
 50
2.4426323619562709
 51
10.4240121458691508
  0
ARC
  5
35B6F
  8
0
 10
7260.1703561482727309
 20
317.7306657122646243
 30
0.0
 40
0.0947425725231008
 50
188.7050624666065062
 51
197.2453964248487921
  0
ARC
  5
35B70
  8
0
 10
7259.9894634975307781
 20
317.7007131447834922
 30
0.0
 40
0.0788890652790963
 50
0.0180303347609515
 51
8.837269196074315
  0
ARC
  5
35B71
  8
0
 10
7260.1432463473629468
 20
317.7238667551129083
 30
0.0
 40
0.0903560426201818
 50
187.117281233487688
 51
195.9794810413625044
  0
ARC
  5
35B72
  8
0
 10
7260.0016322029359799
 20
317.702026136475979
 30
0.0
 40
0.0444850885450693
 50
354.2921912236178059
 51
10.1731583398166094
  0
ARC
  5
35B73
  8
0
 10
7260.1232164171133263
 20
317.7191927017403259
 30
0.0
 40
0.0907954788171045
 50
185.8501168704297015
 51
194.5827356749551029
  0
ARC
  5
35B74
  8
0
 10
7259.9423279307338817
 20
317.6990550405255931
 30
0.0
 40
0.0836782553541508
 50
357.4336453872680863
 51
5.9466972751528697
  0
ARC
  5
35B75
  8
0
 10
7260.0973243695825659
 20
317.7144282425027768
 30
0.0
 40
0.0836214431607351
 50
184.4921139902841105
 51
193.8895566375352928
  0
ARC
  5
35B76
  8
0
 10
7259.9313390678544238
 20
317.6995621586794982
 30
0.0
 40
0.0761866096742089
 50
355.5530465026031948
 51
4.9636907563054429
  0
ARC
  5
35B77
  8
0
 10
7260.0753554588982297
 20
317.7108861347314814
 30
0.0
 40
0.0791791646393858
 50
183.2936936174345135
 51
193.0571396284460945
  0
ARC
  5
35B78
  8
0
 10
7259.9175465888747567
 20
317.7000430223087051
 30
0.0
 40
0.0726664714563923
 50
353.9503125882657173
 51
3.9463514727652651
  0
ARC
  5
35B79
  8
0
 10
7260.0563326648161819
 20
317.7081229843172991
 30
0.0
 40
0.0768161266269125
 50
182.1722900552153135
 51
192.2993263654302893
  0
ARC
  5
35B7A
  8
0
 10
7259.9022786662417275
 20
317.7006382707788816
 30
0.0
 40
0.0714389743280898
 50
352.3724254292403089
 51
2.9474909955087529
  0
ARC
  5
35B7B
  8
0
 10
7260.0407828856023116
 20
317.7060480909369744
 30
0.0
 40
0.0773389664543126
 50
181.1942689437535137
 51
191.5539917203188907
  0
ARC
  5
35B7C
  8
0
 10
7259.8868094805120563
 20
317.7014764730270144
 30
0.0
 40
0.0709471636164547
 50
350.686108343063097
 51
1.9620758751169041
  0
ARC
  5
35B7D
  8
0
 10
7260.028513462581941
 20
317.704530761133924
 30
0.0
 40
0.0807873589223894
 50
180.3966625241633039
 51
190.6198151567820958
  0
ARC
  5
35B7E
  8
0
 10
7259.856381982156563
 20
317.7031896003135216
 30
0.0
 40
0.0857013362579062
 50
350.7255235921239205
 51
0.4055203047634476
  0
LINE
  5
35B7F
  8
0
 10
7259.9321791931279222
 20
317.7037961605548162
 30
0.0
 11
7259.9420811718910045
 21
317.7037961605548162
 31
0.0
  0
ARC
  5
35B80
  8
0
 10
7259.959586862803917
 20
318.6099496815274961
 30
0.0
 40
0.9239238106960072
 50
220.6933407885518932
 51
243.5453927834581975
  0
LINE
  5
35B81
  8
0
 10
7259.7008957283778727
 20
313.3965582839167041
 30
0.0
 11
7259.7112290349978139
 21
313.3855266123161982
 31
0.0
  0
LINE
  5
35B82
  8
0
 10
7259.3859350984203047
 20
313.4319122697211242
 30
0.0
 11
7259.375601791733061
 21
313.4230940975307931
 31
0.0
  0
LINE
  5
35B83
  8
0
 10
7260.1733366732632931
 20
313.3965582839167041
 30
0.0
 11
7260.1630033664860093
 21
313.3855266123061938
 31
0.0
  0
LINE
  5
35B84
  8
0
 10
7260.4882973031089932
 20
313.4319122697297075
 30
0.0
 11
7260.4986306098244313
 21
313.423094097517378
 31
0.0
  0
ARC
  5
35B85
  8
0
 10
7259.9371162013212597
 20
316.921626168578598
 30
0.0
 40
3.532973776125119
 50
273.8337506907798797
 51
278.9754082165160867
  0
ARC
  5
35B86
  8
0
 10
7259.9371162008201281
 20
316.9216261723212824
 30
0.0
 40
3.532973779900193
 50
261.0245917835363798
 51
266.1662493045195106
  0
ENDSEC
  0
EOF
