  0
SECTION
  2
HEADER
  9
$ACADVER
  1
AC1009
  9
$INSBASE
 10
3576.531023343445213
 20
138.141551486317411
 30
0.0
  9
$EXTMIN
 10
3565.0039429994430975
 20
136.1925965257530891
 30
-0.0015258207003583
  9
$EXTMAX
 10
3587.9976065112659853
 20
142.9737782818218932
 30
0.0000000349246037
  9
$LIMMIN
 10
0.0
 20
0.0
  9
$LIMMAX
 10
11.6929133858000007
 20
8.2677165353999982
  9
$ORTHOMODE
 70
     0
  9
$REGENMODE
 70
     1
  9
$FILLMODE
 70
     1
  9
$QTEXTMODE
 70
     0
  9
$MIRRTEXT
 70
     0
  9
$DRAGMODE
 70
     2
  9
$LTSCALE
 40
0.6431102362
  9
$OSMODE
 70
  4095
  9
$ATTMODE
 70
     1
  9
$TEXTSIZE
 40
0.2
  9
$TRACEWID
 40
0.05
  9
$TEXTSTYLE
  7
STANDARD
  9
$CLAYER
  8
0
  9
$CELTYPE
  6
BYLAYER
  9
$CECOLOR
 62
   256
  9
$DIMSCALE
 40
1.0
  9
$DIMASZ
 40
0.1875
  9
$DIMEXO
 40
0.0625
  9
$DIMDLI
 40
0.4443307087
  9
$DIMRND
 40
0.0
  9
$DIMDLE
 40
0.0
  9
$DIMEXE
 40
0.125
  9
$DIMTP
 40
0.01
  9
$DIMTM
 40
0.01
  9
$DIMTXT
 40
2.0
  9
$DIMCEN
 40
0.1052362205
  9
$DIMTSZ
 40
0.0
  9
$DIMTOL
 70
     1
  9
$DIMLIM
 70
     0
  9
$DIMTIH
 70
     1
  9
$DIMTOH
 70
     1
  9
$DIMSE1
 70
     0
  9
$DIMSE2
 70
     0
  9
$DIMTAD
 70
     0
  9
$DIMZIN
 70
     0
  9
$DIMBLK
  1

  9
$DIMASO
 70
     1
  9
$DIMSHO
 70
     1
  9
$DIMPOST
  1
\X
  9
$DIMAPOST
  1

  9
$DIMALT
 70
     1
  9
$DIMALTD
 70
     2
  9
$DIMALTF
 40
25.3999999999999986
  9
$DIMLFAC
 40
1.0
  9
$DIMTOFL
 70
     0
  9
$DIMTVP
 40
0.0
  9
$DIMTIX
 70
     0
  9
$DIMSOXD
 70
     0
  9
$DIMSAH
 70
     0
  9
$DIMBLK1
  1

  9
$DIMBLK2
  1

  9
$DIMSTYLE
  2
STANDARD
  9
$DIMCLRD
 70
     0
  9
$DIMCLRE
 70
     0
  9
$DIMCLRT
 70
     0
  9
$DIMTFAC
 40
1.0
  9
$DIMGAP
 40
0.09
  9
$LUNITS
 70
     2
  9
$LUPREC
 70
     4
  9
$SKETCHINC
 40
0.1
  9
$FILLETRAD
 40
0.0
  9
$AUNITS
 70
     0
  9
$AUPREC
 70
     0
  9
$MENU
  1
.
  9
$ELEVATION
 40
0.0
  9
$PELEVATION
 40
0.0
  9
$THICKNESS
 40
0.0
  9
$LIMCHECK
 70
     0
  9
$BLIPMODE
 70
     0
  9
$CHAMFERA
 40
0.0
  9
$CHAMFERB
 40
0.0
  9
$SKPOLY
 70
     0
  9
$TDCREATE
 40
2458060.468368056230247
  9
$TDUPDATE
 40
2460839.6257754629477859
  9
$TDINDWG
 40
0.5217315972
  9
$TDUSRTIMER
 40
0.5217315972
  9
$USRTIMER
 70
     1
  9
$ANGBASE
 50
0.0
  9
$ANGDIR
 70
     0
  9
$PDMODE
 70
     0
  9
$PDSIZE
 40
0.3125
  9
$PLINEWID
 40
0.0
  9
$COORDS
 70
     1
  9
$SPLFRAME
 70
     0
  9
$SPLINETYPE
 70
     6
  9
$SPLINESEGS
 70
     8
  9
$ATTDIA
 70
     1
  9
$ATTREQ
 70
     1
  9
$HANDLING
 70
     1
  9
$HANDSEED
  5
13E7A
  9
$SURFTAB1
 70
     6
  9
$SURFTAB2
 70
     6
  9
$SURFTYPE
 70
     6
  9
$SURFU
 70
     6
  9
$SURFV
 70
     6
  9
$UCSNAME
  2

  9
$UCSORG
 10
0.0
 20
0.0
 30
0.0
  9
$UCSXDIR
 10
1.0
 20
0.0
 30
0.0
  9
$UCSYDIR
 10
0.0
 20
1.0
 30
0.0
  9
$PUCSNAME
  2

  9
$PUCSORG
 10
0.0
 20
0.0
 30
0.0
  9
$PUCSXDIR
 10
1.0
 20
0.0
 30
0.0
  9
$PUCSYDIR
 10
0.0
 20
1.0
 30
0.0
  9
$USERI1
 70
     0
  9
$USERI2
 70
     0
  9
$USERI3
 70
     0
  9
$USERI4
 70
     0
  9
$USERI5
 70
     0
  9
$USERR1
 40
0.0
  9
$USERR2
 40
0.0
  9
$USERR3
 40
0.0
  9
$USERR4
 40
0.0
  9
$USERR5
 40
0.0
  9
$WORLDVIEW
 70
     1
  9
$SHADEDGE
 70
     3
  9
$SHADEDIF
 70
    70
  9
$TILEMODE
 70
     1
  9
$MAXACTVP
 70
    64
  9
$PLIMCHECK
 70
     0
  9
$PEXTMIN
 10
1.0000000000000000E+20
 20
1.0000000000000000E+20
 30
1.0000000000000000E+20
  9
$PEXTMAX
 10
-1.0000000000000000E+20
 20
-1.0000000000000000E+20
 30
-1.0000000000000000E+20
  9
$PLIMMIN
 10
0.0
 20
0.0
  9
$PLIMMAX
 10
12.0
 20
9.0
  9
$UNITMODE
 70
     0
  9
$VISRETAIN
 70
     1
  9
$PLINEGEN
 70
     0
  9
$PSLTSCALE
 70
     1
  0
ENDSEC
  0
SECTION
  2
TABLES
  0
TABLE
  2
VPORT
 70
     1
  0
VPORT
  2
*ACTIVE
 70
     0
 10
0.0
 20
0.0
 11
1.0
 21
1.0
 12
443.5834163569169846
 22
-50.0650521273558695
 13
0.0
 23
0.0
 14
1.0
 24
1.0
 15
0.0
 25
0.0
 16
0.0
 26
0.0
 36
71.4061910302851857
 17
3132.9173583984370453
 27
189.6482395311433891
 37
0.0
 40
13.7249765898835996
 41
1.682022471910112
 42
50.0
 43
0.0
 44
0.0
 50
0.0
 51
0.0
 71
     0
 72
   100
 73
     1
 74
     1
 75
     0
 76
     0
 77
     0
 78
     0
  0
ENDTAB
  0
TABLE
  2
LTYPE
 70
     2
  0
LTYPE
  2
CONTINUOUS
 70
     0
  3
Solid line
 72
    65
 73
     0
 40
0.0
  0
LTYPE
  2
PHANTOM2
 70
     0
  3
___ _ _ ___ _ _ ___ _ _ ___ _ _
 72
    65
 73
     6
 40
1.25
 49
0.625
 49
-0.125
 49
0.125
 49
-0.125
 49
0.125
 49
-0.125
  0
ENDTAB
  0
TABLE
  2
LAYER
 70
     2
  0
LAYER
  2
0
 70
     0
 62
   255
  6
CONTINUOUS
  0
LAYER
  2
DEFPOINTS
 70
     0
 62
     7
  6
CONTINUOUS
  0
ENDTAB
  0
TABLE
  2
STYLE
 70
     1
  0
STYLE
  2
STANDARD
 70
     0
 40
0.0
 41
0.8
 50
0.0
 71
     0
 42
0.2
  3
txt
  4

  0
ENDTAB
  0
TABLE
  2
VIEW
 70
     0
  0
ENDTAB
  0
TABLE
  2
UCS
 70
     0
  0
ENDTAB
  0
TABLE
  2
APPID
 70
     9
  0
APPID
  2
ACAD
 70
     0
  0
APPID
  2
ACAD_MLEADERVER
 70
     0
  0
APPID
  2
ACAD_EXEMPT_FROM_CAD_STANDARDS
 70
     0
  0
APPID
  2
ACAD_NAV_VCDISPLAY
 70
     0
  0
APPID
  2
ACAECLAYERSTANDARD
 70
     0
  0
APPID
  2
ACCMTRANSPARENCY
 70
     0
  0
APPID
  2
ACAD_DSTYLE_DIMJAG
 70
     0
  0
APPID
  2
ACAD_DSTYLE_DIMTALN
 70
     0
  0
APPID
  2
ACDBATTR
 70
     0
  0
ENDTAB
  0
TABLE
  2
DIMSTYLE
 70
     1
  0
DIMSTYLE
  2
STANDARD
 70
     0
  3

  4

  5

  6

  7

 40
1.0
 41
0.1875
 42
0.0625
 43
0.38
 44
0.125
 45
0.0
 46
0.0
 47
0.01
 48
0.01
140
0.15625
141
0.09
142
0.0
143
25.3999999999999986
144
1.0
145
0.0
146
1.0
147
0.09
 71
     1
 72
     0
 73
     1
 74
     1
 75
     0
 76
     0
 77
     0
 78
     4
170
     0
171
     2
172
     0
173
     0
174
     0
175
     0
176
     0
177
     0
178
     0
  0
ENDTAB
  0
ENDSEC
  0
SECTION
  2
BLOCKS
  0
BLOCK
  8
0
  2
$MODEL_SPACE
 70
     0
 10
0.0
 20
0.0
 30
0.0
  3
$MODEL_SPACE
  1

  0
ENDBLK
  5
21
  8
0
  0
BLOCK
 67
     1
  8
0
  2
$PAPER_SPACE
 70
     0
 10
0.0
 20
0.0
 30
0.0
  3
$PAPER_SPACE
  1

  0
ENDBLK
  5
1D
 67
     1
  8
0
  0
ENDSEC
  0
SECTION
  2
ENTITIES
  0
ATTDEF
  5
3930
  8
DEFPOINTS
 10
3576.5279491772230358
 20
138.1451307283377901
 30
0.0
 40
0.001
  1
K-EX38602T
  3

  2
MODELNUMBER
 70
     0
1001
ACDBATTR
1070
     0
1070
     1
  0
ATTDEF
  5
3931
  8
DEFPOINTS
 10
3576.5279491772230358
 20
138.1434640616712102
 30
0.0
 40
0.001
  1
POETICA
  3

  2
TRADENAME
 70
     0
1001
ACDBATTR
1070
     0
1070
     1
  0
ATTDEF
  5
3932
  8
DEFPOINTS
 10
3576.5279491772230358
 20
138.1417973950044882
 30
0.0
 40
0.001
  1
BATHROOM SINK
  3

  2
PRODUCT
 70
     0
1001
ACDBATTR
1070
     0
1070
     1
  0
LINE
  5
13DDC
  8
0
 10
3587.055798211846195
 20
142.9662462506875897
 30
0.0
 11
3566.0062484750460499
 21
142.9662462506875897
 31
0.0
  0
LINE
  5
13DDD
  8
0
 10
3577.9089760993460914
 20
136.1933940353875983
 30
0.0
 11
3575.1530705875461535
 21
136.1933940353875983
 31
0.0
  0
LINE
  5
13DDE
  8
0
 10
3578.04539548638013
 20
137.7923003514243021
 30
0.0
 11
3577.9089760993460914
 21
136.1933940353875983
 31
0.0
  0
LINE
  5
13DDF
  8
0
 10
3578.1464904954718804
 20
137.8991912231971924
 30
0.0
 11
3579.8558616079458261
 21
138.1415315987875942
 31
0.0
  0
ARC
  5
13DE0
  8
0
 10
3578.1630679600971234
 20
137.7822604844388081
 30
0.0
 40
0.1181
 50
98.0691432481220886
 51
175.123309533233197
  0
LINE
  5
13DE1
  8
0
 10
3584.4505063574852102
 20
138.141551486317411
 30
0.0
 11
3568.6115403294061252
 21
138.141551486317411
 31
0.0
  0
ARC
  5
13DE2
  8
0
 10
3583.1365766482681465
 20
143.0674314840184991
 30
0.0
 40
4.9929543042197286
 50
306.926675634479011
 51
339.1602141574177836
  0
ARC
  5
13DE3
  8
0
 10
3581.9372697506628356
 20
144.6632104010182047
 30
0.0
 40
6.9891625565275843
 50
291.0750506759061977
 51
306.926675634479011
  0
ARC
  5
13DE4
  8
0
 10
3586.0575496491660488
 20
141.3776988522128875
 30
0.0
 40
1.8932174275180069
 50
22.3709517162890599
 51
51.8318877255293415
  0
ARC
  5
13DE5
  8
0
 10
3586.8274918608681219
 20
141.6945895606814929
 30
0.0
 40
1.0606126410352581
 50
337.6433280952567202
 51
22.3709517162890599
  0
ARC
  5
13DE6
  8
0
 10
3586.8414592577828444
 20
142.4012592374947985
 30
0.0
 40
0.6042776781453706
 50
50.2937057104008716
 51
69.2247722949059181
  0
ARC
  5
13DE7
  8
0
 10
3575.5934539498730373
 20
138.1688953571648142
 30
0.0
 40
2.3314538905990481
 50
326.4176788779546996
 51
359.3280054473946166
  0
ARC
  5
13DE8
  8
0
 10
3576.6104455121030696
 20
137.6164987912052879
 30
0.0
 40
1.1830910771995431
 50
266.3421095368864258
 51
321.4554592522276266
  0
LINE
  5
13DE9
  8
0
 10
3575.0166512005121149
 20
137.7923003514243021
 30
0.0
 11
3575.1530705875461535
 21
136.1933940353875983
 31
0.0
  0
LINE
  5
13DEA
  8
0
 10
3574.9155561914190002
 20
137.8991912231971924
 30
0.0
 11
3573.2061850789459641
 21
138.1415315987875942
 31
0.0
  0
ARC
  5
13DEB
  8
0
 10
3574.898978726794212
 20
137.7822604844388081
 30
0.0
 40
0.1181
 50
4.8766904667668163
 51
81.9308567518779256
  0
ARC
  5
13DEC
  8
0
 10
3569.9254700386240984
 20
143.0674314840184991
 30
0.0
 40
4.9929543042197286
 50
200.839785842582188
 51
233.073324365520989
  0
ARC
  5
13DED
  8
0
 10
3571.1247769362289546
 20
144.6632104010182047
 30
0.0
 40
6.9891625565275488
 50
233.073324365520989
 51
248.9249493325274898
  0
ARC
  5
13DEE
  8
0
 10
3567.0044970377248319
 20
141.3776988522128875
 30
0.0
 40
1.8932174275180069
 50
128.1681122744705874
 51
157.6290482837108868
  0
ARC
  5
13DEF
  8
0
 10
3566.2345548260232135
 20
141.6945895606814929
 30
0.0
 40
1.0606126410352581
 50
157.6290482837108868
 51
202.3566719047433082
  0
ARC
  5
13DF0
  8
0
 10
3566.2205874291071268
 20
142.4012592374947985
 30
0.0
 40
0.6042776781453706
 50
110.7752277050940961
 51
129.7062942895991
  0
ARC
  5
13DF1
  8
0
 10
3577.4685927370201171
 20
138.1688953571648142
 30
0.0
 40
2.3314538905990481
 50
180.6719945526054119
 51
213.5823211220453004
  0
ARC
  5
13DF2
  8
0
 10
3576.4516011747891753
 20
137.6164987912052879
 30
0.0
 40
1.1830910771995431
 50
218.5445407477724018
 51
273.6578904631135742
  0
LINE
  5
13DF4
  8
0
 10
3574.9155561914190002
 20
137.8991912231971924
 30
0.0
 11
3575.152791164322025
 21
137.8991912231971924
 31
0.0
  0
LINE
  5
13DF5
  8
0
 10
3578.1464904954718804
 20
137.8991912231971924
 30
0.0
 11
3577.9092555225702199
 21
137.8991912231971924
 31
0.0
  0
ENDSEC
  0
EOF
