  0
SECTION
  2
HEADER
  9
$ACADVER
  1
AC1009
  9
$INSBASE
 10
232.992821631681494
 20
8.9255342635352157
 30
0.0
  9
$EXTMIN
 10
231.8062433189026876
 20
8.9241230623073662
 30
-0.0015258207003583
  9
$EXTMAX
 10
234.1824419494435858
 20
20.8561557164340385
 30
0.0000000349246037
  9
$LIMMIN
 10
0.0
 20
0.0
  9
$LIMMAX
 10
11.6929133858000007
 20
8.2677165353999982
  9
$ORTHOMODE
 70
     0
  9
$REGENMODE
 70
     1
  9
$FILLMODE
 70
     1
  9
$QTEXTMODE
 70
     0
  9
$MIRRTEXT
 70
     0
  9
$DRAGMODE
 70
     2
  9
$LTSCALE
 40
0.6431102362
  9
$OSMODE
 70
  4095
  9
$ATTMODE
 70
     1
  9
$TEXTSIZE
 40
0.2
  9
$TRACEWID
 40
0.05
  9
$TEXTSTYLE
  7
STANDARD
  9
$CLAYER
  8
0
  9
$CELTYPE
  6
BYLAYER
  9
$CECOLOR
 62
   256
  9
$DIMSCALE
 40
1.0
  9
$DIMASZ
 40
0.1875
  9
$DIMEXO
 40
0.0625
  9
$DIMDLI
 40
0.4443307087
  9
$DIMRND
 40
0.0
  9
$DIMDLE
 40
0.0
  9
$DIMEXE
 40
0.125
  9
$DIMTP
 40
0.01
  9
$DIMTM
 40
0.01
  9
$DIMTXT
 40
0.15625
  9
$DIMCEN
 40
0.1052362205
  9
$DIMTSZ
 40
0.0
  9
$DIMTOL
 70
     1
  9
$DIMLIM
 70
     0
  9
$DIMTIH
 70
     1
  9
$DIMTOH
 70
     1
  9
$DIMSE1
 70
     0
  9
$DIMSE2
 70
     0
  9
$DIMTAD
 70
     0
  9
$DIMZIN
 70
     0
  9
$DIMBLK
  1

  9
$DIMASO
 70
     1
  9
$DIMSHO
 70
     1
  9
$DIMPOST
  1
\X
  9
$DIMAPOST
  1

  9
$DIMALT
 70
     1
  9
$DIMALTD
 70
     2
  9
$DIMALTF
 40
25.3999999999999986
  9
$DIMLFAC
 40
1.0
  9
$DIMTOFL
 70
     0
  9
$DIMTVP
 40
0.0
  9
$DIMTIX
 70
     0
  9
$DIMSOXD
 70
     0
  9
$DIMSAH
 70
     0
  9
$DIMBLK1
  1

  9
$DIMBLK2
  1

  9
$DIMSTYLE
  2
STANDARD
  9
$DIMCLRD
 70
     0
  9
$DIMCLRE
 70
     0
  9
$DIMCLRT
 70
     0
  9
$DIMTFAC
 40
1.0
  9
$DIMGAP
 40
0.09
  9
$LUNITS
 70
     2
  9
$LUPREC
 70
     4
  9
$SKETCHINC
 40
0.1
  9
$FILLETRAD
 40
0.0
  9
$AUNITS
 70
     0
  9
$AUPREC
 70
     0
  9
$MENU
  1
.
  9
$ELEVATION
 40
0.0
  9
$PELEVATION
 40
0.0
  9
$THICKNESS
 40
0.0
  9
$LIMCHECK
 70
     0
  9
$BLIPMODE
 70
     0
  9
$CHAMFERA
 40
0.0
  9
$CHAMFERB
 40
0.0
  9
$SKPOLY
 70
     0
  9
$TDCREATE
 40
2458018.639108797069639
  9
$TDUPDATE
 40
2460178.6284027779474854
  9
$TDINDWG
 40
0.3171291667
  9
$TDUSRTIMER
 40
0.3171291667
  9
$USRTIMER
 70
     1
  9
$ANGBASE
 50
0.0
  9
$ANGDIR
 70
     0
  9
$PDMODE
 70
     0
  9
$PDSIZE
 40
0.3125
  9
$PLINEWID
 40
0.0
  9
$COORDS
 70
     1
  9
$SPLFRAME
 70
     0
  9
$SPLINETYPE
 70
     6
  9
$SPLINESEGS
 70
     8
  9
$ATTDIA
 70
     1
  9
$ATTREQ
 70
     1
  9
$HANDLING
 70
     1
  9
$HANDSEED
  5
A07A
  9
$SURFTAB1
 70
     6
  9
$SURFTAB2
 70
     6
  9
$SURFTYPE
 70
     6
  9
$SURFU
 70
     6
  9
$SURFV
 70
     6
  9
$UCSNAME
  2

  9
$UCSORG
 10
0.0
 20
0.0
 30
0.0
  9
$UCSXDIR
 10
1.0
 20
0.0
 30
0.0
  9
$UCSYDIR
 10
0.0
 20
1.0
 30
0.0
  9
$PUCSNAME
  2

  9
$PUCSORG
 10
0.0
 20
0.0
 30
0.0
  9
$PUCSXDIR
 10
1.0
 20
0.0
 30
0.0
  9
$PUCSYDIR
 10
0.0
 20
1.0
 30
0.0
  9
$USERI1
 70
     0
  9
$USERI2
 70
     0
  9
$USERI3
 70
     0
  9
$USERI4
 70
     0
  9
$USERI5
 70
     0
  9
$USERR1
 40
0.0
  9
$USERR2
 40
0.0
  9
$USERR3
 40
0.0
  9
$USERR4
 40
0.0
  9
$USERR5
 40
0.0
  9
$WORLDVIEW
 70
     1
  9
$SHADEDGE
 70
     3
  9
$SHADEDIF
 70
    70
  9
$TILEMODE
 70
     1
  9
$MAXACTVP
 70
    64
  9
$PLIMCHECK
 70
     0
  9
$PEXTMIN
 10
1.0000000000000000E+20
 20
1.0000000000000000E+20
 30
1.0000000000000000E+20
  9
$PEXTMAX
 10
-1.0000000000000000E+20
 20
-1.0000000000000000E+20
 30
-1.0000000000000000E+20
  9
$PLIMMIN
 10
0.0
 20
0.0
  9
$PLIMMAX
 10
12.0
 20
9.0
  9
$UNITMODE
 70
     0
  9
$VISRETAIN
 70
     1
  9
$PLINEGEN
 70
     0
  9
$PSLTSCALE
 70
     1
  0
ENDSEC
  0
SECTION
  2
TABLES
  0
TABLE
  2
VPORT
 70
     1
  0
VPORT
  2
*ACTIVE
 70
     0
 10
0.0
 20
0.0
 11
1.0
 21
1.0
 12
137.6700816364354125
 22
7.8538073781478621
 13
0.0
 23
0.0
 14
1.0
 24
1.0
 15
0.0
 25
0.0
 16
-0.0000000000000142
 26
0.0
 36
39.3282560748450578
 17
95.3242609977377526
 27
7.0363320112228394
 37
0.0
 40
12.0236999984605504
 41
1.4307692307692299
 42
50.0
 43
0.0
 44
0.0
 50
0.0
 51
0.0
 71
     0
 72
   100
 73
     1
 74
     1
 75
     0
 76
     0
 77
     0
 78
     0
  0
ENDTAB
  0
TABLE
  2
LTYPE
 70
     2
  0
LTYPE
  2
CONTINUOUS
 70
     0
  3
Solid line
 72
    65
 73
     0
 40
0.0
  0
LTYPE
  2
PHANTOM2
 70
     0
  3
___ _ _ ___ _ _ ___ _ _ ___ _ _
 72
    65
 73
     6
 40
1.25
 49
0.625
 49
-0.125
 49
0.125
 49
-0.125
 49
0.125
 49
-0.125
  0
ENDTAB
  0
TABLE
  2
LAYER
 70
     2
  0
LAYER
  2
0
 70
     0
 62
   255
  6
CONTINUOUS
  0
LAYER
  2
DEFPOINTS
 70
     0
 62
     7
  6
CONTINUOUS
  0
ENDTAB
  0
TABLE
  2
STYLE
 70
     1
  0
STYLE
  2
STANDARD
 70
     0
 40
0.0
 41
0.8
 50
0.0
 71
     0
 42
0.2
  3
txt
  4

  0
ENDTAB
  0
TABLE
  2
VIEW
 70
     0
  0
ENDTAB
  0
TABLE
  2
UCS
 70
     0
  0
ENDTAB
  0
TABLE
  2
APPID
 70
    10
  0
APPID
  2
ACAD
 70
     0
  0
APPID
  2
ACAD_MLEADERVER
 70
     0
  0
APPID
  2
ACAD_DSTYLE_DIMJAG
 70
     0
  0
APPID
  2
ACAD_DSTYLE_DIMTALN
 70
     0
  0
APPID
  2
ACAD_NAV_VCDISPLAY
 70
     0
  0
APPID
  2
ACAD_EXEMPT_FROM_CAD_STANDARDS
 70
     0
  0
APPID
  2
ACAECLAYERSTANDARD
 70
     0
  0
APPID
  2
ACCMTRANSPARENCY
 70
     0
  0
APPID
  2
DCO15
 70
     0
  0
APPID
  2
ACDBATTR
 70
     0
  0
ENDTAB
  0
TABLE
  2
DIMSTYLE
 70
     1
  0
DIMSTYLE
  2
STANDARD
 70
     0
  3

  4

  5

  6

  7

 40
1.0
 41
0.1875
 42
0.0625
 43
0.38
 44
0.125
 45
0.0
 46
0.0
 47
0.01
 48
0.01
140
0.15625
141
0.09
142
0.0
143
25.3999999999999986
144
1.0
145
0.0
146
1.0
147
0.09
 71
     1
 72
     0
 73
     1
 74
     1
 75
     0
 76
     0
 77
     0
 78
     4
170
     0
171
     2
172
     0
173
     0
174
     0
175
     0
176
     0
177
     0
178
     0
  0
ENDTAB
  0
ENDSEC
  0
SECTION
  2
BLOCKS
  0
BLOCK
  8
0
  2
$MODEL_SPACE
 70
     0
 10
0.0
 20
0.0
 30
0.0
  3
$MODEL_SPACE
  1

  0
ENDBLK
  5
21
  8
0
  0
BLOCK
 67
     1
  8
0
  2
$PAPER_SPACE
 70
     0
 10
0.0
 20
0.0
 30
0.0
  3
$PAPER_SPACE
  1

  0
ENDBLK
  5
1D
 67
     1
  8
0
  0
ENDSEC
  0
SECTION
  2
ENTITIES
  0
ATTDEF
  5
7A6E
  8
DEFPOINTS
 10
232.9893956223039027
 20
8.9295166906968184
 30
0.0
 40
0.001
  1
K-EX39558T-NWS5
  3

  2
MODELNUMBER
 70
     0
1001
ACDBATTR
1070
     0
1070
     1
  0
ATTDEF
  5
7A6F
  8
DEFPOINTS
 10
232.9893956223039027
 20
8.9278500240301533
 30
0.0
 40
0.001
  1
COMPONENTS
  3

  2
TRADENAME
 70
     0
1001
ACDBATTR
1070
     0
1070
     1
  0
ATTDEF
  5
7A70
  8
DEFPOINTS
 10
232.9893956223039027
 20
8.9261833573634881
 30
0.0
 40
0.001
  1
BATHROOM SINK FAUCET
  3

  2
PRODUCT
 70
     0
1001
ACDBATTR
1070
     0
1070
     1
  0
LINE
  5
9E27
  8
0
 10
231.8215233991315074
 20
8.9255342635352157
 30
0.0
 11
234.1641198642315089
 21
8.9255342635352157
 31
0.0
  0
LINE
  5
9E28
  8
0
 10
231.8268788159676888
 20
9.0865980728335067
 30
0.0
 11
234.1587644319822061
 21
9.0865980728335067
 31
0.0
  0
LINE
  5
9E29
  8
0
 10
231.8117233991314947
 20
9.0674294290640791
 30
0.0
 11
231.8117233991314947
 21
8.9353342635352142
 31
0.0
  0
LINE
  5
9E2A
  8
0
 10
232.5006997770315138
 20
9.2601948934352158
 30
0.0
 11
232.5006997770315138
 21
20.3645581983131017
 31
0.0
  0
LINE
  5
9E2B
  8
0
 10
232.500705561865999
 20
9.2404948934352156
 30
0.0
 11
233.4849377014969889
 21
9.2404948934352156
 31
0.0
  0
LINE
  5
9E2C
  8
0
 10
231.8268788159676888
 20
9.0865980728335032
 30
0.0
 11
232.4553979250962925
 21
9.235211249862159
 31
0.0
  0
ARC
  5
9E2D
  8
0
 10
231.8314234073820046
 20
9.0674294261951083
 30
0.0
 40
0.0197000082505391
 50
103.3376878955698004
 51
179.9999916558373059
  0
ARC
  5
9E2E
  8
0
 10
231.8215233991315074
 20
8.9353342635352124
 30
0.0
 40
0.0098
 50
179.9999999999870113
 51
270.0
  0
ARC
  5
9E2F
  8
0
 10
232.500705561865999
 20
9.0435948934351718
 30
0.0
 40
0.1969
 50
90.0000000000016058
 51
103.3032423308700061
  0
ARC
  5
9E30
  8
0
 10
232.5203997770315141
 20
9.2601948934352123
 30
0.0
 40
0.0197
 50
179.9999999999947988
 51
270.0000000000097771
  0
LINE
  5
9E31
  8
0
 10
234.1739198642314932
 20
9.0674294290640791
 30
0.0
 11
234.1739198642314932
 21
8.9353342635352142
 31
0.0
  0
LINE
  5
9E32
  8
0
 10
233.4849434863315025
 20
9.2601948934352158
 30
0.0
 11
233.4849434863315025
 21
20.364558198313059
 31
0.0
  0
LINE
  5
9E33
  8
0
 10
234.1587644319822061
 20
9.0865980728335032
 30
0.0
 11
233.5302453382666954
 21
9.235211249862159
 31
0.0
  0
ARC
  5
9E34
  8
0
 10
234.1542198642314929
 20
9.0674294290640791
 30
0.0
 40
0.0197000000000003
 50
0.0000000000012722
 51
76.6623771468544959
  0
ARC
  5
9E35
  8
0
 10
234.1641198642315089
 20
8.9353342635352124
 30
0.0
 40
0.0098
 50
270.0
 51
0.0000000000129767
  0
ARC
  5
9E36
  8
0
 10
233.4849377014969889
 20
9.0435948934351718
 30
0.0
 40
0.1969
 50
76.6967576691284023
 51
89.9999999999983658
  0
ARC
  5
9E37
  8
0
 10
233.4652434863315023
 20
9.2601948934352123
 30
0.0
 40
0.0197
 50
269.9999999999902229
 51
0.0000000000051907
  0
ARC
  5
9E38
  8
0
 10
232.992821631681494
 20
20.3625426580954816
 30
0.0
 40
0.4921259863324061
 50
359.7652188365648271
 51
180.234781163397713
  0
ARC
  5
9E3A
  8
0
 10
232.5416922416214902
 20
16.9389899063950295
 30
0.0
 40
0.0410360591412481
 50
182.6412482602773082
 51
217.9115594013437942
  0
ARC
  5
9E3B
  8
0
 10
232.5323185764295033
 20
16.9364953682177486
 30
0.0
 40
0.0316245584849137
 50
138.1529152951312938
 51
178.9065278878206868
  0
ARC
  5
9E3C
  8
0
 10
232.6277369503268915
 20
16.8305292480924784
 30
0.0
 40
0.1740710023302679
 50
105.7505712834661011
 51
133.1172418386335039
  0
ARC
  5
9E3D
  8
0
 10
232.8348988388700889
 20
16.2044363819886215
 30
0.0
 40
0.8334095783105366
 50
97.2804588453556391
 51
107.7743022300951026
  0
ARC
  5
9E3E
  8
0
 10
232.9739982764878903
 20
15.2534611923826393
 30
0.0
 40
1.7944302877536471
 50
92.1158807602046039
 51
97.8381023815696125
  0
ARC
  5
9E3F
  8
0
 10
232.9894080861895986
 20
15.0036209030441103
 30
0.0
 40
2.04467850099044
 50
89.9043459209016191
 51
92.2889170138618908
  0
ARC
  5
9E40
  8
0
 10
232.6023994549260863
 20
16.9957322879289698
 30
0.0
 40
0.1240216120472845
 50
221.3629306381810125
 51
248.590799892847599
  0
ARC
  5
9E41
  8
0
 10
232.8064959042708892
 20
17.5162789872697289
 30
0.0
 40
0.6831497072363036
 50
248.5907998928460074
 51
262.5741847803789142
  0
ARC
  5
9E42
  8
0
 10
233.1025522241401973
 20
19.7877728958151415
 30
0.0
 40
2.973855694719965
 50
262.5741847803789142
 51
265.6709524568594247
  0
ARC
  5
9E43
  8
0
 10
232.9978296806710887
 20
19.32053478623315
 30
0.0
 40
2.501001987042311
 50
267.2554271289922099
 51
269.8852698782566222
  0
ARC
  5
9E44
  8
0
 10
232.5576331361295104
 20
16.9454361476719484
 30
0.0
 40
0.0175840311380406
 50
138.9850741446352913
 51
182.5599432591820062
  0
ARC
  5
9E45
  8
0
 10
232.5782950314520861
 20
16.9463599243329597
 30
0.0
 40
0.0382665668055985
 50
182.5599432591820062
 51
221.3763654756438939
  0
ARC
  5
9E46
  8
0
 10
232.6237500720785931
 20
16.9864006215311711
 30
0.0
 40
0.0988422892567317
 50
221.3763654756436949
 51
245.9360801247769928
  0
ARC
  5
9E47
  8
0
 10
232.7833633079856099
 20
17.3438241536858584
 30
0.0
 40
0.490285728867936
 50
245.9360801247769928
 51
259.2688475883741148
  0
ARC
  5
9E48
  8
0
 10
232.9849420148075012
 20
18.4795044689253416
 30
0.0
 40
1.6436937673983421
 50
259.7363395041527951
 51
270.2746682670324958
  0
ARC
  5
9E49
  8
0
 10
232.7191460395773106
 20
16.6778977430746806
 30
0.0
 40
0.3292914339706042
 50
99.4781719109098503
 51
122.0580538480359962
  0
ARC
  5
9E4A
  8
0
 10
232.9792211954076038
 20
15.4599301717590691
 30
0.0
 40
1.574453649788643
 50
94.7971596014909039
 51
101.5150262560007945
  0
ARC
  5
9E4B
  8
0
 10
233.0400118267990024
 20
14.7617378160029702
 30
0.0
 40
2.2752851208963518
 50
91.188419365196566
 51
94.8522811321167438
  0
ARC
  5
9E4C
  8
0
 10
232.9928058790397074
 20
15.7265286261597801
 30
0.0
 40
1.2369286382387279
 50
89.9992703231140183
 51
91.8274551825758749
  0
ARC
  5
9E4D
  8
0
 10
232.9891703189678083
 20
15.8404748451021202
 30
0.0
 40
1.1229244360868249
 50
91.8274551825758749
 51
94.8137594871702163
  0
ARC
  5
9E4E
  8
0
 10
232.964879733512106
 20
16.1289129890146192
 30
0.0
 40
0.8334652931918991
 50
94.8137594871702163
 51
101.9716787291460065
  0
ARC
  5
9E4F
  8
0
 10
232.8420962644632084
 20
16.7079710836188902
 30
0.0
 40
0.2415328163008077
 50
101.9716787291460065
 51
115.8277312349209041
  0
ARC
  5
9E50
  8
0
 10
232.7484420928844884
 20
16.8971540418297685
 30
0.0
 40
0.0305035802270172
 50
112.2977407009715023
 51
134.4690668248676957
  0
ARC
  5
9E51
  8
0
 10
232.7466217050917123
 20
16.9159538974073591
 30
0.0
 40
0.019550710295874
 50
180.9353944585419924
 51
216.2250725289835032
  0
ARC
  5
9E52
  8
0
 10
232.7339254439638978
 20
16.9066531042985098
 30
0.0
 40
0.0038122288228167
 50
216.2250725289815136
 51
270.935577832471381
  0
LINE
  5
9E53
  8
0
 10
232.7339876907525991
 20
16.902841383698199
 30
0.0
 11
232.7718926891527076
 21
16.902841383698199
 31
0.0
  0
LINE
  5
9E54
  8
0
 10
232.7758296970526999
 20
16.9067783915981984
 30
0.0
 11
232.7758296970526999
 21
16.9402356814245501
 31
0.0
  0
LINE
  5
9E55
  8
0
 10
232.868377135852711
 20
16.8742304204982005
 30
0.0
 11
232.8683770497526098
 21
16.9049192451982009
 31
0.0
  0
ARC
  5
9E56
  8
0
 10
232.9822305919051075
 20
17.6972824922942813
 30
0.0
 40
0.7973155314010448
 50
261.9882025628766087
 51
267.3651513848241166
  0
LINE
  5
9E57
  8
0
 10
232.9495145450526081
 20
16.8573739951212183
 30
0.0
 11
232.9495145450526081
 21
16.8966253546855611
 31
0.0
  0
ARC
  5
9E58
  8
0
 10
232.9928216331641124
 20
18.01428844803403
 30
0.0
 40
1.1614854050358341
 50
268.0491321403143274
 51
269.9999999254400791
  0
ARC
  5
9E59
  8
0
 10
232.9534145450525955
 20
16.8573739951212183
 30
0.0
 40
0.0039
 50
180.0
 51
268.0491321403126221
  0
ARC
  5
9E5A
  8
0
 10
232.9451711905967102
 20
16.8964832485532597
 30
0.0
 40
0.0043456785526803
 50
1.8739382846321591
 51
84.6346689897839894
  0
ARC
  5
9E5B
  8
0
 10
232.870735975663905
 20
16.9053750028030407
 30
0.0
 40
0.0024024661731893
 50
81.208989556292039
 51
190.9356067205013971
  0
LINE
  5
9E5C
  8
0
 10
232.8385008738877957
 20
16.8643619098673909
 30
0.0
 11
232.8653041702555981
 21
16.870389396923251
 31
0.0
  0
ARC
  5
9E5D
  8
0
 10
232.9359767330163038
 20
17.4356956013167412
 30
0.0
 40
0.5798807672937549
 50
254.4793260656169878
 51
260.1836994849819007
  0
LINE
  5
9E5E
  8
0
 10
232.7780304142470982
 20
16.8807812108571902
 30
0.0
 11
232.7780225392527029
 21
16.9114145607982103
 31
0.0
  0
ARC
  5
9E5F
  8
0
 10
232.7698209810457968
 20
16.9115416397661491
 30
0.0
 40
0.0082025426596716
 50
359.1123021078303168
 51
42.8999832766430202
  0
ARC
  5
9E60
  8
0
 10
232.7714632908470094
 20
16.9072077899038504
 30
0.0
 40
0.0043874692087396
 50
275.6164853714013248
 51
354.3835146285871929
  0
LINE
  5
9E61
  8
0
 10
232.7270736001526075
 20
16.915634732298269
 30
0.0
 11
232.7270736001526075
 21
16.9189222738442098
 31
0.0
  0
LINE
  5
9E62
  8
0
 10
232.7368684343526013
 20
16.9253767070981986
 30
0.0
 11
232.7758296970526999
 21
16.9253767070981986
 31
0.0
  0
LINE
  5
9E63
  8
0
 10
232.8119915374525988
 20
16.8872618364982507
 30
0.0
 11
232.8119915374525988
 21
16.9179506574981993
 31
0.0
  0
ARC
  5
9E64
  8
0
 10
232.9527661884011138
 20
17.367876255183301
 30
0.0
 40
0.5008070704349548
 50
253.6743971324152085
 51
260.2990273671217096
  0
ARC
  5
9E65
  8
0
 10
232.8644401279526051
 20
16.8742304204982112
 30
0.0
 40
0.0039370079000015
 50
282.6777142274041807
 51
0.0000072866854306
  0
ARC
  5
9E66
  8
0
 10
232.8376612855095971
 20
16.8680460744158083
 30
0.0
 40
0.0037814249358908
 50
261.6623488285338794
 51
283.9438988032723046
  0
ARC
  5
9E67
  8
0
 10
232.7819483448186872
 20
16.8807099886300804
 30
0.0
 40
0.003918577877111
 50
178.9585605102795967
 51
253.0925947927565005
  0
ARC
  5
9E68
  8
0
 10
232.8017111257238128
 20
16.9186395652363188
 30
0.0
 40
0.0103034683086011
 50
356.16624484980548
 51
55.1591786130578399
  0
ARC
  5
9E69
  8
0
 10
232.8033621113264076
 20
16.9269154009503815
 30
0.0
 40
0.0042392211988309
 50
282.6420851746560174
 51
2.4424403497555018
  0
ARC
  5
9E6A
  8
0
 10
232.4119671278272961
 20
18.6719350272770903
 30
0.0
 40
1.7926137707195511
 50
281.7227468029427087
 51
282.6418001327671732
  0
ARC
  5
9E6B
  8
0
 10
232.8395322762586943
 20
17.0258082952631291
 30
0.0
 40
0.103749394372068
 50
234.6040550901551001
 51
252.0728773366282951
  0
ARC
  5
9E6C
  8
0
 10
232.6568533368015892
 20
17.5279182190832401
 30
0.0
 40
0.6626541444970991
 50
280.7811970298478172
 51
283.2682584656408267
  0
ARC
  5
9E6D
  8
0
 10
232.8071939827594008
 20
16.8874245749565404
 30
0.0
 40
0.0048003140356264
 50
291.3225756348666096
 51
358.0572075562038776
  0
ARC
  5
9E6E
  8
0
 10
232.9761943057364988
 20
17.7532119253466512
 30
0.0
 40
0.8616275681291753
 50
262.8116175225155757
 51
267.952826006635803
  0
ARC
  5
9E6F
  8
0
 10
232.945211513412886
 20
16.8878220791264084
 30
0.0
 40
0.0043170052093676
 50
6.8917455902550362
 51
87.298754400700517
  0
ARC
  5
9E70
  8
0
 10
232.9928119518183109
 20
17.8378871613742298
 30
0.0
 40
0.9718483647242377
 50
267.7196078141005842
 51
270.0005706792081241
  0
ARC
  5
9E71
  8
0
 10
232.9537242044588083
 20
16.8563102627586083
 30
0.0
 40
0.0105064896382303
 50
87.7196078141006552
 51
113.6202141509335064
  0
ARC
  5
9E72
  8
0
 10
232.9393184060780015
 20
16.5123036985260789
 30
0.0
 40
0.4464238694178269
 50
96.2833385812334654
 51
106.6313392787858021
  0
ARC
  5
9E73
  8
0
 10
232.8599889330153871
 20
16.9887925660592316
 30
0.0
 40
0.0625910740894293
 50
228.3221331699598977
 51
253.102390346794607
  0
ARC
  5
9E74
  8
0
 10
232.9555846958934922
 20
17.3034824706882411
 30
0.0
 40
0.3914805478578565
 50
253.102390346794607
 51
262.1993574105680977
  0
ARC
  5
9E75
  8
0
 10
232.9846285827784129
 20
17.5154903320830115
 30
0.0
 40
0.6054685864454514
 50
262.1993574105680977
 51
270.7753357639375054
  0
ARC
  5
9E76
  8
0
 10
232.9888464827596124
 20
17.6654097066084397
 30
0.0
 40
0.7604267792392266
 50
261.6332543991089779
 51
270.29951640061239
  0
ARC
  5
9E77
  8
0
 10
232.9245042827730003
 20
17.2279283370622593
 30
0.0
 40
0.3182391862437501
 50
250.0750851608374035
 51
261.6332543991089779
  0
ARC
  5
9E78
  8
0
 10
232.8360699805550951
 20
16.9839627927656913
 30
0.0
 40
0.0587400289952633
 50
229.7285220739015017
 51
250.0750851608374035
  0
ARC
  5
9E79
  8
0
 10
232.8113380386508879
 20
16.9547704405816191
 30
0.0
 40
0.0204795745233947
 50
212.429732148465007
 51
229.7285220739030933
  0
LINE
  5
9E7A
  8
0
 10
232.8105447888526953
 20
16.9400779522981999
 30
0.0
 11
232.791995554952706
 21
16.9442506219982008
 31
0.0
  0
ARC
  5
9E7B
  8
0
 10
232.8111115984131914
 20
16.942608522641919
 30
0.0
 40
0.0025932719376179
 50
257.3749866267622792
 51
279.6501620003735979
  0
LINE
  5
9E7C
  8
0
 10
232.8634190542526028
 20
16.9519061115095084
 30
0.0
 11
232.8634190542526028
 21
16.9465916455982004
 31
0.0
  0
LINE
  5
9E7D
  8
0
 10
232.8679351111526046
 20
16.9410001262981993
 30
0.0
 11
232.8870394608526055
 21
16.9452952478982013
 31
0.0
  0
ARC
  5
9E7E
  8
0
 10
232.9558100627924091
 20
17.2418549918146908
 30
0.0
 40
0.3043130816268402
 50
252.1966390339165969
 51
265.2313328626070188
  0
ARC
  5
9E7F
  8
0
 10
233.0061655893667023
 20
17.8454815606766815
 30
0.0
 40
0.9100363795877848
 50
265.2313328626070188
 51
269.1598359404918028
  0
LINE
  5
9E80
  8
0
 10
232.899518885552709
 20
16.9401962279102811
 30
0.0
 11
232.899518885552709
 21
16.9427935348962393
 31
0.0
  0
LINE
  5
9E81
  8
0
 10
232.9055390405526111
 20
16.9348473480981987
 30
0.0
 11
232.9183870345788137
 21
16.9398517325466003
 31
0.0
  0
LINE
  5
9E82
  8
0
 10
232.9419771448525864
 20
16.9357271720982006
 30
0.0
 11
232.9419771448525864
 21
16.9377117353552507
 31
0.0
  0
LINE
  5
9E83
  8
0
 10
232.9498851907526102
 20
16.9316633137982002
 30
0.0
 11
232.9560358162777902
 21
16.9368269409100201
 31
0.0
  0
LINE
  5
9E84
  8
0
 10
232.9879003718525894
 20
16.9340756489981992
 30
0.0
 11
232.9879003718525894
 21
16.9356284989120915
 31
0.0
  0
ARC
  5
9E85
  8
0
 10
232.9943437235363888
 20
16.94195682708623
 30
0.0
 40
0.0064528370106064
 50
183.1070028063093105
 51
256.3565288171920997
  0
ARC
  5
9E86
  8
0
 10
232.993589970074396
 20
16.9616906329498001
 30
0.0
 40
0.0056968627129558
 50
183.1044147188387115
 51
262.248871451955722
  0
ARC
  5
9E87
  8
0
 10
232.9680268960478031
 20
16.9517412227689199
 30
0.0
 40
0.0057217760126693
 50
182.3226266220626997
 51
262.005073338945806
  0
ARC
  5
9E88
  8
0
 10
232.9664522528404973
 20
16.9517258386311411
 30
0.0
 40
0.0057041975200401
 50
277.847441609661189
 51
357.824857270756695
  0
ARC
  5
9E89
  8
0
 10
232.9424363448476925
 20
16.9617119836689199
 30
0.0
 40
0.0057217760126693
 50
175.3655765587971018
 51
262.005073338945806
  0
ARC
  5
9E8A
  8
0
 10
232.9408617016405003
 20
16.9616965995311411
 30
0.0
 40
0.0057041975200401
 50
277.847441609661189
 51
8.9916137667123444
  0
ARC
  5
9E8B
  8
0
 10
232.9160721072358058
 20
16.9510405757567817
 30
0.0
 40
0.0049655648680493
 50
174.5830411057031881
 51
350.617158311134915
  0
ARC
  5
9E8C
  8
0
 10
232.891281007912113
 20
16.9617875954163218
 30
0.0
 40
0.0058002558213629
 50
212.4663062392332904
 51
261.8569163421693133
  0
ARC
  5
9E8D
  8
0
 10
232.8896382993787029
 20
16.9617856079830389
 30
0.0
 40
0.0057982242088542
 50
278.1414304352554723
 51
336.1231470237913186
  0
ARC
  5
9E8E
  8
0
 10
232.8684395378041074
 20
16.9460270155844306
 30
0.0
 40
0.0050521344145505
 50
173.5831785647212939
 51
264.2697973155684963
  0
ARC
  5
9E8F
  8
0
 10
232.9045054095790874
 20
16.9397462751597416
 30
0.0
 40
0.0050067833330204
 50
174.8439505766968978
 51
281.9141664240078171
  0
ARC
  5
9E90
  8
0
 10
232.9469371388285026
 20
16.9356528075232511
 30
0.0
 40
0.0049605514139059
 50
179.1410358361696069
 51
306.4626924570663959
  0
ARC
  5
9E91
  8
0
 10
232.9927632012604874
 20
16.9341279872199095
 30
0.0
 40
0.0048631110556325
 50
180.61664581974199
 51
270.6884266842055808
  0
LINE
  5
9E92
  8
0
 10
232.9928216316527028
 20
16.9558783579981984
 30
0.0
 11
232.9684987366526059
 21
16.9527194085981989
 31
0.0
  0
LINE
  5
9E93
  8
0
 10
232.9684987366526059
 20
16.9527194085981989
 30
0.0
 11
232.9659634242526067
 21
16.9527194085981989
 31
0.0
  0
LINE
  5
9E94
  8
0
 10
232.9659634242526067
 20
16.9527194085981989
 30
0.0
 11
232.9416405292525951
 21
16.9560458210982006
 31
0.0
  0
LINE
  5
9E95
  8
0
 10
232.9416405292525951
 20
16.9560458210982006
 30
0.0
 11
232.9173176343525995
 21
16.9527194085981989
 31
0.0
  0
LINE
  5
9E96
  8
0
 10
232.9173176343525995
 20
16.9527194085981989
 30
0.0
 11
232.9147829312940132
 21
16.9527202740845411
 31
0.0
  0
LINE
  5
9E97
  8
0
 10
232.9147829312940132
 20
16.9527202740845411
 30
0.0
 11
232.8904594269527024
 21
16.9560458210982006
 31
0.0
  0
LINE
  5
9E98
  8
0
 10
232.9209712379526991
 20
16.9502310371982112
 30
0.0
 11
232.9209712379526991
 21
16.9532190774384084
 31
0.0
  0
LINE
  5
9E99
  8
0
 10
232.9111287182527121
 20
16.9515093398982017
 30
0.0
 11
232.9111287182527121
 21
16.9532198837253389
 31
0.0
  0
LINE
  5
9E9A
  8
0
 10
232.9367192694525954
 20
16.9441346472981991
 30
0.0
 11
232.9367192694525954
 21
16.9553727868980495
 31
0.0
  0
LINE
  5
9E9B
  8
0
 10
232.9371897760107117
 20
16.9419301874329484
 30
0.0
 11
232.937217144150793
 21
16.94193396348264
 31
0.0
  0
LINE
  5
9E9C
  8
0
 10
232.9429121765365949
 20
16.9427197211277196
 30
0.0
 11
232.9672310804525921
 21
16.9460750601982006
 31
0.0
  0
LINE
  5
9E9D
  8
0
 10
232.9672310804525921
 20
16.9460750601982006
 30
0.0
 11
232.9915537617526979
 21
16.9427499939981985
 31
0.0
  0
LINE
  5
9E9E
  8
0
 10
232.9915537617526979
 20
16.9427499939981985
 30
0.0
 11
232.9940895015525086
 21
16.9427499939981985
 31
0.0
  0
ARC
  5
9E9F
  8
0
 10
232.9424577066967004
 20
16.9485009738491783
 30
0.0
 40
0.0057990883649739
 50
188.2938547438197077
 51
274.4948326929604718
  0
ARC
  5
9EA0
  8
0
 10
232.9439681316302995
 20
16.9446179429108206
 30
0.0
 40
0.0072649554382555
 50
183.8143749165093936
 51
251.3244918203228053
  0
ARC
  5
9EA1
  8
0
 10
232.9406976094309982
 20
16.943519225042369
 30
0.0
 40
0.0058602858454874
 50
279.2720658074617859
 51
357.0897322584804101
  0
LINE
  5
9EA2
  8
0
 10
232.9367192694525954
 20
16.9441346472981991
 30
0.0
 11
232.91759747021419
 21
16.9463151019982092
 31
0.0
  0
LINE
  5
9EA3
  8
0
 10
232.8965397375135922
 20
16.9433696819742003
 30
0.0
 11
232.9153041683217111
 21
16.9461347522496517
 31
0.0
  0
LINE
  5
9EA4
  8
0
 10
232.8556235565866075
 20
16.9551862384660907
 30
0.0
 11
232.8664767516513052
 21
16.9527448007933117
 31
0.0
  0
LINE
  5
9EA5
  8
0
 10
232.868377135852711
 20
16.9567726652885788
 30
0.0
 11
232.868377135852711
 21
16.9543265098981983
 31
0.0
  0
ARC
  5
9EA6
  8
0
 10
232.8664449190700907
 20
16.9542181438260116
 30
0.0
 40
0.0019352531876039
 50
320.3598934502954876
 51
3.210002657555155
  0
ARC
  5
9EA7
  8
0
 10
232.9924236850486068
 20
16.0220356860908417
 30
0.0
 40
0.9393589561529754
 50
89.9757274240966751
 51
92.377972215814367
  0
ARC
  5
9EA8
  8
0
 10
232.9540860612513029
 20
16.9652004957850693
 30
0.0
 40
0.0046586456195224
 50
212.1588120222833993
 51
262.130896847139411
  0
LINE
  5
9EA9
  8
0
 10
232.9623098206527061
 20
16.9515093398982017
 30
0.0
 11
232.9623098206527061
 21
16.9532190774363514
 31
0.0
  0
LINE
  5
9EAA
  8
0
 10
232.9721523403526078
 20
16.9515093398981485
 30
0.0
 11
232.9721523403526078
 21
16.9531939223933712
 31
0.0
  0
LINE
  5
9EAB
  8
0
 10
232.9672310804525921
 20
16.9527222341981982
 30
0.0
 11
232.9672310804525921
 21
16.9610567620941914
 31
0.0
  0
LINE
  5
9EAC
  8
0
 10
232.9160502828233916
 20
16.95271984134137
 30
0.0
 11
232.9160502828233916
 21
16.96101612032367
 31
0.0
  0
LINE
  5
9EAD
  8
0
 10
232.9879003718525894
 20
16.9416070777981993
 30
0.0
 11
232.9879003718525894
 21
16.9432494357793999
 31
0.0
  0
ARC
  5
9EAE
  8
0
 10
232.9834424412350984
 20
17.7967493701833384
 30
0.0
 40
0.9482043132655297
 50
259.2257433629843035
 51
270.5667521042279873
  0
ARC
  5
9EAF
  8
0
 10
232.8535793986683018
 20
17.1143177490517893
 30
0.0
 40
0.2535264545821415
 50
242.1303915754519949
 51
259.2257433629827119
  0
ARC
  5
9EB0
  8
0
 10
232.7480639228147936
 20
16.9147778229543313
 30
0.0
 40
0.0278060572947972
 50
190.6730185566092075
 51
242.1303915754521086
  0
ARC
  5
9EB1
  8
0
 10
232.7361220806567985
 20
16.90594919076986
 30
0.0
 40
0.0158169492598284
 50
124.8950456484860041
 51
166.5504853146090056
  0
ARC
  5
9EB2
  8
0
 10
233.4439510216836879
 20
16.9389899063950295
 30
0.0
 40
0.0410360591412481
 50
322.0884405986565184
 51
357.3587517397231181
  0
ARC
  5
9EB3
  8
0
 10
233.4533246868755896
 20
16.9364953682177486
 30
0.0
 40
0.0316245584849137
 50
1.093472112179894
 51
41.8470847048701486
  0
ARC
  5
9EB4
  8
0
 10
233.3579063129782867
 20
16.8305292480924891
 30
0.0
 40
0.1740710023302679
 50
46.882758161368038
 51
74.2494287165339415
  0
ARC
  5
9EB5
  8
0
 10
233.1507444244350893
 20
16.2044363819886215
 30
0.0
 40
0.8334095783105366
 50
72.2256977699049258
 51
82.7195411546459809
  0
ARC
  5
9EB6
  8
0
 10
233.0116449868172879
 20
15.2534611923826393
 30
0.0
 40
1.7944302877536471
 50
82.1618976184304017
 51
87.8841192397970161
  0
ARC
  5
9EB7
  8
0
 10
232.9962351771156079
 20
15.0036209030441103
 30
0.0
 40
2.04467850099044
 50
87.7110829861381234
 51
90.0956540790983667
  0
ARC
  5
9EB8
  8
0
 10
233.3832438083790919
 20
16.9957322879289805
 30
0.0
 40
0.1240216120472845
 50
291.4092001071541063
 51
318.6370693618205792
  0
ARC
  5
9EB9
  8
0
 10
233.1791473590342889
 20
17.5162789872697289
 30
0.0
 40
0.6831497072363036
 50
277.4258152196226774
 51
291.4092001071541063
  0
ARC
  5
9EBA
  8
0
 10
232.8830910391648956
 20
19.7877728958151415
 30
0.0
 40
2.973855694719965
 50
274.3290475431422806
 51
277.4258152196226774
  0
ARC
  5
9EBB
  8
0
 10
232.9878135826340895
 20
19.32053478623315
 30
0.0
 40
2.501001987042311
 50
270.1147301217433778
 51
272.7445728710077901
  0
ARC
  5
9EBC
  8
0
 10
233.4280101271756109
 20
16.9454361476719484
 30
0.0
 40
0.0175840311380406
 50
357.440056740818477
 51
41.0149258553649716
  0
ARC
  5
9EBD
  8
0
 10
233.4073482318530921
 20
16.9463599243329703
 30
0.0
 40
0.0382665668055985
 50
318.6236345243564188
 51
357.440056740818477
  0
ARC
  5
9EBE
  8
0
 10
233.3618931912266135
 20
16.9864006215311711
 30
0.0
 40
0.0988422892567317
 50
294.0639198752231209
 51
318.6236345243564756
  0
ARC
  5
9EBF
  8
0
 10
233.2022799553195114
 20
17.3438241536858584
 30
0.0
 40
0.490285728867936
 50
280.7311524116274768
 51
294.0639198752231209
  0
ARC
  5
9EC0
  8
0
 10
233.0007012484975917
 20
18.4795044689253416
 30
0.0
 40
1.6436937673983421
 50
269.7253317329676179
 51
280.2636604958472049
  0
ARC
  5
9EC1
  8
0
 10
233.2664972237278107
 20
16.6778977430746806
 30
0.0
 40
0.3292914339706042
 50
57.9419461519641317
 51
80.5218280890901781
  0
ARC
  5
9EC2
  8
0
 10
233.0064220678976028
 20
15.4599301717590691
 30
0.0
 40
1.574453649788643
 50
78.4849737440007971
 51
85.2028403985107303
  0
ARC
  5
9EC3
  8
0
 10
232.9456314365060052
 20
14.7617378160007107
 30
0.0
 40
2.275285120898618
 50
85.1477188678848904
 51
88.8115806347985739
  0
ARC
  5
9EC4
  8
0
 10
232.9928373842654992
 20
15.7265286261597801
 30
0.0
 40
1.2369286382387279
 50
88.1725448174241251
 51
90.0007296768876159
  0
ARC
  5
9EC5
  8
0
 10
232.9964729443373983
 20
15.8404748451021202
 30
0.0
 40
1.1229244360868249
 50
85.186240512831418
 51
88.1725448174241251
  0
ARC
  5
9EC6
  8
0
 10
233.0207635297931006
 20
16.1289129890146192
 30
0.0
 40
0.8334652931918991
 50
78.0283212708539793
 51
85.186240512831418
  0
ARC
  5
9EC7
  8
0
 10
233.1435469988419982
 20
16.7079710836188902
 30
0.0
 40
0.2415328163008077
 50
64.1722687650792523
 51
78.0283212708539793
  0
ARC
  5
9EC8
  8
0
 10
233.2372011704206898
 20
16.8971540418297685
 30
0.0
 40
0.0305035802270172
 50
45.5309331751326312
 51
67.7022592990300325
  0
ARC
  5
9EC9
  8
0
 10
233.2390215582134942
 20
16.9159538974073591
 30
0.0
 40
0.019550710295874
 50
323.7749274710175769
 51
359.0646055414584907
  0
ARC
  5
9ECA
  8
0
 10
233.2517178193413088
 20
16.9066531042985098
 30
0.0
 40
0.0038122288228167
 50
269.0644221675285053
 51
323.7749274710188274
  0
LINE
  5
9ECB
  8
0
 10
233.2516555725524938
 20
16.9028413836982097
 30
0.0
 11
233.213750574152499
 21
16.902841383698199
 31
0.0
  0
LINE
  5
9ECC
  8
0
 10
233.2098135662525067
 20
16.9067783915982091
 30
0.0
 11
233.2098135662525067
 21
16.9402356814245501
 31
0.0
  0
LINE
  5
9ECD
  8
0
 10
233.1172661274524955
 20
16.8742304204982112
 30
0.0
 11
233.1172662135525115
 21
16.9049192451982115
 31
0.0
  0
ARC
  5
9ECE
  8
0
 10
233.003412671400099
 20
17.6972824922942813
 30
0.0
 40
0.7973155314010448
 50
272.6348486151758834
 51
278.0117974371233913
  0
LINE
  5
9ECF
  8
0
 10
233.0361287182525132
 20
16.8573739951212183
 30
0.0
 11
233.0361287182525132
 21
16.8966253546855683
 31
0.0
  0
ARC
  5
9ED0
  8
0
 10
232.9928216301410941
 20
18.01428844803403
 30
0.0
 40
1.1614854050358341
 50
270.0000000745599209
 51
271.9508678596856726
  0
ARC
  5
9ED1
  8
0
 10
233.0322287182524974
 20
16.8573739951212183
 30
0.0
 40
0.0039
 50
271.950867859687321
 51
0.0000000000006616
  0
ARC
  5
9ED2
  8
0
 10
233.0404720727084964
 20
16.8964832485532597
 30
0.0
 40
0.0043456785526803
 50
95.3653310102160248
 51
178.1260617153685075
  0
ARC
  5
9ED3
  8
0
 10
233.1149072876413015
 20
16.9053750028030514
 30
0.0
 40
0.0024024661731893
 50
349.0643932794989723
 51
98.7910104437080037
  0
LINE
  5
9ED4
  8
0
 10
233.1471423894174109
 20
16.8643619098673909
 30
0.0
 11
233.1203390930496084
 21
16.870389396923251
 31
0.0
  0
ARC
  5
9ED5
  8
0
 10
233.0496665302889028
 20
17.4356956013167412
 30
0.0
 40
0.5798807672937549
 50
279.8163005150180993
 51
285.5206739343830122
  0
LINE
  5
9ED6
  8
0
 10
233.2076128490579947
 20
16.8807812108572008
 30
0.0
 11
233.2076207240525036
 21
16.9114145607982103
 31
0.0
  0
ARC
  5
9ED7
  8
0
 10
233.2158222822592961
 20
16.9115416397661491
 30
0.0
 40
0.0082025426596716
 50
137.1000167233572995
 51
180.8876978921701948
  0
ARC
  5
9ED8
  8
0
 10
233.2141799724581972
 20
16.9072077899038504
 30
0.0
 40
0.0043874692087396
 50
185.6164853714132903
 51
264.3835146285986752
  0
LINE
  5
9ED9
  8
0
 10
233.2585696631525138
 20
16.915634732298269
 30
0.0
 11
233.2585696631525138
 21
16.9189222738442204
 31
0.0
  0
LINE
  5
9EDA
  8
0
 10
233.2487748289524916
 20
16.9253767070982093
 30
0.0
 11
233.2098135662525067
 21
16.9253767070982093
 31
0.0
  0
LINE
  5
9EDB
  8
0
 10
233.1736517258524941
 20
16.8872618364982507
 30
0.0
 11
233.1736517258524941
 21
16.9179506574981993
 31
0.0
  0
ARC
  5
9EDC
  8
0
 10
233.0328770749040075
 20
17.367876255183301
 30
0.0
 40
0.5008070704349548
 50
279.7009726328782904
 51
286.3256028675849052
  0
ARC
  5
9EDD
  8
0
 10
233.1212031353524878
 20
16.8742304204982112
 30
0.0
 40
0.0039370079000015
 50
179.9999927133152084
 51
257.3222857725958761
  0
ARC
  5
9EDE
  8
0
 10
233.1479819777956095
 20
16.8680460744158083
 30
0.0
 40
0.0037814249358908
 50
256.0561011967276954
 51
278.3376511714661774
  0
ARC
  5
9EDF
  8
0
 10
233.2036949184864909
 20
16.8807099886300804
 30
0.0
 40
0.003918577877111
 50
286.9074052072451195
 51
1.041439489721032
  0
ARC
  5
9EE0
  8
0
 10
233.1839321375813086
 20
16.9186395652363188
 30
0.0
 40
0.0103034683086011
 50
124.8408213869423946
 51
183.8337551501950031
  0
ARC
  5
9EE1
  8
0
 10
233.182281151978799
 20
16.9269154009503815
 30
0.0
 40
0.0042392211988309
 50
177.5575596502451106
 51
257.3579148253439826
  0
ARC
  5
9EE2
  8
0
 10
233.5736761354777968
 20
18.671935027277101
 30
0.0
 40
1.7926137707195511
 50
257.3581998672328268
 51
258.277253197057405
  0
ARC
  5
9EE3
  8
0
 10
233.1461109870463986
 20
17.0258082952631291
 30
0.0
 40
0.103749394372068
 50
287.9271226633716765
 51
305.3959449098451273
  0
ARC
  5
9EE4
  8
0
 10
233.3287899265035037
 20
17.5279182190832508
 30
0.0
 40
0.6626541444970991
 50
256.731741534359287
 51
259.2188029701521828
  0
ARC
  5
9EE5
  8
0
 10
233.1784492805458058
 20
16.8874245749565404
 30
0.0
 40
0.0048003140356264
 50
181.9427924437966055
 51
248.6774243651335041
  0
ARC
  5
9EE6
  8
0
 10
233.0094489575685941
 20
17.7532119253466512
 30
0.0
 40
0.8616275681291753
 50
272.0471739933657886
 51
277.1883824774844243
  0
ARC
  5
9EE7
  8
0
 10
233.0404317498922921
 20
16.8878220791264084
 30
0.0
 40
0.0043170052093676
 50
92.7012455992995257
 51
173.108254409745598
  0
ARC
  5
9EE8
  8
0
 10
232.9928313114868956
 20
17.8378871613742298
 30
0.0
 40
0.9718483647242377
 50
269.9994293207918759
 51
272.2803921858993021
  0
ARC
  5
9EE9
  8
0
 10
233.0319190588463982
 20
16.8563102627586083
 30
0.0
 40
0.0105064896382303
 50
66.3797858490666357
 51
92.280392185899359
  0
ARC
  5
9EEA
  8
0
 10
233.046324857227205
 20
16.5123036985260789
 30
0.0
 40
0.4464238694178269
 50
73.3686607212158464
 51
83.716661418768183
  0
ARC
  5
9EEB
  8
0
 10
233.125654330289791
 20
16.9887925660592387
 30
0.0
 40
0.0625910740894293
 50
286.8976096532055067
 51
311.6778668300403865
  0
ARC
  5
9EEC
  8
0
 10
233.0300585674116007
 20
17.3034824706882411
 30
0.0
 40
0.3914805478578565
 50
277.8006425894336076
 51
286.8976096532055067
  0
ARC
  5
9EED
  8
0
 10
233.0010146805267937
 20
17.5154903320830115
 30
0.0
 40
0.6054685864454514
 50
269.2246642360624946
 51
277.8006425894320159
  0
ARC
  5
9EEE
  8
0
 10
232.9967967805455089
 20
17.6654097066084397
 30
0.0
 40
0.7604267792392266
 50
269.70048359938761
 51
278.3667456008926138
  0
ARC
  5
9EEF
  8
0
 10
233.0611389805322062
 20
17.2279283370622593
 30
0.0
 40
0.3182391862437501
 50
278.3667456008927275
 51
289.924914839162625
  0
ARC
  5
9EF0
  8
0
 10
233.1495732827501115
 20
16.9839627927656913
 30
0.0
 40
0.0587400289952633
 50
289.9249148391626818
 51
310.271477926098612
  0
ARC
  5
9EF1
  8
0
 10
233.1743052246542902
 20
16.9547704405816191
 30
0.0
 40
0.0204795745233947
 50
310.2714779260984983
 51
327.5702678515352204
  0
LINE
  5
9EF2
  8
0
 10
233.1750984744525113
 20
16.9400779522981999
 30
0.0
 11
233.1936477083525006
 21
16.9442506219982114
 31
0.0
  0
ARC
  5
9EF3
  8
0
 10
233.1745316648919868
 20
16.942608522641919
 30
0.0
 40
0.0025932719376179
 50
260.3498379996262884
 51
282.6250133732393124
  0
LINE
  5
9EF4
  8
0
 10
233.1222242090524901
 20
16.9519061115095084
 30
0.0
 11
233.1222242090524901
 21
16.9465916455982111
 31
0.0
  0
LINE
  5
9EF5
  8
0
 10
233.1177081521524883
 20
16.9410001262981993
 30
0.0
 11
233.0986038024524873
 21
16.9452952478982084
 31
0.0
  0
ARC
  5
9EF6
  8
0
 10
233.0298332005127122
 20
17.2418549918146908
 30
0.0
 40
0.3043130816268402
 50
274.7686671373929812
 51
287.8033609660834031
  0
ARC
  5
9EF7
  8
0
 10
232.9794776739383906
 20
17.8454815606766815
 30
0.0
 40
0.9100363795877848
 50
270.8401640595099025
 51
274.7686671373929812
  0
LINE
  5
9EF8
  8
0
 10
233.0861243777524976
 20
16.9401962279102811
 30
0.0
 11
233.0861243777524976
 21
16.9427935348962393
 31
0.0
  0
LINE
  5
9EF9
  8
0
 10
233.0801042227525102
 20
16.9348473480981987
 30
0.0
 11
233.0672562287263077
 21
16.9398517325466003
 31
0.0
  0
LINE
  5
9EFA
  8
0
 10
233.0436661184525065
 20
16.9357271720982006
 30
0.0
 11
233.0436661184525065
 21
16.9377117353552507
 31
0.0
  0
LINE
  5
9EFB
  8
0
 10
233.0357580725525111
 20
16.9316633137982002
 30
0.0
 11
233.0296074470273879
 21
16.9368269409100201
 31
0.0
  0
LINE
  5
9EFC
  8
0
 10
232.9977428914525035
 20
16.9340756489981992
 30
0.0
 11
232.9977428914525035
 21
16.9356284989120915
 31
0.0
  0
ARC
  5
9EFD
  8
0
 10
232.9912995397687894
 20
16.94195682708623
 30
0.0
 40
0.0064528370106064
 50
283.6434711828079003
 51
356.8929971936912011
  0
ARC
  5
9EFE
  8
0
 10
232.9920532932306969
 20
16.9616906329498001
 30
0.0
 40
0.0056968627129558
 50
277.751128548044278
 51
356.8955852811615728
  0
ARC
  5
9EFF
  8
0
 10
233.0176163672574035
 20
16.9517412227689199
 30
0.0
 40
0.0057217760126693
 50
277.994926661054194
 51
357.6773733779377267
  0
ARC
  5
9F00
  8
0
 10
233.0191910104647093
 20
16.9517258386311482
 30
0.0
 40
0.0057041975200401
 50
182.1751427292437029
 51
262.152558390338811
  0
ARC
  5
9F01
  8
0
 10
233.0432069184574004
 20
16.9617119836689199
 30
0.0
 40
0.0057217760126693
 50
277.994926661054194
 51
4.6344234412035608
  0
ARC
  5
9F02
  8
0
 10
233.0447815616647063
 20
16.9616965995311411
 30
0.0
 40
0.0057041975200401
 50
171.0083862332882916
 51
262.152558390338811
  0
ARC
  5
9F03
  8
0
 10
233.0695711560694008
 20
16.9510405757567817
 30
0.0
 40
0.0049655648680493
 50
189.3828416888655113
 51
5.4169588942974602
  0
ARC
  5
9F04
  8
0
 10
233.0943622553930084
 20
16.9617875954163218
 30
0.0
 40
0.0058002558213629
 50
278.1430836578322214
 51
327.5336937607669938
  0
ARC
  5
9F05
  8
0
 10
233.0960049639265037
 20
16.9617856079830496
 30
0.0
 40
0.0057982242088542
 50
203.8768529762089941
 51
261.8585695647445846
  0
ARC
  5
9F06
  8
0
 10
233.1172037255010991
 20
16.9460270155844306
 30
0.0
 40
0.0050521344145505
 50
275.73020268443139
 51
6.4168214352793527
  0
ARC
  5
9F07
  8
0
 10
233.0811378537260907
 20
16.9397462751597416
 30
0.0
 40
0.0050067833330204
 50
258.0858335759922966
 51
5.1560494233037222
  0
ARC
  5
9F08
  8
0
 10
233.038706124476704
 20
16.9356528075232617
 30
0.0
 40
0.0049605514139059
 50
233.537307542933803
 51
0.8589641638310748
  0
ARC
  5
9F09
  8
0
 10
232.9928800620446907
 20
16.9341279872199095
 30
0.0
 40
0.0048631110556325
 50
269.3115733157958971
 51
359.3833541802584932
  0
LINE
  5
9F0A
  8
0
 10
232.9928216316525038
 20
16.9558783579981984
 30
0.0
 11
233.017144526652487
 21
16.9527194085981989
 31
0.0
  0
LINE
  5
9F0B
  8
0
 10
233.017144526652487
 20
16.9527194085981989
 30
0.0
 11
233.0196798390524862
 21
16.9527194085981989
 31
0.0
  0
LINE
  5
9F0C
  8
0
 10
233.0196798390524862
 20
16.9527194085981989
 30
0.0
 11
233.0440027340524978
 21
16.9560458210982112
 31
0.0
  0
LINE
  5
9F0D
  8
0
 10
233.0440027340524978
 20
16.9560458210982112
 30
0.0
 11
233.0683256289524934
 21
16.9527194085981989
 31
0.0
  0
LINE
  5
9F0E
  8
0
 10
233.0683256289524934
 20
16.9527194085981989
 30
0.0
 11
233.0708603320111933
 21
16.9527202740845411
 31
0.0
  0
LINE
  5
9F0F
  8
0
 10
233.0708603320111933
 20
16.9527202740845411
 30
0.0
 11
233.0951838363525042
 21
16.9560458210982112
 31
0.0
  0
LINE
  5
9F10
  8
0
 10
233.0646720253525075
 20
16.9502310371982112
 30
0.0
 11
233.0646720253525075
 21
16.9532190774384084
 31
0.0
  0
LINE
  5
9F11
  8
0
 10
233.0745145450524944
 20
16.9515093398982017
 30
0.0
 11
233.0745145450524944
 21
16.9532198837253389
 31
0.0
  0
LINE
  5
9F12
  8
0
 10
233.0489239938524975
 20
16.9441346472981991
 30
0.0
 11
233.0489239938524975
 21
16.9553727868980495
 31
0.0
  0
LINE
  5
9F13
  8
0
 10
233.0484534872944948
 20
16.9419301874329484
 30
0.0
 11
233.0484261191544135
 21
16.94193396348264
 31
0.0
  0
LINE
  5
9F14
  8
0
 10
233.0427310867686117
 20
16.9427197211277196
 30
0.0
 11
233.0184121828525008
 21
16.9460750601982006
 31
0.0
  0
LINE
  5
9F15
  8
0
 10
233.0184121828525008
 20
16.9460750601982006
 30
0.0
 11
232.9940895015525086
 21
16.9427499939981985
 31
0.0
  0
ARC
  5
9F16
  8
0
 10
233.0431855566085062
 20
16.9485009738491783
 30
0.0
 40
0.0057990883649739
 50
265.5051673070411766
 51
351.7061452561807187
  0
ARC
  5
9F17
  8
0
 10
233.0416751316749071
 20
16.9446179429108206
 30
0.0
 40
0.0072649554382555
 50
288.6755081796771947
 51
356.1856250834911179
  0
ARC
  5
9F18
  8
0
 10
233.0449456538742083
 20
16.943519225042369
 30
0.0
 40
0.0058602858454874
 50
182.9102677415201867
 51
260.7279341925399194
  0
LINE
  5
9F19
  8
0
 10
233.0489239938524975
 20
16.9441346472981991
 30
0.0
 11
233.0680457930909881
 21
16.9463151019982092
 31
0.0
  0
LINE
  5
9F1A
  8
0
 10
233.089103525791586
 20
16.9433696819742003
 30
0.0
 11
233.0703390949834102
 21
16.9461347522496517
 31
0.0
  0
LINE
  5
9F1B
  8
0
 10
233.1300197067185138
 20
16.9551862384660907
 30
0.0
 11
233.1191665116537877
 21
16.9527448007933117
 31
0.0
  0
LINE
  5
9F1C
  8
0
 10
233.1172661274524955
 20
16.9567726652885788
 30
0.0
 11
233.1172661274524955
 21
16.9543265098981983
 31
0.0
  0
ARC
  5
9F1D
  8
0
 10
233.1191983442350022
 20
16.9542181438260116
 30
0.0
 40
0.0019352531876039
 50
176.7899973424455027
 51
219.6401065497047114
  0
ARC
  5
9F1E
  8
0
 10
232.9932195782565998
 20
16.0220356860908417
 30
0.0
 40
0.9393589561529754
 50
87.6220277841856472
 51
90.0242725759033533
  0
ARC
  5
9F1F
  8
0
 10
233.0315572020539037
 20
16.9652004957850693
 30
0.0
 40
0.0046586456195224
 50
277.8691031528621807
 51
327.841187977717027
  0
LINE
  5
9F20
  8
0
 10
233.0233334426525005
 20
16.9515093398982017
 30
0.0
 11
233.0233334426525005
 21
16.9532190774363514
 31
0.0
  0
LINE
  5
9F21
  8
0
 10
233.0134909229525135
 20
16.9515093398981485
 30
0.0
 11
233.0134909229525135
 21
16.9531939223933712
 31
0.0
  0
LINE
  5
9F22
  8
0
 10
233.0184121828525008
 20
16.9527222341981982
 30
0.0
 11
233.0184121828525008
 21
16.9610567620941914
 31
0.0
  0
LINE
  5
9F23
  8
0
 10
233.0695929804817865
 20
16.95271984134137
 30
0.0
 11
233.0695929804817865
 21
16.96101612032367
 31
0.0
  0
LINE
  5
9F24
  8
0
 10
232.9977428914525035
 20
16.9416070777981993
 30
0.0
 11
232.9977428914525035
 21
16.9432494357793999
 31
0.0
  0
ARC
  5
9F25
  8
0
 10
233.0022008220701082
 20
17.7967493701833384
 30
0.0
 40
0.9482043132655297
 50
269.4332478957720127
 51
280.7742566370174018
  0
ARC
  5
9F26
  8
0
 10
233.1320638646369048
 20
17.1143177490517893
 30
0.0
 40
0.2535264545821415
 50
280.7742566370174018
 51
297.8696084245481188
  0
ARC
  5
9F27
  8
0
 10
233.2375793404902993
 20
16.9147778229543313
 30
0.0
 40
0.0278060572947972
 50
297.8696084245481188
 51
349.3269814433912188
  0
ARC
  5
9F28
  8
0
 10
233.2495211826484081
 20
16.90594919076986
 30
0.0
 40
0.0158169492598284
 50
13.4495146853915895
 51
55.1049543515142233
  0
LINE
  5
9F29
  8
0
 10
232.9928216316525891
 20
16.9427499939981985
 30
0.0
 11
232.9928216316525891
 21
16.9558783579981913
 31
0.0
  0
ENDSEC
  0
EOF
