  0
SECTION
  2
HEADER
  9
$ACADVER
  1
AC1009
  9
$INSBASE
 10
250.1185257215364004
 20
-0.9782080119748854
 30
0.0
  9
$EXTMIN
 10
240.3081336332265039
 20
-0.9790031684342395
 30
-0.0000000349181948
  9
$EXTMAX
 10
259.9411507348746113
 20
4.0028195497952694
 30
0.0000000814935746
  9
$LIMMIN
 10
0.0
 20
0.0
  9
$LIMMAX
 10
22.0
 20
17.0
  9
$ORTHOMODE
 70
     0
  9
$REGENMODE
 70
     1
  9
$FILLMODE
 70
     1
  9
$QTEXTMODE
 70
     0
  9
$MIRRTEXT
 70
     0
  9
$DRAGMODE
 70
     2
  9
$LTSCALE
 40
1.2099999999999991
  9
$OSMODE
 70
     7
  9
$ATTMODE
 70
     1
  9
$TEXTSIZE
 40
0.2
  9
$TRACEWID
 40
0.05
  9
$TEXTSTYLE
  7
STANDARD
  9
$CLAYER
  8
0
  9
$CELTYPE
  6
BYLAYER
  9
$CECOLOR
 62
   256
  9
$DIMSCALE
 40
1.0
  9
$DIMASZ
 40
0.1875
  9
$DIMEXO
 40
0.0625
  9
$DIMDLI
 40
0.38
  9
$DIMRND
 40
0.0
  9
$DIMDLE
 40
0.0
  9
$DIMEXE
 40
0.125
  9
$DIMTP
 40
1.5
  9
$DIMTM
 40
1.5
  9
$DIMTXT
 40
1.5
  9
$DIMCEN
 40
0.09
  9
$DIMTSZ
 40
0.0
  9
$DIMTOL
 70
     0
  9
$DIMLIM
 70
     0
  9
$DIMTIH
 70
     1
  9
$DIMTOH
 70
     1
  9
$DIMSE1
 70
     0
  9
$DIMSE2
 70
     0
  9
$DIMTAD
 70
     0
  9
$DIMZIN
 70
     4
  9
$DIMBLK
  1

  9
$DIMASO
 70
     1
  9
$DIMSHO
 70
     1
  9
$DIMPOST
  1

  9
$DIMAPOST
  1

  9
$DIMALT
 70
     0
  9
$DIMALTD
 70
     2
  9
$DIMALTF
 40
25.3999999999999986
  9
$DIMLFAC
 40
1.0
  9
$DIMTOFL
 70
     0
  9
$DIMTVP
 40
0.0
  9
$DIMTIX
 70
     0
  9
$DIMSOXD
 70
     0
  9
$DIMSAH
 70
     0
  9
$DIMBLK1
  1

  9
$DIMBLK2
  1

  9
$DIMSTYLE
  2
STANDARD
  9
$DIMCLRD
 70
     0
  9
$DIMCLRE
 70
     0
  9
$DIMCLRT
 70
     0
  9
$DIMTFAC
 40
1.0
  9
$DIMGAP
 40
0.09
  9
$LUNITS
 70
     2
  9
$LUPREC
 70
     4
  9
$SKETCHINC
 40
0.1
  9
$FILLETRAD
 40
0.0
  9
$AUNITS
 70
     0
  9
$AUPREC
 70
     0
  9
$MENU
  1
.
  9
$ELEVATION
 40
0.0
  9
$PELEVATION
 40
0.0
  9
$THICKNESS
 40
0.0
  9
$LIMCHECK
 70
     0
  9
$BLIPMODE
 70
     0
  9
$CHAMFERA
 40
0.0
  9
$CHAMFERB
 40
0.0
  9
$SKPOLY
 70
     0
  9
$TDCREATE
 40
2457827.4934837957844138
  9
$TDUPDATE
 40
2459545.6070833331905305
  9
$TDINDWG
 40
0.4079996528
  9
$TDUSRTIMER
 40
0.4079996528
  9
$USRTIMER
 70
     1
  9
$ANGBASE
 50
0.0
  9
$ANGDIR
 70
     0
  9
$PDMODE
 70
     0
  9
$PDSIZE
 40
0.3125
  9
$PLINEWID
 40
0.0
  9
$COORDS
 70
     1
  9
$SPLFRAME
 70
     0
  9
$SPLINETYPE
 70
     6
  9
$SPLINESEGS
 70
     8
  9
$ATTDIA
 70
     1
  9
$ATTREQ
 70
     1
  9
$HANDLING
 70
     1
  9
$HANDSEED
  5
59EE
  9
$SURFTAB1
 70
     6
  9
$SURFTAB2
 70
     6
  9
$SURFTYPE
 70
     6
  9
$SURFU
 70
     6
  9
$SURFV
 70
     6
  9
$UCSNAME
  2

  9
$UCSORG
 10
0.0
 20
0.0
 30
0.0
  9
$UCSXDIR
 10
1.0
 20
0.0
 30
0.0
  9
$UCSYDIR
 10
0.0
 20
1.0
 30
0.0
  9
$PUCSNAME
  2

  9
$PUCSORG
 10
0.0
 20
0.0
 30
0.0
  9
$PUCSXDIR
 10
1.0
 20
0.0
 30
0.0
  9
$PUCSYDIR
 10
0.0
 20
1.0
 30
0.0
  9
$USERI1
 70
     0
  9
$USERI2
 70
     0
  9
$USERI3
 70
     0
  9
$USERI4
 70
     0
  9
$USERI5
 70
     0
  9
$USERR1
 40
0.0
  9
$USERR2
 40
0.0
  9
$USERR3
 40
0.0
  9
$USERR4
 40
0.0
  9
$USERR5
 40
0.0
  9
$WORLDVIEW
 70
     1
  9
$SHADEDGE
 70
     3
  9
$SHADEDIF
 70
    70
  9
$TILEMODE
 70
     1
  9
$MAXACTVP
 70
    48
  9
$PLIMCHECK
 70
     0
  9
$PEXTMIN
 10
1.0000000000000000E+20
 20
1.0000000000000000E+20
 30
1.0000000000000000E+20
  9
$PEXTMAX
 10
-1.0000000000000000E+20
 20
-1.0000000000000000E+20
 30
-1.0000000000000000E+20
  9
$PLIMMIN
 10
0.0
 20
0.0
  9
$PLIMMAX
 10
12.0
 20
9.0
  9
$UNITMODE
 70
     0
  9
$VISRETAIN
 70
     1
  9
$PLINEGEN
 70
     0
  9
$PSLTSCALE
 70
     1
  0
ENDSEC
  0
SECTION
  2
TABLES
  0
TABLE
  2
VPORT
 70
     1
  0
VPORT
  2
*ACTIVE
 70
     0
 10
0.0
 20
0.0
 11
1.0
 21
1.0
 12
39.1457145717458275
 22
-5.6905409948800454
 13
0.0
 23
0.0
 14
1.0
 24
1.0
 15
0.0
 25
0.0
 16
-0.0000000000000284
 26
0.0
 36
157.2215818301446859
 17
210.9789276123046875
 27
7.2024491855605604
 37
0.0
 40
8.6260430166912716
 41
2.2831541218637992
 42
50.0
 43
0.0
 44
0.0
 50
0.0
 51
0.0
 71
     0
 72
   100
 73
     1
 74
     1
 75
     0
 76
     0
 77
     0
 78
     0
  0
ENDTAB
  0
TABLE
  2
LTYPE
 70
     2
  0
LTYPE
  2
CONTINUOUS
 70
     0
  3
Solid line
 72
    65
 73
     0
 40
0.0
  0
LTYPE
  2
PHANTOM2
 70
     0
  3
___ _ _ ___ _ _ ___ _ _ ___ _ _
 72
    65
 73
     6
 40
1.25
 49
0.625
 49
-0.125
 49
0.125
 49
-0.125
 49
0.125
 49
-0.125
  0
ENDTAB
  0
TABLE
  2
LAYER
 70
     2
  0
LAYER
  2
0
 70
     0
 62
     7
  6
CONTINUOUS
  0
LAYER
  2
DEFPOINTS
 70
     0
 62
     7
  6
CONTINUOUS
  0
ENDTAB
  0
TABLE
  2
STYLE
 70
     1
  0
STYLE
  2
STANDARD
 70
     0
 40
0.0
 41
0.8
 50
0.0
 71
     0
 42
0.2
  3
txt
  4

  0
ENDTAB
  0
TABLE
  2
VIEW
 70
     0
  0
ENDTAB
  0
TABLE
  2
UCS
 70
     0
  0
ENDTAB
  0
TABLE
  2
APPID
 70
     9
  0
APPID
  2
ACAD
 70
     0
  0
APPID
  2
ACAD_MLEADERVER
 70
     0
  0
APPID
  2
ACAD_EXEMPT_FROM_CAD_STANDARDS
 70
     0
  0
APPID
  2
ACAD_NAV_VCDISPLAY
 70
     0
  0
APPID
  2
ACADANNOMONITORALERTICONDI
 70
     0
  0
APPID
  2
ACAD_DSTYLE_DIMJAG
 70
     0
  0
APPID
  2
ACAD_DSTYLE_DIMTALN
 70
     0
  0
APPID
  2
ACDBATTR
 70
     0
  0
APPID
  2
DCO15
 70
     0
  0
ENDTAB
  0
TABLE
  2
DIMSTYLE
 70
     1
  0
DIMSTYLE
  2
STANDARD
 70
     0
  3

  4

  5

  6

  7

 40
1.0
 41
0.1875
 42
0.0625
 43
0.38
 44
0.125
 45
0.0
 46
0.0
 47
1.5
 48
1.5
140
1.5
141
0.09
142
0.0
143
25.3999999999999986
144
1.0
145
0.0
146
1.0
147
0.09
 71
     0
 72
     0
 73
     1
 74
     1
 75
     0
 76
     0
 77
     0
 78
     4
170
     0
171
     2
172
     0
173
     0
174
     0
175
     0
176
     0
177
     0
178
     0
  0
ENDTAB
  0
ENDSEC
  0
SECTION
  2
BLOCKS
  0
BLOCK
  8
0
  2
$MODEL_SPACE
 70
     0
 10
0.0
 20
0.0
 30
0.0
  3
$MODEL_SPACE
  1

  0
ENDBLK
  5
21
  8
0
  0
BLOCK
 67
     1
  8
0
  2
$PAPER_SPACE
 70
     0
 10
0.0
 20
0.0
 30
0.0
  3
$PAPER_SPACE
  1

  0
ENDBLK
  5
1D
 67
     1
  8
0
  0
ENDSEC
  0
SECTION
  2
ENTITIES
  0
ATTDEF
  5
4EF9
  8
DEFPOINTS
 10
250.118560894102103
 20
-0.9748296611919577
 30
0.0
 40
0.001
  1
K-GB112K-56
  3

  2
MODELNUMBER
 70
     0
1001
ACDBATTR
1070
     0
1070
     1
  0
ATTDEF
  5
4EFA
  8
DEFPOINTS
 10
250.118560894102103
 20
-0.976496327858637
 30
0.0
 40
0.001
  1
MODERNLIFE
  3

  2
TRADENAME
 70
     0
1001
ACDBATTR
1070
     0
1070
     1
  0
ATTDEF
  5
4EFB
  8
DEFPOINTS
 10
250.118560894102103
 20
-0.9781629945253165
 30
0.0
 40
0.001
  1
BATHROOM SINK
  3

  2
PRODUCT
 70
     0
1001
ACDBATTR
1070
     0
1070
     1
  0
LINE
  5
58A3
  8
0
 10
240.5086079233961982
 20
4.0019959788631558
 30
0.0
 11
259.7284435196763752
 21
4.0019959788631558
 31
0.0
  0
LINE
  5
58A4
  8
0
 10
259.4820972635487806
 20
1.836673367725111
 30
0.0
 11
240.7549541795237928
 21
1.836673367725111
 31
0.0
  0
LINE
  5
58A5
  8
0
 10
251.4285647711425042
 20
-0.9782080119748854
 30
0.0
 11
248.8084866719300976
 21
-0.9782080119748854
 31
0.0
  0
LINE
  5
58A6
  8
0
 10
248.6909201918363976
 20
-0.8714181401748817
 30
0.0
 11
248.565557959136413
 21
0.4305184249251184
 31
0.0
  0
LINE
  5
58A7
  8
0
 10
243.5282137091099912
 20
0.5267762820251179
 30
0.0
 11
242.6051484672362903
 21
0.5267762820251179
 31
0.0
  0
LINE
  5
58A8
  8
0
 10
242.1611991544363036
 20
0.837632906725112
 30
0.0
 11
241.9107205829363068
 21
1.5258167748251159
 31
0.0
  0
LINE
  5
58A9
  8
0
 10
240.6386383032362914
 20
1.934273976625114
 30
0.0
 11
240.3147913765363057
 21
3.7709011645251129
 31
0.0
  0
ARC
  5
58AA
  8
0
 10
240.5087080619161952
 20
3.805088739045523
 30
0.0
 40
0.1969072652806954
 50
90.0291381570284273
 51
189.9985187474804036
  0
ARC
  5
58AB
  8
0
 10
240.7549541795237928
 20
1.9547836038907529
 30
0.0
 40
0.1181102361656396
 50
189.9999999958947114
 51
270.0000000060658749
  0
ARC
  5
58AC
  8
0
 10
241.4667711807929891
 20
1.364232216851291
 30
0.0
 40
0.472441150873826
 50
20.0000216611765609
 51
89.9999928645361962
  0
ARC
  5
58AD
  8
0
 10
242.6051484739687112
 20
0.9992172983884231
 30
0.0
 40
0.4724410163633097
 50
200.0000061346783866
 51
269.9999991835323954
  0
ARC
  5
58AE
  8
0
 10
243.5281492274733921
 20
0.9990054565501438
 30
0.0
 40
0.4722291789274232
 50
270.0078235862118845
 51
297.3466550108067281
  0
ARC
  5
58AF
  8
0
 10
244.2881999497278969
 20
-0.4728338683712679
 30
0.0
 40
1.1842696916079181
 50
85.9094018203507375
 51
117.2976385595079023
  0
ARC
  5
58B0
  8
0
 10
242.4963596559585994
 20
-24.5774519226619717
 30
0.0
 40
25.3553906516078591
 50
85.1028062947372348
 51
85.7561882617067965
  0
ARC
  5
58B1
  8
0
 10
244.775791367259103
 20
0.7146427819841535
 30
0.0
 40
0.1185581256854171
 50
186.1779967919540866
 51
262.2103286995459257
  0
LINE
  5
58B2
  8
0
 10
244.6579217838364002
 20
0.7018838451251171
 30
0.0
 11
244.6527651493684914
 21
0.750897817826548
 31
0.0
  0
ARC
  5
58B3
  8
0
 10
247.6343081277111935
 20
21.8878546101113791
 30
0.0
 40
21.4838573134108906
 50
262.3106416863666936
 51
264.5728682170941966
  0
ARC
  5
58B4
  8
0
 10
247.4591987517345899
 20
20.2574876583121117
 30
0.0
 40
19.8442472307481914
 50
264.6309738333408177
 51
265.0731341711992854
  0
ARC
  5
58B5
  8
0
 10
245.7640029667682882
 20
0.6067473917572599
 30
0.0
 40
0.1205298812147492
 50
265.6655349754909139
 51
292.1419468899003959
  0
ARC
  5
58B6
  8
0
 10
245.9296117197787055
 20
-2.7986982493747159
 30
0.0
 40
3.295996266346402
 50
89.4172841772183062
 51
92.0896188684921384
  0
ARC
  5
58B7
  8
0
 10
245.898567824988703
 20
-12.17843827363283
 30
0.0
 40
12.6757302640757903
 50
88.4279906248763155
 51
89.7081591248428083
  0
ARC
  5
58B8
  8
0
 10
245.5827311916829103
 20
-22.7664173498435716
 30
0.0
 40
23.2684025544577899
 50
87.3738500300511731
 51
88.3658040839550267
  0
ARC
  5
58B9
  8
0
 10
247.7819665281321022
 20
24.1093944755208014
 30
0.0
 40
23.6589960943417985
 50
267.2548781729988718
 51
271.2626285004487272
  0
ARC
  5
58BA
  8
0
 10
248.303418787830708
 20
0.5365203973793911
 30
0.0
 40
0.0803775746492448
 50
269.9140467234033167
 51
287.3432308009947178
  0
ARC
  5
58BB
  8
0
 10
248.6782864281927061
 20
-4.1361886849585536
 30
0.0
 40
4.6093623591899382
 50
91.3689040320284533
 51
94.366111250910663
  0
ARC
  5
58BC
  8
0
 10
223.7906924218276004
 20
670.6036771277800881
 30
0.0
 40
670.5897241960070687
 50
272.1174916515225277
 51
272.1751368795668213
  0
ARC
  5
58BD
  8
0
 10
248.8084866719300976
 20
-0.860097775790912
 30
0.0
 40
0.1181102361839723
 50
185.4999999593439952
 51
270.0000000030045157
  0
ARC
  5
58BE
  8
0
 10
242.6235587439713015
 20
3.1873924777084559
 30
0.0
 40
1.6456371283322051
 50
235.1637476105894962
 51
246.2997627622877133
  0
ARC
  5
58BF
  8
0
 10
244.2980068011831065
 20
6.8317363546354102
 30
0.0
 40
5.6560807734498288
 50
245.6070914628141963
 51
253.9653675949807905
  0
ARC
  5
58C0
  8
0
 10
245.4533007873685904
 20
10.7782804850102103
 30
0.0
 40
9.7682186091711323
 50
253.8466532610588047
 51
256.0160152044670099
  0
ARC
  5
58C1
  8
0
 10
240.6185020906227976
 20
-8.4786687313112097
 30
0.0
 40
10.0864225151261202
 50
68.2904737181685704
 51
75.7998349052370344
  0
ARC
  5
58C2
  8
0
 10
241.4893916970877967
 20
-6.0126492823642792
 30
0.0
 40
7.4738826871964781
 50
65.7957578803728609
 51
67.5003364533874617
  0
ARC
  5
58C3
  8
0
 10
244.1369339314265119
 20
-0.0897295048571394
 30
0.0
 40
0.9862738671615939
 50
58.4656178501539472
 51
65.0088578028697839
  0
LINE
  5
58C4
  8
0
 10
251.5461312512364032
 20
-0.8714181401748817
 30
0.0
 11
251.6714934839363025
 21
0.4305184249251184
 31
0.0
  0
LINE
  5
58C5
  8
0
 10
256.7088377339626959
 20
0.5267762820251179
 30
0.0
 11
257.6319029758363968
 21
0.5267762820251179
 31
0.0
  0
LINE
  5
58C6
  8
0
 10
258.0758522886363266
 20
0.837632906725112
 30
0.0
 11
258.3263308601364088
 21
1.5258167748251159
 31
0.0
  0
LINE
  5
58C7
  8
0
 10
259.598413139836282
 20
1.934273976625114
 30
0.0
 11
259.9222600665362961
 21
3.7709011645251129
 31
0.0
  0
ARC
  5
58C8
  8
0
 10
259.7283433811563782
 20
3.805088739045523
 30
0.0
 40
0.1969072652806954
 50
350.0014812525195111
 51
89.970861842971587
  0
ARC
  5
58C9
  8
0
 10
259.4820972635487806
 20
1.9547836038907529
 30
0.0
 40
0.1181102361656396
 50
269.9999999939341251
 51
350.0000000041051749
  0
ARC
  5
58CA
  8
0
 10
258.7702802622795843
 20
1.364232216851291
 30
0.0
 40
0.472441150873826
 50
90.0000071354637896
 51
159.9999783388234107
  0
ARC
  5
58CB
  8
0
 10
257.6319029691039759
 20
0.9992172983884231
 30
0.0
 40
0.4724410163633097
 50
270.0000008164676046
 51
339.9999938653215281
  0
ARC
  5
58CC
  8
0
 10
256.7089022155993234
 20
0.9990054565501438
 30
0.0
 40
0.4722291789274232
 50
242.6533449891931866
 51
269.9921764137881155
  0
ARC
  5
58CD
  8
0
 10
255.9488514933447902
 20
-0.4728338683712679
 30
0.0
 40
1.1842696916079181
 50
62.7023614404934975
 51
94.0905981796492625
  0
ARC
  5
58CE
  8
0
 10
257.7406917871140877
 20
-24.5774519226619717
 30
0.0
 40
25.3553906516078591
 50
94.2438117382932035
 51
94.8971937052627936
  0
ARC
  5
58CF
  8
0
 10
255.4612600758134988
 20
0.7146427819841535
 30
0.0
 40
0.1185581256854171
 50
277.7896713004540743
 51
353.8220032080458282
  0
LINE
  5
58D0
  8
0
 10
255.5791296592364006
 20
0.7018838451251171
 30
0.0
 11
255.5842862937041957
 21
0.750897817826548
 31
0.0
  0
ARC
  5
58D1
  8
0
 10
252.6027433153614936
 20
21.8878546101113791
 30
0.0
 40
21.4838573134108906
 50
275.4271317829058034
 51
277.6893583136317147
  0
ARC
  5
58D2
  8
0
 10
252.7778526913380972
 20
20.2574876583121117
 30
0.0
 40
19.8442472307481914
 50
274.9268658287991229
 51
275.3690261666591255
  0
ARC
  5
58D3
  8
0
 10
254.4730484763045126
 20
0.6067473917572599
 30
0.0
 40
0.1205298812147492
 50
247.8580531100996041
 51
274.3344650245089724
  0
ARC
  5
58D4
  8
0
 10
254.30743972329401
 20
-2.7986982493747159
 30
0.0
 40
3.295996266346402
 50
87.9103811315078616
 51
90.5827158227816795
  0
ARC
  5
58D5
  8
0
 10
254.3384836180840125
 20
-12.17843827363283
 30
0.0
 40
12.6757302640757903
 50
90.2918408751555859
 51
91.5720093751236845
  0
ARC
  5
58D6
  8
0
 10
254.6543202513898052
 20
-22.7664173498435716
 30
0.0
 40
23.2684025544577899
 50
91.6341959160449591
 51
92.6261499699488411
  0
ARC
  5
58D7
  8
0
 10
252.4550849149406133
 20
24.1093944755208014
 30
0.0
 40
23.6589960943417985
 50
268.7373714995512728
 51
272.7451218270010145
  0
ARC
  5
58D8
  8
0
 10
251.9336326552418939
 20
0.5365203973793911
 30
0.0
 40
0.0803775746492448
 50
252.6567691990036906
 51
270.0859532765966833
  0
ARC
  5
58D9
  8
0
 10
251.5587650148800094
 20
-4.1361886849585536
 30
0.0
 40
4.6093623591899382
 50
85.6338887490893654
 51
88.6310959679715324
  0
ARC
  5
58DA
  8
0
 10
276.4463590212450868
 20
670.6036771277800881
 30
0.0
 40
670.5897241960070687
 50
267.8248631204331787
 51
267.8825083484774723
  0
ARC
  5
58DB
  8
0
 10
251.4285647711425042
 20
-0.860097775790912
 30
0.0
 40
0.1181102361839723
 50
269.9999999969954843
 51
354.5000000406560048
  0
ARC
  5
58DC
  8
0
 10
257.613492699101414
 20
3.1873924777084559
 30
0.0
 40
1.6456371283322051
 50
293.7002372377122015
 51
304.8362523894106175
  0
ARC
  5
58DD
  8
0
 10
255.939044641889609
 20
6.8317363546354102
 30
0.0
 40
5.6560807734498288
 50
286.0346324050191811
 51
294.3929085371859173
  0
ARC
  5
58DE
  8
0
 10
254.7837506557040967
 20
10.7782804850102103
 30
0.0
 40
9.7682186091711323
 50
283.9839847955329901
 51
286.153346738941309
  0
ARC
  5
58DF
  8
0
 10
259.6185493524499179
 20
-8.4786687313112097
 30
0.0
 40
10.0864225151261202
 50
104.2001650947645999
 51
111.7095262818298949
  0
ARC
  5
58E0
  8
0
 10
258.7476597459850041
 20
-6.0126492823642792
 30
0.0
 40
7.4738826871964781
 50
112.4996635466123962
 51
114.2042421196270965
  0
ARC
  5
58E1
  8
0
 10
256.1001175116462036
 20
-0.0897295048571394
 30
0.0
 40
0.9862738671615939
 50
114.9911421971302019
 51
121.534382149845996
  0
ARC
  5
58E2
  8
0
 10
250.1185257215362014
 20
-20.3595732437607992
 30
0.0
 40
20.8750937075859113
 50
87.5945314705405593
 51
92.4054685294594549
  0
ARC
  5
58E3
  8
0
 10
248.4871825655663997
 20
0.4229726992220009
 30
0.0
 40
0.078737794569218
 50
5.4993000485031072
 51
37.9259800624812371
  0
ARC
  5
58E4
  8
0
 10
251.7500313690852067
 20
0.4228440772639815
 30
0.0
 40
0.0789119446958521
 50
142.0552100624599063
 51
174.4190474220270062
  0
ENDSEC
  0
EOF
