  0
SECTION
  2
HEADER
  9
$ACADVER
  1
AC1009
  9
$INSBASE
 10
283.4737158955807104
 20
-6.6738941070063396
 30
0.0
  9
$EXTMIN
 10
273.6605398164039116
 20
-16.4846677546824303
 30
-0.0000000349181948
  9
$EXTMAX
 10
293.2978081641343238
 20
-6.6669892352145013
 30
0.0000000814935746
  9
$LIMMIN
 10
0.0
 20
0.0
  9
$LIMMAX
 10
22.0
 20
17.0
  9
$ORTHOMODE
 70
     1
  9
$REGENMODE
 70
     1
  9
$FILLMODE
 70
     1
  9
$QTEXTMODE
 70
     0
  9
$MIRRTEXT
 70
     0
  9
$DRAGMODE
 70
     2
  9
$LTSCALE
 40
1.2099999999999991
  9
$OSMODE
 70
     7
  9
$ATTMODE
 70
     1
  9
$TEXTSIZE
 40
0.2
  9
$TRACEWID
 40
0.05
  9
$TEXTSTYLE
  7
STANDARD
  9
$CLAYER
  8
0
  9
$CELTYPE
  6
BYLAYER
  9
$CECOLOR
 62
   256
  9
$DIMSCALE
 40
1.0
  9
$DIMASZ
 40
0.1875
  9
$DIMEXO
 40
0.0625
  9
$DIMDLI
 40
0.38
  9
$DIMRND
 40
0.0
  9
$DIMDLE
 40
0.0
  9
$DIMEXE
 40
0.125
  9
$DIMTP
 40
1.5
  9
$DIMTM
 40
1.5
  9
$DIMTXT
 40
1.5
  9
$DIMCEN
 40
0.09
  9
$DIMTSZ
 40
0.0
  9
$DIMTOL
 70
     0
  9
$DIMLIM
 70
     0
  9
$DIMTIH
 70
     1
  9
$DIMTOH
 70
     1
  9
$DIMSE1
 70
     0
  9
$DIMSE2
 70
     0
  9
$DIMTAD
 70
     0
  9
$DIMZIN
 70
     4
  9
$DIMBLK
  1

  9
$DIMASO
 70
     1
  9
$DIMSHO
 70
     1
  9
$DIMPOST
  1

  9
$DIMAPOST
  1

  9
$DIMALT
 70
     0
  9
$DIMALTD
 70
     2
  9
$DIMALTF
 40
25.3999999999999986
  9
$DIMLFAC
 40
1.0
  9
$DIMTOFL
 70
     0
  9
$DIMTVP
 40
0.0
  9
$DIMTIX
 70
     0
  9
$DIMSOXD
 70
     0
  9
$DIMSAH
 70
     0
  9
$DIMBLK1
  1

  9
$DIMBLK2
  1

  9
$DIMSTYLE
  2
STANDARD
  9
$DIMCLRD
 70
     0
  9
$DIMCLRE
 70
     0
  9
$DIMCLRT
 70
     0
  9
$DIMTFAC
 40
1.0
  9
$DIMGAP
 40
0.09
  9
$LUNITS
 70
     2
  9
$LUPREC
 70
     4
  9
$SKETCHINC
 40
0.1
  9
$FILLETRAD
 40
0.0
  9
$AUNITS
 70
     0
  9
$AUPREC
 70
     0
  9
$MENU
  1
.
  9
$ELEVATION
 40
0.0
  9
$PELEVATION
 40
0.0
  9
$THICKNESS
 40
0.0
  9
$LIMCHECK
 70
     0
  9
$BLIPMODE
 70
     0
  9
$CHAMFERA
 40
0.0
  9
$CHAMFERB
 40
0.0
  9
$SKPOLY
 70
     0
  9
$TDCREATE
 40
2457827.4934837957844138
  9
$TDUPDATE
 40
2459545.6071875002235174
  9
$TDINDWG
 40
0.4089487269
  9
$TDUSRTIMER
 40
0.4089487269
  9
$USRTIMER
 70
     1
  9
$ANGBASE
 50
0.0
  9
$ANGDIR
 70
     0
  9
$PDMODE
 70
     0
  9
$PDSIZE
 40
0.3125
  9
$PLINEWID
 40
0.0
  9
$COORDS
 70
     1
  9
$SPLFRAME
 70
     0
  9
$SPLINETYPE
 70
     6
  9
$SPLINESEGS
 70
     8
  9
$ATTDIA
 70
     1
  9
$ATTREQ
 70
     1
  9
$HANDLING
 70
     1
  9
$HANDSEED
  5
5C67
  9
$SURFTAB1
 70
     6
  9
$SURFTAB2
 70
     6
  9
$SURFTYPE
 70
     6
  9
$SURFU
 70
     6
  9
$SURFV
 70
     6
  9
$UCSNAME
  2

  9
$UCSORG
 10
0.0
 20
0.0
 30
0.0
  9
$UCSXDIR
 10
1.0
 20
0.0
 30
0.0
  9
$UCSYDIR
 10
0.0
 20
1.0
 30
0.0
  9
$PUCSNAME
  2

  9
$PUCSORG
 10
0.0
 20
0.0
 30
0.0
  9
$PUCSXDIR
 10
1.0
 20
0.0
 30
0.0
  9
$PUCSYDIR
 10
0.0
 20
1.0
 30
0.0
  9
$USERI1
 70
     0
  9
$USERI2
 70
     0
  9
$USERI3
 70
     0
  9
$USERI4
 70
     0
  9
$USERI5
 70
     0
  9
$USERR1
 40
0.0
  9
$USERR2
 40
0.0
  9
$USERR3
 40
0.0
  9
$USERR4
 40
0.0
  9
$USERR5
 40
0.0
  9
$WORLDVIEW
 70
     1
  9
$SHADEDGE
 70
     3
  9
$SHADEDIF
 70
    70
  9
$TILEMODE
 70
     1
  9
$MAXACTVP
 70
    48
  9
$PLIMCHECK
 70
     0
  9
$PEXTMIN
 10
1.0000000000000000E+20
 20
1.0000000000000000E+20
 30
1.0000000000000000E+20
  9
$PEXTMAX
 10
-1.0000000000000000E+20
 20
-1.0000000000000000E+20
 30
-1.0000000000000000E+20
  9
$PLIMMIN
 10
0.0
 20
0.0
  9
$PLIMMAX
 10
12.0
 20
9.0
  9
$UNITMODE
 70
     0
  9
$VISRETAIN
 70
     1
  9
$PLINEGEN
 70
     0
  9
$PSLTSCALE
 70
     1
  0
ENDSEC
  0
SECTION
  2
TABLES
  0
TABLE
  2
VPORT
 70
     1
  0
VPORT
  2
*ACTIVE
 70
     0
 10
0.0
 20
0.0
 11
1.0
 21
1.0
 12
72.5002463779644017
 22
-18.7782776805090208
 13
0.0
 23
0.0
 14
1.0
 24
1.0
 15
0.0
 25
0.0
 16
-0.0000000000000284
 26
0.0
 36
157.2215818301446859
 17
210.9789276123046875
 27
7.2024491855605604
 37
0.0
 40
9.8879721604187765
 41
2.2831541218637992
 42
50.0
 43
0.0
 44
0.0
 50
0.0
 51
0.0
 71
     0
 72
   100
 73
     1
 74
     1
 75
     0
 76
     0
 77
     0
 78
     0
  0
ENDTAB
  0
TABLE
  2
LTYPE
 70
     2
  0
LTYPE
  2
CONTINUOUS
 70
     0
  3
Solid line
 72
    65
 73
     0
 40
0.0
  0
LTYPE
  2
PHANTOM2
 70
     0
  3
___ _ _ ___ _ _ ___ _ _ ___ _ _
 72
    65
 73
     6
 40
1.25
 49
0.625
 49
-0.125
 49
0.125
 49
-0.125
 49
0.125
 49
-0.125
  0
ENDTAB
  0
TABLE
  2
LAYER
 70
     2
  0
LAYER
  2
0
 70
     0
 62
     7
  6
CONTINUOUS
  0
LAYER
  2
DEFPOINTS
 70
     0
 62
     7
  6
CONTINUOUS
  0
ENDTAB
  0
TABLE
  2
STYLE
 70
     1
  0
STYLE
  2
STANDARD
 70
     0
 40
0.0
 41
0.8
 50
0.0
 71
     0
 42
0.2
  3
txt
  4

  0
ENDTAB
  0
TABLE
  2
VIEW
 70
     0
  0
ENDTAB
  0
TABLE
  2
UCS
 70
     0
  0
ENDTAB
  0
TABLE
  2
APPID
 70
     9
  0
APPID
  2
ACAD
 70
     0
  0
APPID
  2
ACAD_MLEADERVER
 70
     0
  0
APPID
  2
ACAD_EXEMPT_FROM_CAD_STANDARDS
 70
     0
  0
APPID
  2
ACAD_NAV_VCDISPLAY
 70
     0
  0
APPID
  2
ACADANNOMONITORALERTICONDI
 70
     0
  0
APPID
  2
ACAD_DSTYLE_DIMJAG
 70
     0
  0
APPID
  2
ACAD_DSTYLE_DIMTALN
 70
     0
  0
APPID
  2
ACDBATTR
 70
     0
  0
APPID
  2
DCO15
 70
     0
  0
ENDTAB
  0
TABLE
  2
DIMSTYLE
 70
     1
  0
DIMSTYLE
  2
STANDARD
 70
     0
  3

  4

  5

  6

  7

 40
1.0
 41
0.1875
 42
0.0625
 43
0.38
 44
0.125
 45
0.0
 46
0.0
 47
1.5
 48
1.5
140
1.5
141
0.09
142
0.0
143
25.3999999999999986
144
1.0
145
0.0
146
1.0
147
0.09
 71
     0
 72
     0
 73
     1
 74
     1
 75
     0
 76
     0
 77
     0
 78
     4
170
     0
171
     2
172
     0
173
     0
174
     0
175
     0
176
     0
177
     0
178
     0
  0
ENDTAB
  0
ENDSEC
  0
SECTION
  2
BLOCKS
  0
BLOCK
  8
0
  2
$MODEL_SPACE
 70
     0
 10
0.0
 20
0.0
 30
0.0
  3
$MODEL_SPACE
  1

  0
ENDBLK
  5
21
  8
0
  0
BLOCK
 67
     1
  8
0
  2
$PAPER_SPACE
 70
     0
 10
0.0
 20
0.0
 30
0.0
  3
$PAPER_SPACE
  1

  0
ENDBLK
  5
1D
 67
     1
  8
0
  0
ENDSEC
  0
SECTION
  2
ENTITIES
  0
ATTDEF
  5
4EF9
  8
DEFPOINTS
 10
283.4737441059183993
 20
-6.670535825444456
 30
0.0
 40
0.001
  1
K-GB112K-56
  3

  2
MODELNUMBER
 70
     0
1001
ACDBATTR
1070
     0
1070
     1
  0
ATTDEF
  5
4EFA
  8
DEFPOINTS
 10
283.4737441059183993
 20
-6.6722024921111363
 30
0.0
 40
0.001
  1
MODERNLIFE
  3

  2
TRADENAME
 70
     0
1001
ACDBATTR
1070
     0
1070
     1
  0
ATTDEF
  5
4EFB
  8
DEFPOINTS
 10
283.4737441059183993
 20
-6.6738691587778147
 30
0.0
 40
0.001
  1
BATHROOM SINK
  3

  2
PRODUCT
 70
     0
1001
ACDBATTR
1070
     0
1070
     1
  0
LINE
  5
5B5B
  8
0
 10
273.7850402509678815
 20
-6.6738941070063396
 30
0.0
 11
293.1623915401934823
 21
-6.6738941070063396
 31
0.0
  0
LINE
  5
5B5C
  8
0
 10
273.6669909706798762
 20
-15.8538381039082896
 30
0.0
 11
273.6669909706798762
 21
-6.7919638085309444
 31
0.0
  0
LINE
  5
5B5D
  8
0
 10
274.2957387644066216
 20
-16.4825869934651692
 30
0.0
 11
292.6516930267547991
 21
-16.4825869934651692
 31
0.0
  0
ARC
  5
5B5E
  8
0
 10
274.2958191705517947
 20
-15.8537587937324993
 30
0.0
 40
0.6288282048732962
 50
180.0072263589989063
 51
269.992673781580379
  0
CIRCLE
  5
5B60
  8
0
 10
283.4737158955807104
 20
-11.5953635677563405
 30
0.0
 40
0.9096327525000003
  0
ARC
  5
5B61
  8
0
 10
273.7850810356742954
 20
-6.7919841667126297
 30
0.0
 40
0.1180900667491906
 50
90.0197882146597692
 51
179.9901224778836877
  0
ARC
  5
5B62
  8
0
 10
279.3647920045168007
 20
-9.7015749345709921
 30
0.0
 40
1.5452365254531231
 50
108.737801296138997
 51
153.4092119361459936
  0
ARC
  5
5B63
  8
0
 10
280.2679119308211853
 20
-11.8307585300866602
 30
0.0
 40
3.8554929760142018
 50
97.3061119684860074
 51
111.283983784295998
  0
ARC
  5
5B64
  8
0
 10
281.7261411887433269
 20
-25.6768445569648591
 30
0.0
 40
17.7773853903989902
 50
90.3349358365394579
 51
96.2926873746889243
  0
ARC
  5
5B65
  8
0
 10
280.7791010921894781
 20
-10.2692260799462591
 30
0.0
 40
3.066605516082948
 50
155.7538936147774109
 51
173.0754077439248135
  0
ARC
  5
5B66
  8
0
 10
289.5905055054586228
 20
-11.1526789036773106
 30
0.0
 40
11.9216889109730904
 50
173.966094405989395
 51
179.4571793165567897
  0
ARC
  5
5B68
  8
0
 10
279.3647920045168007
 20
-13.4891522009416907
 30
0.0
 40
1.5452365254531231
 50
206.5907880638540064
 51
251.2621987038594966
  0
ARC
  5
5B69
  8
0
 10
280.2679119308211853
 20
-11.3599686054260207
 30
0.0
 40
3.8554929760142018
 50
248.716016215703803
 51
262.6938880315138931
  0
ARC
  5
5B6A
  8
0
 10
281.7261411887433269
 20
2.4861174214521711
 30
0.0
 40
17.7773853903989902
 50
263.70731262531109
 51
267.8473903468947128
  0
ARC
  5
5B6B
  8
0
 10
280.7791010921894781
 20
-12.92150105556642
 30
0.0
 40
3.066605516082948
 50
186.9245922560747886
 51
204.2461063852225891
  0
ARC
  5
5B6C
  8
0
 10
289.5905055054586228
 20
-12.0380482318353703
 30
0.0
 40
11.9216889109730904
 50
180.5428206834432103
 51
186.0339055940104913
  0
ARC
  5
5B6D
  8
0
 10
339.8970380329752743
 20
-11.5953635677563405
 30
0.0
 40
62.2301669645946305
 50
179.4884212918821049
 51
180.5115787081178098
  0
ARC
  5
5B6E
  8
0
 10
287.5826397866446769
 20
-9.7015749345709921
 30
0.0
 40
1.5452365254531231
 50
26.5907880638539815
 51
71.2621987038610598
  0
ARC
  5
5B6F
  8
0
 10
286.6795198603401786
 20
-11.8307585300866602
 30
0.0
 40
3.8554929760142018
 50
68.7160162157038314
 51
82.6938880315139784
  0
ARC
  5
5B70
  8
0
 10
285.2212906024180938
 20
-25.6768445569648591
 30
0.0
 40
17.7773853903989902
 50
83.7073126253110757
 51
89.6650641634605563
  0
ARC
  5
5B71
  8
0
 10
286.1683306989719995
 20
-10.2692260799462591
 30
0.0
 40
3.066605516082948
 50
6.9245922560752309
 51
24.2461063852225713
  0
ARC
  5
5B72
  8
0
 10
277.3569262857027979
 20
-11.1526789036773106
 30
0.0
 40
11.9216889109730904
 50
0.5428206834432227
 51
6.0339055940105659
  0
ARC
  5
5B73
  8
0
 10
287.5826397866446769
 20
-13.4891522009416907
 30
0.0
 40
1.5452365254531231
 50
288.7378012961405034
 51
333.4092119361461073
  0
ARC
  5
5B74
  8
0
 10
286.6795198603401786
 20
-11.3599686054260207
 30
0.0
 40
3.8554929760142018
 50
277.3061119684859932
 51
291.2839837842960264
  0
ARC
  5
5B75
  8
0
 10
285.2212906024180938
 20
2.4861174214521711
 30
0.0
 40
17.7773853903989902
 50
272.1526096531051735
 51
276.2926873746873184
  0
ARC
  5
5B76
  8
0
 10
286.1683306989719995
 20
-12.92150105556642
 30
0.0
 40
3.066605516082948
 50
335.7538936147777804
 51
353.0754077439248135
  0
ARC
  5
5B77
  8
0
 10
277.3569262857027979
 20
-12.0380482318353703
 30
0.0
 40
11.9216889109730904
 50
353.9660944059895087
 51
359.4571793165563918
  0
ARC
  5
5B78
  8
0
 10
227.0503937581860896
 20
-11.5953635677563405
 30
0.0
 40
62.2301669645946305
 50
359.4884212918821049
 51
0.5115787081178775
  0
ARC
  5
5B79
  8
0
 10
283.4737158955807104
 20
895.2223246417961491
 30
0.0
 40
903.1239854366541522
 50
269.8825377460436243
 51
270.1174622539563757
  0
LINE
  5
5B7A
  8
0
 10
285.8890320970618859
 20
-15.2787229272563501
 30
0.0
 11
281.058399694099478
 21
-15.2787229272563501
 31
0.0
  0
ARC
  5
5B7B
  8
0
 10
283.4737158955807104
 20
-9.5929346261227906
 30
0.0
 40
1.529951929471864
 50
81.8877204565789043
 51
98.1122795434210815
  0
ARC
  5
5B7C
  8
0
 10
283.1053529442663717
 20
-8.1777715074920039
 30
0.0
 40
0.0448575719597588
 50
135.7815134912119106
 51
224.2184865087762091
  0
ARC
  5
5B7D
  8
0
 10
283.1848115961760755
 20
-8.2595219448615111
 30
0.0
 40
0.1588486420727458
 50
108.0694886796493961
 51
134.6361655349982129
  0
ARC
  5
5B7E
  8
0
 10
283.3008222060345247
 20
-8.5478594924923286
 30
0.0
 40
0.4694122343317523
 50
103.4580510150894952
 51
110.6159030144791018
  0
ARC
  5
5B7F
  8
0
 10
283.3822861853454924
 20
-8.8850950211499864
 30
0.0
 40
0.8163471935574349
 50
98.7699920432914666
 51
103.5100627296936011
  0
ARC
  5
5B80
  8
0
 10
283.4737158955807104
 20
-7.3370247553371319
 30
0.0
 40
0.9816840905280294
 50
253.7760951344322962
 51
286.2239048655677038
  0
ARC
  5
5B81
  8
0
 10
283.1800722706718716
 20
-8.1195817505679102
 30
0.0
 40
0.1393781071198613
 50
219.9371064276963921
 51
239.1624295434270948
  0
ARC
  5
5B82
  8
0
 10
283.3186708159041132
 20
-7.8889834691542751
 30
0.0
 40
0.4084225399428691
 50
239.0504860721877947
 51
253.0266751807635899
  0
ARC
  5
5B83
  8
0
 10
283.8420788468948786
 20
-8.1777715074920039
 30
0.0
 40
0.0448575719597588
 50
315.7815134912236772
 51
44.2184865087880326
  0
ARC
  5
5B84
  8
0
 10
283.7626201949854021
 20
-8.2595219448615111
 30
0.0
 40
0.1588486420727458
 50
45.3638344650018013
 51
71.9305113203507034
  0
ARC
  5
5B85
  8
0
 10
283.6466095851270097
 20
-8.5478594924923286
 30
0.0
 40
0.4694122343317523
 50
69.3840969855208698
 51
76.5419489849104764
  0
ARC
  5
5B86
  8
0
 10
283.5651456058159283
 20
-8.8850950211499864
 30
0.0
 40
0.8163471935574349
 50
76.489937270306271
 51
81.2300079567085334
  0
ARC
  5
5B87
  8
0
 10
283.767359520489606
 20
-8.1195817505679102
 30
0.0
 40
0.1393781071198613
 50
300.8375704565727915
 51
320.0628935723034942
  0
ARC
  5
5B88
  8
0
 10
283.6287609752574213
 20
-7.8889834691542751
 30
0.0
 40
0.4084225399428691
 50
286.9733248192363817
 51
300.9495139278120064
  0
LINE
  5
5B89
  8
0
 10
293.2804408204814877
 20
-15.8538381039082896
 30
0.0
 11
293.2804408204814877
 21
-6.7919638085309444
 31
0.0
  0
ARC
  5
5B8A
  8
0
 10
292.651612620609626
 20
-15.8537587937324993
 30
0.0
 40
0.6288282048732997
 50
270.007326218419621
 51
359.9927736410011789
  0
ARC
  5
5B8B
  8
0
 10
293.1623507554871253
 20
-6.7919841667126297
 30
0.0
 40
0.1180900667491906
 50
0.0098775221163134
 51
89.9802117853402592
  0
ARC
  5
5B8C
  8
0
 10
287.5826397866446769
 20
-9.7015749345709921
 30
0.0
 40
1.5452365254531231
 50
26.5907880638539815
 51
71.2621987038610598
  0
ARC
  5
5B8D
  8
0
 10
286.6795198603401786
 20
-11.8307585300866602
 30
0.0
 40
3.8554929760142018
 50
68.7160162157038314
 51
82.6938880315139784
  0
ARC
  5
5B8E
  8
0
 10
285.2212906024180938
 20
-25.6768445569648591
 30
0.0
 40
17.7773853903989902
 50
83.7073126253110757
 51
89.6650641634605563
  0
ARC
  5
5B8F
  8
0
 10
286.1683306989719995
 20
-10.2692260799462591
 30
0.0
 40
3.066605516082948
 50
6.9245922560752309
 51
24.2461063852225713
  0
ARC
  5
5B90
  8
0
 10
277.3569262857027979
 20
-11.1526789036773106
 30
0.0
 40
11.9216889109730904
 50
0.5428206834432227
 51
6.0339055940105659
  0
ARC
  5
5B91
  8
0
 10
287.5826397866446769
 20
-13.4891522009416907
 30
0.0
 40
1.5452365254531231
 50
288.7378012961405034
 51
333.4092119361461073
  0
ARC
  5
5B92
  8
0
 10
286.6795198603401786
 20
-11.3599686054260207
 30
0.0
 40
3.8554929760142018
 50
277.3061119684859932
 51
291.2839837842960264
  0
ARC
  5
5B93
  8
0
 10
285.2212906024180938
 20
2.4861174214521711
 30
0.0
 40
17.7773853903989902
 50
272.1526096531051735
 51
276.2926873746873184
  0
ARC
  5
5B94
  8
0
 10
286.1683306989719995
 20
-12.92150105556642
 30
0.0
 40
3.066605516082948
 50
335.7538936147777804
 51
353.0754077439248135
  0
ARC
  5
5B95
  8
0
 10
277.3569262857027979
 20
-12.0380482318353703
 30
0.0
 40
11.9216889109730904
 50
353.9660944059895087
 51
359.4571793165563918
  0
ARC
  5
5B96
  8
0
 10
227.0503937581860896
 20
-11.5953635677563405
 30
0.0
 40
62.2301669645946305
 50
359.4884212918821049
 51
0.5115787081178775
  0
ARC
  5
5B97
  8
0
 10
283.4737158955807104
 20
-9.5929346261227906
 30
0.0
 40
1.529951929471864
 50
81.8877204565789043
 51
98.1122795434210815
  0
ARC
  5
5B98
  8
0
 10
283.8420788468948786
 20
-8.1777715074920039
 30
0.0
 40
0.0448575719597588
 50
315.7815134912236772
 51
44.2184865087880326
  0
ARC
  5
5B99
  8
0
 10
283.7626201949854021
 20
-8.2595219448615111
 30
0.0
 40
0.1588486420727458
 50
45.3638344650018013
 51
71.9305113203507034
  0
ARC
  5
5B9A
  8
0
 10
283.6466095851270097
 20
-8.5478594924923286
 30
0.0
 40
0.4694122343317523
 50
69.3840969855208698
 51
76.5419489849104764
  0
ARC
  5
5B9B
  8
0
 10
283.5651456058159283
 20
-8.8850950211499864
 30
0.0
 40
0.8163471935574349
 50
76.489937270306271
 51
81.2300079567085334
  0
ARC
  5
5B9C
  8
0
 10
283.4737158955807104
 20
-7.3370247553371319
 30
0.0
 40
0.9816840905280294
 50
253.7760951344322962
 51
286.2239048655677038
  0
ARC
  5
5B9D
  8
0
 10
283.767359520489606
 20
-8.1195817505679102
 30
0.0
 40
0.1393781071198613
 50
300.8375704565727915
 51
320.0628935723034942
  0
ARC
  5
5B9E
  8
0
 10
283.6287609752574213
 20
-7.8889834691542751
 30
0.0
 40
0.4084225399428691
 50
286.9733248192363817
 51
300.9495139278120064
  0
ARC
  5
5B9F
  8
0
 10
283.3822861853454924
 20
-8.8850950211499864
 30
0.0
 40
0.8163471935574349
 50
98.7699920432914666
 51
103.5100627296936011
  0
CIRCLE
  5
5BA1
  8
0
 10
290.9546316158807144
 20
-11.5953635677563405
 30
0.0
 40
0.6496062992000003
  0
POINT
  5
5BA2
  8
DEFPOINTS
 10
290.9546316158807144
 20
-11.5953635677563405
 30
0.0
 50
180.0
  0
ENDSEC
  0
EOF
