  0
SECTION
  2
HEADER
  9
$ACADVER
  1
AC1009
  9
$INSBASE
 10
3628.1322174485599135
 20
288.7878780344906886
 30
0.0
  9
$EXTMIN
 10
3618.8727759309690555
 20
277.8935954203367942
 30
-0.0000000000112498
  9
$EXTMAX
 10
3660.7656310809638853
 20
289.8570883712530986
 30
0.0000000000002956
  9
$LIMMIN
 10
0.0
 20
0.0
  9
$LIMMAX
 10
11.6929133858000007
 20
8.2677165353999982
  9
$ORTHOMODE
 70
     0
  9
$REGENMODE
 70
     1
  9
$FILLMODE
 70
     1
  9
$QTEXTMODE
 70
     0
  9
$MIRRTEXT
 70
     0
  9
$DRAGMODE
 70
     2
  9
$LTSCALE
 40
0.6431102362
  9
$OSMODE
 70
  4095
  9
$ATTMODE
 70
     1
  9
$TEXTSIZE
 40
0.2
  9
$TRACEWID
 40
0.05
  9
$TEXTSTYLE
  7
STANDARD
  9
$CLAYER
  8
0
  9
$CELTYPE
  6
BYLAYER
  9
$CECOLOR
 62
   256
  9
$DIMSCALE
 40
1.0
  9
$DIMASZ
 40
0.1875
  9
$DIMEXO
 40
0.0625
  9
$DIMDLI
 40
0.4443307087
  9
$DIMRND
 40
0.0
  9
$DIMDLE
 40
0.0
  9
$DIMEXE
 40
0.125
  9
$DIMTP
 40
0.01
  9
$DIMTM
 40
0.01
  9
$DIMTXT
 40
2.0
  9
$DIMCEN
 40
0.1052362205
  9
$DIMTSZ
 40
0.0
  9
$DIMTOL
 70
     1
  9
$DIMLIM
 70
     0
  9
$DIMTIH
 70
     1
  9
$DIMTOH
 70
     1
  9
$DIMSE1
 70
     0
  9
$DIMSE2
 70
     0
  9
$DIMTAD
 70
     0
  9
$DIMZIN
 70
     0
  9
$DIMBLK
  1

  9
$DIMASO
 70
     1
  9
$DIMSHO
 70
     1
  9
$DIMPOST
  1
\X
  9
$DIMAPOST
  1

  9
$DIMALT
 70
     1
  9
$DIMALTD
 70
     2
  9
$DIMALTF
 40
25.3999999999999986
  9
$DIMLFAC
 40
1.0
  9
$DIMTOFL
 70
     0
  9
$DIMTVP
 40
0.0
  9
$DIMTIX
 70
     0
  9
$DIMSOXD
 70
     0
  9
$DIMSAH
 70
     0
  9
$DIMBLK1
  1

  9
$DIMBLK2
  1

  9
$DIMSTYLE
  2
STANDARD
  9
$DIMCLRD
 70
     0
  9
$DIMCLRE
 70
     0
  9
$DIMCLRT
 70
     0
  9
$DIMTFAC
 40
1.0
  9
$DIMGAP
 40
0.09
  9
$LUNITS
 70
     2
  9
$LUPREC
 70
     4
  9
$SKETCHINC
 40
0.1
  9
$FILLETRAD
 40
0.0786
  9
$AUNITS
 70
     0
  9
$AUPREC
 70
     0
  9
$MENU
  1
.
  9
$ELEVATION
 40
0.0
  9
$PELEVATION
 40
0.0
  9
$THICKNESS
 40
0.0
  9
$LIMCHECK
 70
     0
  9
$BLIPMODE
 70
     0
  9
$CHAMFERA
 40
0.0
  9
$CHAMFERB
 40
0.0
  9
$SKPOLY
 70
     0
  9
$TDCREATE
 40
2458060.468368056230247
  9
$TDUPDATE
 40
2460874.2691203709691763
  9
$TDINDWG
 40
0.5323681713
  9
$TDUSRTIMER
 40
0.5323681713
  9
$USRTIMER
 70
     1
  9
$ANGBASE
 50
0.0
  9
$ANGDIR
 70
     0
  9
$PDMODE
 70
     0
  9
$PDSIZE
 40
0.3125
  9
$PLINEWID
 40
0.0
  9
$COORDS
 70
     1
  9
$SPLFRAME
 70
     0
  9
$SPLINETYPE
 70
     6
  9
$SPLINESEGS
 70
     8
  9
$ATTDIA
 70
     1
  9
$ATTREQ
 70
     1
  9
$HANDLING
 70
     1
  9
$HANDSEED
  5
CAE0
  9
$SURFTAB1
 70
     6
  9
$SURFTAB2
 70
     6
  9
$SURFTYPE
 70
     6
  9
$SURFU
 70
     6
  9
$SURFV
 70
     6
  9
$UCSNAME
  2

  9
$UCSORG
 10
0.0
 20
0.0
 30
0.0
  9
$UCSXDIR
 10
1.0
 20
0.0
 30
0.0
  9
$UCSYDIR
 10
0.0
 20
1.0
 30
0.0
  9
$PUCSNAME
  2

  9
$PUCSORG
 10
0.0
 20
0.0
 30
0.0
  9
$PUCSXDIR
 10
1.0
 20
0.0
 30
0.0
  9
$PUCSYDIR
 10
0.0
 20
1.0
 30
0.0
  9
$USERI1
 70
     0
  9
$USERI2
 70
     0
  9
$USERI3
 70
     0
  9
$USERI4
 70
     0
  9
$USERI5
 70
     0
  9
$USERR1
 40
0.0
  9
$USERR2
 40
0.0
  9
$USERR3
 40
0.0
  9
$USERR4
 40
0.0
  9
$USERR5
 40
0.0
  9
$WORLDVIEW
 70
     1
  9
$SHADEDGE
 70
     3
  9
$SHADEDIF
 70
    70
  9
$TILEMODE
 70
     1
  9
$MAXACTVP
 70
    64
  9
$PLIMCHECK
 70
     0
  9
$PEXTMIN
 10
1.0000000000000000E+20
 20
1.0000000000000000E+20
 30
1.0000000000000000E+20
  9
$PEXTMAX
 10
-1.0000000000000000E+20
 20
-1.0000000000000000E+20
 30
-1.0000000000000000E+20
  9
$PLIMMIN
 10
0.0
 20
0.0
  9
$PLIMMAX
 10
12.0
 20
9.0
  9
$UNITMODE
 70
     0
  9
$VISRETAIN
 70
     1
  9
$PLINEGEN
 70
     0
  9
$PSLTSCALE
 70
     1
  0
ENDSEC
  0
SECTION
  2
TABLES
  0
TABLE
  2
VPORT
 70
     1
  0
VPORT
  2
*ACTIVE
 70
     0
 10
0.0
 20
0.0
 11
1.0
 21
1.0
 12
506.9018451075289136
 22
94.2271023646515005
 13
0.0
 23
0.0
 14
1.0
 24
1.0
 15
0.0
 25
0.0
 16
0.0
 26
0.0
 36
71.4061910302851857
 17
3132.9173583984370453
 27
189.6482395311433891
 37
0.0
 40
18.3208846168448609
 41
2.2939024390243898
 42
50.0
 43
0.0
 44
0.0
 50
0.0
 51
0.0
 71
     0
 72
   100
 73
     1
 74
     1
 75
     0
 76
     0
 77
     0
 78
     0
  0
ENDTAB
  0
TABLE
  2
LTYPE
 70
     2
  0
LTYPE
  2
CONTINUOUS
 70
     0
  3
Solid line
 72
    65
 73
     0
 40
0.0
  0
LTYPE
  2
PHANTOM2
 70
     0
  3
___ _ _ ___ _ _ ___ _ _ ___ _ _
 72
    65
 73
     6
 40
1.25
 49
0.625
 49
-0.125
 49
0.125
 49
-0.125
 49
0.125
 49
-0.125
  0
ENDTAB
  0
TABLE
  2
LAYER
 70
     2
  0
LAYER
  2
0
 70
     0
 62
   255
  6
CONTINUOUS
  0
LAYER
  2
DEFPOINTS
 70
     0
 62
     7
  6
CONTINUOUS
  0
ENDTAB
  0
TABLE
  2
STYLE
 70
     1
  0
STYLE
  2
STANDARD
 70
     0
 40
0.0
 41
0.8
 50
0.0
 71
     0
 42
0.2
  3
txt
  4

  0
ENDTAB
  0
TABLE
  2
VIEW
 70
     0
  0
ENDTAB
  0
TABLE
  2
UCS
 70
     0
  0
ENDTAB
  0
TABLE
  2
APPID
 70
     9
  0
APPID
  2
ACAD
 70
     0
  0
APPID
  2
ACAD_MLEADERVER
 70
     0
  0
APPID
  2
ACAD_EXEMPT_FROM_CAD_STANDARDS
 70
     0
  0
APPID
  2
ACAD_NAV_VCDISPLAY
 70
     0
  0
APPID
  2
ACAECLAYERSTANDARD
 70
     0
  0
APPID
  2
ACCMTRANSPARENCY
 70
     0
  0
APPID
  2
ACAD_DSTYLE_DIMJAG
 70
     0
  0
APPID
  2
ACAD_DSTYLE_DIMTALN
 70
     0
  0
APPID
  2
ACDBATTR
 70
     0
  0
ENDTAB
  0
TABLE
  2
DIMSTYLE
 70
     1
  0
DIMSTYLE
  2
STANDARD
 70
     0
  3

  4

  5

  6

  7

 40
1.0
 41
0.1875
 42
0.0625
 43
0.38
 44
0.125
 45
0.0
 46
0.0
 47
0.01
 48
0.01
140
0.15625
141
0.09
142
0.0
143
25.3999999999999986
144
1.0
145
0.0
146
1.0
147
0.09
 71
     1
 72
     0
 73
     1
 74
     1
 75
     0
 76
     0
 77
     0
 78
     4
170
     0
171
     2
172
     0
173
     0
174
     0
175
     0
176
     0
177
     0
178
     0
  0
ENDTAB
  0
ENDSEC
  0
SECTION
  2
BLOCKS
  0
BLOCK
  8
0
  2
$MODEL_SPACE
 70
     0
 10
0.0
 20
0.0
 30
0.0
  3
$MODEL_SPACE
  1

  0
ENDBLK
  5
21
  8
0
  0
BLOCK
 67
     1
  8
0
  2
$PAPER_SPACE
 70
     0
 10
0.0
 20
0.0
 30
0.0
  3
$PAPER_SPACE
  1

  0
ENDBLK
  5
1D
 67
     1
  8
0
  0
BLOCK
  8
0
  2
_FILLED
 70
     0
 10
0.0
 20
0.0
 30
0.0
  3
_FILLED
  1

  0
SOLID
  5
9A2B
  8
0
  6
BYBLOCK
 62
     0
 10
0.0
 20
0.0
 30
0.0
 11
-1.0
 21
0.1666666667
 31
0.0
 12
-1.0
 22
-0.1666666667
 32
0.0
 13
-1.0
 23
-0.1666666667
 33
0.0
  0
ENDBLK
  5
9A2C
  8
0
  6
BYBLOCK
 62
     0
  0
BLOCK
  8
0
  2
A$CF701A2A3
 70
     0
 10
0.0
 20
0.0
 30
0.0
  3
A$CF701A2A3
  1

  0
ARC
  5
C34C
  8
0
 10
31.7467228304983315
 20
18.9726778524811515
 30
0.0
 40
0.0600571174933638
 50
178.1599123593194065
 51
269.9437701250961936
  0
ARC
  5
C34D
  8
0
 10
14.1289194617463902
 20
24.7599222207127703
 30
0.0
 40
18.4863577086482387
 50
341.76286500014902
 51
343.1049022069964849
  0
ARC
  5
C34E
  8
0
 10
32.3547745090794123
 20
17.8805677586952285
 30
0.0
 40
1.5998037006317429
 50
93.3602506880195904
 51
109.6281531223668964
  0
LINE
  5
C34F
  8
0
 10
32.2610038963430412
 20
19.477620967809461
 30
0.0
 11
47.4137775890446775
 21
19.4776209679094592
 31
0.0
  0
ARC
  5
C350
  8
0
 10
47.4325531323292111
 20
18.9089821500664286
 30
0.0
 40
0.5689487025941281
 50
57.5632611277698203
 51
91.8911278545007804
  0
ARC
  5
C351
  8
0
 10
47.448256021399807
 20
18.9336909094594716
 30
0.0
 40
0.5396723722929054
 50
4.1367077670949124
 51
57.5632611277699908
  0
ARC
  5
C352
  8
0
 10
47.926522090646607
 20
18.9726210998054405
 30
0.0
 40
0.0600003333965774
 50
270.0002551523782017
 51
359.9998709935546799
  0
ARC
  5
C353
  8
0
 10
47.587873331907609
 20
13200570.7895198706537485
 30
0.0
 40
13200551.8768991101533175
 50
269.9999996394840878
 51
270.0000014698749169
  0
ARC
  5
C354
  8
0
 10
47.5048128781491386
 20
18.5626208638961003
 30
0.0
 40
0.3499999003706384
 50
89.9999881479334078
 51
171.8937702021669054
  0
LINE
  5
C355
  8
0
 10
47.1583100607211989
 20
18.611973956747029
 30
0.0
 11
46.9122706485524006
 21
16.2638807503362912
 31
0.0
  0
ARC
  5
C356
  8
0
 10
46.5165232617200175
 20
16.3055558619400109
 30
0.0
 40
0.3979356846424334
 50
269.8857876861554814
 51
353.988489347651182
  0
LINE
  5
C357
  8
0
 10
46.5157300248430374
 20
15.9076209679094607
 30
0.0
 11
33.1574562263430508
 21
15.9076209679094607
 31
0.0
  0
ARC
  5
C358
  8
0
 10
33.1573073574459798
 20
16.3072334039208293
 30
0.0
 40
0.3996124637406694
 50
186.0447802799496912
 51
270.0213445787450723
  0
LINE
  5
C359
  8
0
 10
32.7599167805571128
 20
16.2651519284618296
 30
0.0
 11
32.516055175344448
 21
18.6028364391144407
 31
0.0
  0
ARC
  5
C35A
  8
0
 10
31.8520912294043193
 20
221431.4055756253947038
 30
0.0
 40
221412.4929548866057303
 50
269.9999727181537992
 51
270.0000818454552132
  0
ARC
  5
C35B
  8
0
 10
32.1683734246978403
 20
18.5626211517521007
 30
0.0
 40
0.3499998129575639
 50
6.5979081346952482
 51
90.0000818454552416
  0
ARC
  5
C35C
  8
0
 10
45.8650816453542873
 20
15.8875491405182707
 30
0.0
 40
0.0201276786869227
 50
94.2693119370321568
 51
176.8142859841273093
  0
LINE
  5
C35D
  8
0
 10
45.8449850709466418
 20
15.8886676870094607
 30
0.0
 11
45.841566230231038
 21
15.8234323212015102
 31
0.0
  0
ARC
  5
C35E
  8
0
 10
45.7616576806436228
 20
15.8276281037750408
 30
0.0
 40
0.0800186283847036
 50
269.0289202575320928
 51
356.9943132536590156
  0
ARC
  5
C35F
  8
0
 10
45.4881080674959506
 20
15.8875565959269398
 30
0.0
 40
0.0201199864796374
 50
2.9608163598199928
 51
85.7389377034040336
  0
LINE
  5
C360
  8
0
 10
45.5082011956612718
 20
15.8885958535124097
 30
0.0
 11
45.5116200210550303
 21
15.8234323212015102
 31
0.0
  0
ARC
  5
C361
  8
0
 10
45.5915285706424527
 20
15.8276281037750408
 30
0.0
 40
0.0800186283847036
 50
183.0056867463410128
 51
270.9710797424679072
  0
LINE
  5
C362
  8
0
 10
45.5928847045430388
 20
15.7476209679094605
 30
0.0
 11
45.7603015467430509
 21
15.7476209679094605
 31
0.0
  0
LINE
  5
C363
  8
0
 10
45.5082011956612718
 20
15.8885958535124097
 30
0.0
 11
45.8449850710174118
 21
15.8886676883476099
 31
0.0
  0
ARC
  5
C364
  8
0
 10
33.8081046058317867
 20
15.8875491405182707
 30
0.0
 40
0.0201276786869227
 50
3.1857140158728141
 51
85.7306880629678147
  0
LINE
  5
C365
  8
0
 10
33.8282011802394322
 20
15.8886676870094607
 30
0.0
 11
33.8316199281443417
 21
15.8234340913846196
 31
0.0
  0
ARC
  5
C366
  8
0
 10
33.9115285705424583
 20
15.8276281037750408
 30
0.0
 40
0.0800186283847036
 50
183.0056867463410128
 51
270.9710797424679072
  0
ARC
  5
C367
  8
0
 10
34.1850781836901305
 20
15.8875565959269398
 30
0.0
 40
0.0201199864796374
 50
94.2610622965959664
 51
177.0391836401799992
  0
LINE
  5
C368
  8
0
 10
34.1649850555248094
 20
15.8885958535124097
 30
0.0
 11
34.1615663229417379
 21
15.8234340913846196
 31
0.0
  0
ARC
  5
C369
  8
0
 10
34.0816576805436284
 20
15.8276281037750408
 30
0.0
 40
0.0800186283847036
 50
269.0289202575320928
 51
356.9943132536590156
  0
LINE
  5
C36A
  8
0
 10
34.0803015466430494
 20
15.7476209679094605
 30
0.0
 11
33.9128847044430302
 21
15.7476209679094605
 31
0.0
  0
LINE
  5
C36B
  8
0
 10
34.1649813062561094
 20
15.8885958543432597
 30
0.0
 11
33.8282011801686622
 21
15.8886676883476099
 31
0.0
  0
ARC
  5
C36C
  8
0
 10
32.2858884908540418
 20
18.8727042983943782
 30
0.0
 40
0.540700003591007
 50
125.9961878855065009
 51
175.7663630876411958
  0
ARC
  5
C36D
  8
0
 10
32.1946556962307469
 20
18.9137422562681685
 30
0.0
 40
0.4565898564669273
 50
85.7394130099727363
 51
119.7480005322425001
  0
LINE
  5
C36E
  8
0
 10
32.2285770162430296
 20
19.3690703150094592
 30
0.0
 11
47.4673695904430417
 21
19.3692474916094604
 31
0.0
  0
ARC
  5
C36F
  8
0
 10
47.4840113596567122
 20
18.9284751076434787
 30
0.0
 40
0.4410864347830401
 50
59.920538647086893
 51
92.1622281370483307
  0
ARC
  5
C370
  8
0
 10
47.3872974703873595
 20
18.8727041306933785
 30
0.0
 40
0.5407003051843597
 50
4.2336527987503709
 51
54.0037984291052808
  0
LINE
  5
C371
  8
0
 10
33.4061094097430384
 20
16.2661562000733895
 30
0.0
 11
46.2670768410430284
 21
16.2661562000733895
 31
0.0
  0
ARC
  5
C372
  8
0
 10
46.6029290276408332
 20
20.0234958731951203
 30
0.0
 40
3.7723199904643612
 50
264.8921551320796084
 51
274.7037085467621864
  0
ARC
  5
C373
  8
0
 10
33.0773997285922974
 20
19.8775415783709093
 30
0.0
 40
3.6263141624883168
 50
264.9773376339214224
 51
275.2007531578998965
  0
LINE
  5
C374
  8
0
 10
39.8365931255930406
 20
19.4776209678594583
 30
0.0
 11
42.422034637173077
 21
21.782013515564099
 31
0.0
  0
LINE
  5
C375
  8
0
 62
     1
 10
20.1960368498429013
 20
19.4776209679094592
 30
0.0
 11
3661.751314690948675
 21
115.2977633788350147
 31
0.0
  0
ENDBLK
  5
C379
  8
0
  0
ENDSEC
  0
SECTION
  2
ENTITIES
  0
ATTDEF
  5
3930
  8
DEFPOINTS
 10
3628.1323813994208649
 20
288.7917487230506026
 30
0.0
 40
0.001
  1
L20307-00
  3

  2
MODELNUMBER
 70
     0
1001
ACDBATTR
1070
     0
1070
     1
  0
ATTDEF
  5
3931
  8
DEFPOINTS
 10
3628.1323813994208649
 20
288.7900820563838806
 30
0.0
 40
0.001
  1
KALLISTA
  3

  2
BRANDNAME
 70
     0
1001
ACDBATTR
1070
     0
1070
     1
  0
ATTDEF
  5
3932
  8
DEFPOINTS
 10
3628.1323813994208649
 20
288.7884153897172155
 30
0.0
 40
0.001
  1
KITCHEN SINK
  3

  2
PRODUCT
 70
     0
1001
ACDBATTR
1070
     0
1070
     1
  0
LINE
  5
C961
  8
0
 10
3637.1322174485599135
 20
288.7878780344906886
 30
0.0
 11
3619.1322174485599135
 21
288.7878780344906886
 31
0.0
  0
LINE
  5
C962
  8
0
 10
3637.1322174485599135
 20
288.7278780344906863
 30
0.0
 11
3619.1322174485599135
 21
288.7278780344906863
 31
0.0
  0
LINE
  5
C963
  8
0
 10
3619.1322174485599135
 20
288.7878780344906886
 30
0.0
 11
3619.1322174485599135
 21
288.7278780344906863
 31
0.0
  0
LINE
  5
C964
  8
0
 10
3635.8659198126611045
 20
288.6492780344906919
 30
0.0
 11
3620.3985150844600867
 21
288.6492780344906919
 31
0.0
  0
LINE
  5
C965
  8
0
 10
3637.1322174485599135
 20
288.7878780344906886
 30
0.0
 11
3637.1322174485599135
 21
288.7278780344906863
 31
0.0
  0
ARC
  5
C966
  8
0
 10
3620.319915084459808
 20
288.6492780344906919
 30
0.0
 40
0.0786000000000018
 50
330.1012391947768947
 51
90.0
  0
ARC
  5
C967
  8
0
 10
3635.9445198126600189
 20
288.6492780344906919
 30
0.0
 40
0.0786000000000036
 50
90.0
 51
209.89876094813431
  0
ARC
  5
C968
  8
0
 10
3626.889721379960065
 20
284.8713390197906961
 30
0.0
 40
7.5000000000000009
 50
150.0991072662870067
 51
183.4673660511070068
  0
ARC
  5
C969
  8
0
 10
3619.5417971004599167
 20
284.426121384590715
 30
0.0
 40
0.1386000000000018
 50
183.4673660511070068
 51
268.4949999989307798
  0
ARC
  5
C96A
  8
0
 10
3626.8640796295599102
 20
280.3794972027906738
 30
0.0
 40
7.5000000000000027
 50
149.825801458950707
 51
173.5049460021865002
  0
ARC
  5
C96B
  8
0
 10
3620.3124483791598323
 20
284.1886889515906773
 30
0.0
 40
0.0785100000000002
 50
329.825801458950707
 51
88.4949999989308083
  0
LINE
  5
C96C
  8
0
 10
3620.3145103803071834
 20
284.2671718684895268
 30
0.0
 11
3619.5381568844491085
 21
284.2875691964910061
 31
0.0
  0
ARC
  5
C96D
  8
0
 10
3629.3747135171602167
 20
284.8713390197906961
 30
0.0
 40
7.499999999999992
 50
356.5326339488930216
 51
29.9008927318693303
  0
ARC
  5
C96E
  8
0
 10
3626.0684882455611842
 20
279.7310796192907105
 30
0.0
 40
10.7499999999999893
 50
351.5654689480302864
 51
24.3065680503447794
  0
ARC
  5
C96F
  8
0
 10
3635.9371168562602179
 20
284.1882982772906985
 30
0.0
 40
0.0785099999999943
 50
91.5050000001047863
 51
204.3065680503476926
  0
ARC
  5
C970
  8
0
 10
3636.7226377966608197
 20
284.426121384590715
 30
0.0
 40
0.1386000000000038
 50
271.5050000001048147
 51
356.5326339488930216
  0
LINE
  5
C971
  8
0
 10
3635.9350548551151405
 20
284.2667811941922196
 30
0.0
 11
3636.7262780126688995
 21
284.2875691964908924
 31
0.0
  0
LINE
  5
C972
  8
0
 10
3630.8323536646771572
 20
280.39220984018948
 30
0.0
 11
3619.4122174485742107
 21
281.22787803448972
 31
0.0
  0
LINE
  5
C973
  8
0
 10
3630.9052174485600517
 20
280.3138194337313962
 30
0.0
 11
3630.9052174485600517
 21
278.1542780344906873
 31
0.0
  0
LINE
  5
C974
  8
0
 10
3630.9052174485600517
 20
278.354278034490676
 30
0.0
 11
3636.7299570653849514
 21
278.354278034490676
 31
0.0
  0
LINE
  5
C975
  8
0
 10
3630.9052174485600517
 20
278.1542780344906873
 30
0.0
 11
3636.7022174485327923
 21
278.1542780344906873
 31
0.0
  0
ARC
  5
C976
  8
0
 10
3636.1962573459600208
 20
278.1340780344906989
 30
0.0
 40
0.020200000000001
 50
90.0
 51
145.9974060669742926
  0
ARC
  5
C977
  8
0
 10
3636.0601831077360657
 20
278.1290587750241912
 30
0.0
 40
0.0897999997615751
 50
287.9575928754732104
 51
325.9946104631915205
  0
LINE
  5
C978
  8
0
 10
3636.1795112983991203
 20
278.1453744892907025
 30
0.0
 11
3636.1346259576930606
 21
278.0788362497248727
 31
0.0
  0
LINE
  5
C979
  8
0
 10
3636.0878696142599438
 20
278.0436333846906791
 30
0.0
 11
3635.679517448560091
 21
277.9112780344906923
 31
0.0
  0
LINE
  5
C97A
  8
0
 10
3635.679517448560091
 20
277.9112780344906923
 30
0.0
 11
3631.9595174485612006
 21
277.9112780344906923
 31
0.0
  0
ARC
  5
C97B
  8
0
 10
3631.4427775511599066
 20
278.1340780344906989
 30
0.0
 40
0.020200000000001
 50
34.002593933025608
 51
90.0
  0
ARC
  5
C97C
  8
0
 10
3631.5788483956971504
 20
278.1290542678834754
 30
0.0
 40
0.0897946659179328
 50
213.9990374779515889
 51
252.0435803278058984
  0
LINE
  5
C97D
  8
0
 10
3631.4595235987221713
 20
278.1453744892907025
 30
0.0
 11
3631.5044044003170711
 21
278.0788429785235962
 31
0.0
  0
LINE
  5
C97E
  8
0
 10
3631.5511652827722173
 20
278.0436333847280821
 30
0.0
 11
3631.9595174485612006
 21
277.9112780344906923
 31
0.0
  0
LINE
  5
C97F
  8
0
 10
3644.7848174485611707
 20
288.5678780344907182
 30
0.0
 11
3644.7848174485611707
 21
288.7428780344906727
 31
0.0
  0
LINE
  5
C980
  8
0
 10
3644.7848174485611707
 20
289.6678780344906841
 30
0.0
 11
3644.7848174485611707
 21
289.8428780344906954
 31
0.0
  0
LINE
  5
C981
  8
0
 10
3659.9848174485600794
 20
288.5678780344907182
 30
0.0
 11
3644.7848174485611707
 21
288.5678780344907182
 31
0.0
  0
LINE
  5
C982
  8
0
 10
3644.1848174485598975
 20
288.7878780344906886
 30
0.0
 11
3644.1848174485598975
 21
289.622878034490725
 31
0.0
  0
LINE
  5
C983
  8
0
 10
3644.739817448561098
 20
289.622878034490725
 30
0.0
 11
3644.1848174485598975
 21
289.622878034490725
 31
0.0
  0
LINE
  5
C984
  8
0
 10
3659.9848174485600794
 20
289.8428780344906954
 30
0.0
 11
3644.7848174485611707
 21
289.8428780344906954
 31
0.0
  0
LINE
  5
C985
  8
0
 10
3660.5848174485599884
 20
289.622878034490725
 30
0.0
 11
3660.5848174485599884
 21
288.7878780344906886
 31
0.0
  0
LINE
  5
C986
  8
0
 10
3659.9848174485600794
 20
289.8428780344906954
 30
0.0
 11
3659.9848174485600794
 21
289.6678780344906841
 31
0.0
  0
LINE
  5
C987
  8
0
 10
3659.9848174485600794
 20
288.7428780344906727
 30
0.0
 11
3659.9848174485600794
 21
288.5678780344907182
 31
0.0
  0
LINE
  5
C988
  8
0
 10
3644.739817448561098
 20
288.7878780344906886
 30
0.0
 11
3644.1848174485598975
 21
288.7878780344906886
 31
0.0
  0
ARC
  5
C989
  8
0
 10
3660.0298174485601521
 20
289.6678780344906841
 30
0.0
 40
0.0449999999999969
 50
180.0
 51
270.0
  0
ARC
  5
C98A
  8
0
 10
3660.0298174485601521
 20
288.7428780344906727
 30
0.0
 40
0.0449999999999969
 50
90.0
 51
180.0
  0
ARC
  5
C98B
  8
0
 10
3644.739817448561098
 20
288.7428780344906727
 30
0.0
 40
0.0449999999999969
 50
0.0
 51
90.0
  0
ARC
  5
C98C
  8
0
 10
3644.739817448561098
 20
289.6678780344906841
 30
0.0
 40
0.0449999999999969
 50
270.0
 51
0.0
  0
LINE
  5
C98D
  8
0
 10
3660.0298174485601521
 20
289.622878034490725
 30
0.0
 11
3660.5848174485599884
 21
289.622878034490725
 31
0.0
  0
LINE
  5
C98E
  8
0
 10
3660.0298174485601521
 20
288.7878780344906886
 30
0.0
 11
3660.5848174485599884
 21
288.7878780344906886
 31
0.0
  0
LINE
  5
C990
  8
0
 10
3631.5511652827599391
 20
278.0436333846906791
 30
0.0
 11
3636.0878696142599438
 21
278.0436333846906791
 31
0.0
  0
ARC
  5
C9D5
  8
0
 10
3630.8266174485611373
 20
280.3138194337313962
 30
0.0
 40
0.0786
 50
0.0
 51
85.8148419860969938
  0
ENDSEC
  0
EOF
