  0
SECTION
  2
HEADER
  9
$ACADVER
  1
AC1009
  9
$INSBASE
 10
3696.307660935828153
 20
303.9829656497557266
 30
0.0
  9
$EXTMIN
 10
3673.7631442234091992
 20
293.0987669987886193
 30
-0.0000000349181948
  9
$EXTMAX
 10
3753.3748006479131618
 20
305.2795792849403824
 30
0.0000000814935746
  9
$LIMMIN
 10
0.0
 20
0.0
  9
$LIMMAX
 10
11.6929133858000007
 20
8.2677165353999982
  9
$ORTHOMODE
 70
     0
  9
$REGENMODE
 70
     1
  9
$FILLMODE
 70
     1
  9
$QTEXTMODE
 70
     0
  9
$MIRRTEXT
 70
     0
  9
$DRAGMODE
 70
     2
  9
$LTSCALE
 40
0.6431102362
  9
$OSMODE
 70
  4095
  9
$ATTMODE
 70
     1
  9
$TEXTSIZE
 40
0.2
  9
$TRACEWID
 40
0.05
  9
$TEXTSTYLE
  7
STANDARD
  9
$CLAYER
  8
0
  9
$CELTYPE
  6
BYLAYER
  9
$CECOLOR
 62
   256
  9
$DIMSCALE
 40
1.0
  9
$DIMASZ
 40
0.1875
  9
$DIMEXO
 40
0.0625
  9
$DIMDLI
 40
0.4443307087
  9
$DIMRND
 40
0.0
  9
$DIMDLE
 40
0.0
  9
$DIMEXE
 40
0.125
  9
$DIMTP
 40
0.01
  9
$DIMTM
 40
0.01
  9
$DIMTXT
 40
2.0
  9
$DIMCEN
 40
0.1052362205
  9
$DIMTSZ
 40
0.0
  9
$DIMTOL
 70
     1
  9
$DIMLIM
 70
     0
  9
$DIMTIH
 70
     1
  9
$DIMTOH
 70
     1
  9
$DIMSE1
 70
     0
  9
$DIMSE2
 70
     0
  9
$DIMTAD
 70
     0
  9
$DIMZIN
 70
     0
  9
$DIMBLK
  1

  9
$DIMASO
 70
     1
  9
$DIMSHO
 70
     1
  9
$DIMPOST
  1
\X
  9
$DIMAPOST
  1

  9
$DIMALT
 70
     1
  9
$DIMALTD
 70
     2
  9
$DIMALTF
 40
25.3999999999999986
  9
$DIMLFAC
 40
1.0
  9
$DIMTOFL
 70
     0
  9
$DIMTVP
 40
0.0
  9
$DIMTIX
 70
     0
  9
$DIMSOXD
 70
     0
  9
$DIMSAH
 70
     0
  9
$DIMBLK1
  1

  9
$DIMBLK2
  1

  9
$DIMSTYLE
  2
STANDARD
  9
$DIMCLRD
 70
     0
  9
$DIMCLRE
 70
     0
  9
$DIMCLRT
 70
     0
  9
$DIMTFAC
 40
1.0
  9
$DIMGAP
 40
0.09
  9
$LUNITS
 70
     2
  9
$LUPREC
 70
     4
  9
$SKETCHINC
 40
0.1
  9
$FILLETRAD
 40
0.0
  9
$AUNITS
 70
     0
  9
$AUPREC
 70
     0
  9
$MENU
  1
.
  9
$ELEVATION
 40
0.0
  9
$PELEVATION
 40
0.0
  9
$THICKNESS
 40
0.0
  9
$LIMCHECK
 70
     0
  9
$BLIPMODE
 70
     0
  9
$CHAMFERA
 40
0.0
  9
$CHAMFERB
 40
0.0
  9
$SKPOLY
 70
     0
  9
$TDCREATE
 40
2458060.468368056230247
  9
$TDUPDATE
 40
2460874.2760763890109956
  9
$TDINDWG
 40
0.5078427083
  9
$TDUSRTIMER
 40
0.5078427083
  9
$USRTIMER
 70
     1
  9
$ANGBASE
 50
0.0
  9
$ANGDIR
 70
     0
  9
$PDMODE
 70
     0
  9
$PDSIZE
 40
0.3125
  9
$PLINEWID
 40
0.0
  9
$COORDS
 70
     1
  9
$SPLFRAME
 70
     0
  9
$SPLINETYPE
 70
     6
  9
$SPLINESEGS
 70
     8
  9
$ATTDIA
 70
     1
  9
$ATTREQ
 70
     1
  9
$HANDLING
 70
     1
  9
$HANDSEED
  5
DB05
  9
$SURFTAB1
 70
     6
  9
$SURFTAB2
 70
     6
  9
$SURFTYPE
 70
     6
  9
$SURFU
 70
     6
  9
$SURFV
 70
     6
  9
$UCSNAME
  2

  9
$UCSORG
 10
0.0
 20
0.0
 30
0.0
  9
$UCSXDIR
 10
1.0
 20
0.0
 30
0.0
  9
$UCSYDIR
 10
0.0
 20
1.0
 30
0.0
  9
$PUCSNAME
  2

  9
$PUCSORG
 10
0.0
 20
0.0
 30
0.0
  9
$PUCSXDIR
 10
1.0
 20
0.0
 30
0.0
  9
$PUCSYDIR
 10
0.0
 20
1.0
 30
0.0
  9
$USERI1
 70
     0
  9
$USERI2
 70
     0
  9
$USERI3
 70
     0
  9
$USERI4
 70
     0
  9
$USERI5
 70
     0
  9
$USERR1
 40
0.0
  9
$USERR2
 40
0.0
  9
$USERR3
 40
0.0
  9
$USERR4
 40
0.0
  9
$USERR5
 40
0.0
  9
$WORLDVIEW
 70
     1
  9
$SHADEDGE
 70
     3
  9
$SHADEDIF
 70
    70
  9
$TILEMODE
 70
     1
  9
$MAXACTVP
 70
    64
  9
$PLIMCHECK
 70
     0
  9
$PEXTMIN
 10
1.0000000000000000E+20
 20
1.0000000000000000E+20
 30
1.0000000000000000E+20
  9
$PEXTMAX
 10
-1.0000000000000000E+20
 20
-1.0000000000000000E+20
 30
-1.0000000000000000E+20
  9
$PLIMMIN
 10
0.0
 20
0.0
  9
$PLIMMAX
 10
12.0
 20
9.0
  9
$UNITMODE
 70
     0
  9
$VISRETAIN
 70
     1
  9
$PLINEGEN
 70
     0
  9
$PSLTSCALE
 70
     1
  0
ENDSEC
  0
SECTION
  2
TABLES
  0
TABLE
  2
VPORT
 70
     1
  0
VPORT
  2
*ACTIVE
 70
     0
 10
0.0
 20
0.0
 11
1.0
 21
1.0
 12
648.5451687247232258
 22
105.2866938492086035
 13
0.0
 23
0.0
 14
1.0
 24
1.0
 15
0.0
 25
0.0
 16
0.0
 26
0.0
 36
63.7428098394932476
 17
3065.0238037109379547
 27
193.9024792926558121
 37
0.0
 40
34.8163419821111404
 41
2.2939024390243898
 42
50.0
 43
0.0
 44
0.0
 50
0.0
 51
0.0
 71
     0
 72
   100
 73
     1
 74
     1
 75
     0
 76
     0
 77
     0
 78
     0
  0
ENDTAB
  0
TABLE
  2
LTYPE
 70
     2
  0
LTYPE
  2
CONTINUOUS
 70
     0
  3
Solid line
 72
    65
 73
     0
 40
0.0
  0
LTYPE
  2
PHANTOM2
 70
     0
  3
___ _ _ ___ _ _ ___ _ _ ___ _ _
 72
    65
 73
     6
 40
1.25
 49
0.625
 49
-0.125
 49
0.125
 49
-0.125
 49
0.125
 49
-0.125
  0
ENDTAB
  0
TABLE
  2
LAYER
 70
     2
  0
LAYER
  2
0
 70
     0
 62
   255
  6
CONTINUOUS
  0
LAYER
  2
DEFPOINTS
 70
     0
 62
     7
  6
CONTINUOUS
  0
ENDTAB
  0
TABLE
  2
STYLE
 70
     1
  0
STYLE
  2
STANDARD
 70
     0
 40
0.0
 41
0.8
 50
0.0
 71
     0
 42
0.2
  3
txt
  4

  0
ENDTAB
  0
TABLE
  2
VIEW
 70
     0
  0
ENDTAB
  0
TABLE
  2
UCS
 70
     0
  0
ENDTAB
  0
TABLE
  2
APPID
 70
     9
  0
APPID
  2
ACAD
 70
     0
  0
APPID
  2
ACAD_MLEADERVER
 70
     0
  0
APPID
  2
ACAD_EXEMPT_FROM_CAD_STANDARDS
 70
     0
  0
APPID
  2
ACAD_NAV_VCDISPLAY
 70
     0
  0
APPID
  2
ACAECLAYERSTANDARD
 70
     0
  0
APPID
  2
ACCMTRANSPARENCY
 70
     0
  0
APPID
  2
ACAD_DSTYLE_DIMJAG
 70
     0
  0
APPID
  2
ACAD_DSTYLE_DIMTALN
 70
     0
  0
APPID
  2
ACDBATTR
 70
     0
  0
ENDTAB
  0
TABLE
  2
DIMSTYLE
 70
     1
  0
DIMSTYLE
  2
STANDARD
 70
     0
  3

  4

  5

  6

  7

 40
1.0
 41
0.1875
 42
0.0625
 43
0.38
 44
0.125
 45
0.0
 46
0.0
 47
0.01
 48
0.01
140
0.15625
141
0.09
142
0.0
143
25.3999999999999986
144
1.0
145
0.0
146
1.0
147
0.09
 71
     1
 72
     0
 73
     1
 74
     1
 75
     0
 76
     0
 77
     0
 78
     4
170
     0
171
     2
172
     0
173
     0
174
     0
175
     0
176
     0
177
     0
178
     0
  0
ENDTAB
  0
ENDSEC
  0
SECTION
  2
BLOCKS
  0
BLOCK
  8
0
  2
$MODEL_SPACE
 70
     0
 10
0.0
 20
0.0
 30
0.0
  3
$MODEL_SPACE
  1

  0
ENDBLK
  5
21
  8
0
  0
BLOCK
 67
     1
  8
0
  2
$PAPER_SPACE
 70
     0
 10
0.0
 20
0.0
 30
0.0
  3
$PAPER_SPACE
  1

  0
ENDBLK
  5
1D
 67
     1
  8
0
  0
BLOCK
  8
0
  2
_FILLED
 70
     0
 10
0.0
 20
0.0
 30
0.0
  3
_FILLED
  1

  0
SOLID
  5
9977
  8
0
  6
BYBLOCK
 62
     0
 10
0.0
 20
0.0
 30
0.0
 11
-1.0
 21
0.1666666667
 31
0.0
 12
-1.0
 22
-0.1666666667
 32
0.0
 13
-1.0
 23
-0.1666666667
 33
0.0
  0
ENDBLK
  5
9978
  8
0
  6
BYBLOCK
 62
     0
  0
ENDSEC
  0
SECTION
  2
ENTITIES
  0
ATTDEF
  5
3930
  8
DEFPOINTS
 10
3696.2984216189402105
 20
303.9880583226686781
 30
0.0
 40
0.001
  1
L20309-00
  3

  2
MODELNUMBER
 70
     0
1001
ACDBATTR
1070
     0
1070
     1
  0
ATTDEF
  5
3931
  8
DEFPOINTS
 10
3696.2984216189402105
 20
303.9863916560021266
 30
0.0
 40
0.001
  1
KALLISTA
  3

  2
BRANDNAME
 70
     0
1001
ACDBATTR
1070
     0
1070
     1
  0
ATTDEF
  5
3932
  8
DEFPOINTS
 10
3696.2984216189402105
 20
303.9847249893354046
 30
0.0
 40
0.001
  1
KITCHEN SINK
  3

  2
PRODUCT
 70
     0
1001
ACDBATTR
1070
     0
1070
     1
  0
LINE
  5
D932
  8
0
 10
3673.807660935828153
 20
303.9829656497557266
 30
0.0
 11
3673.807660935828153
 21
303.9229656497557812
 31
0.0
  0
LINE
  5
D933
  8
0
 10
3718.8076609358267888
 20
303.9829656497557266
 30
0.0
 11
3718.8076609358267888
 21
303.9229656497557812
 31
0.0
  0
LINE
  5
D934
  8
0
 10
3673.807660935828153
 20
303.9829656497557266
 30
0.0
 11
3718.807660935828153
 21
303.9829656497557266
 31
0.0
  0
LINE
  5
D935
  8
0
 10
3673.807660935828153
 20
303.9229656497557812
 30
0.0
 11
3718.807660935828153
 21
303.9229656497557812
 31
0.0
  0
LINE
  5
D936
  8
0
 10
3674.4976609358268433
 20
303.8051834780558238
 30
0.0
 11
3718.1176609358280984
 21
303.8051834780558238
 31
0.0
  0
ARC
  5
D937
  8
0
 10
3674.4190609358279289
 20
303.8443656497556731
 30
0.0
 40
0.0786000000000007
 50
0.0
 51
90.0
  0
LINE
  5
D938
  8
0
 10
3674.4976609358268433
 20
303.8443656497556731
 30
0.0
 11
3674.4976609358268433
 21
296.4229656497557244
 31
0.0
  0
LINE
  5
D939
  8
0
 10
3674.4976609358268433
 20
296.4229656497557244
 30
0.0
 11
3718.1176609358280984
 21
296.4229656497557244
 31
0.0
  0
LINE
  5
D93A
  8
0
 10
3718.1176609358280984
 20
293.5493656497558277
 30
0.0
 11
3718.1176609358280984
 21
303.8443656497556731
 31
0.0
  0
ARC
  5
D93B
  8
0
 10
3718.1962609358270129
 20
303.8443656497556731
 30
0.0
 40
0.0785999999999991
 50
90.0
 51
180.0
  0
LINE
  5
D93C
  8
0
 10
3674.4976609072978135
 20
296.4229656497557244
 30
0.0
 11
3701.1676609358278256
 21
295.5819656498168797
 31
0.0
  0
LINE
  5
D93D
  8
0
 10
3700.998577394782842
 20
295.5872974554558255
 30
0.0
 11
3718.1176609358280984
 21
295.5872974554558255
 31
0.0
  0
LINE
  5
D93E
  8
0
 10
3701.1676609358278256
 20
294.7877220993556762
 30
0.0
 11
3701.1676609358278256
 21
295.5819656498168797
 31
0.0
  0
LINE
  5
D93F
  8
0
 10
3711.5950553725278951
 20
293.3493656497553275
 30
0.0
 11
3716.8959159083269697
 21
293.3493656497553275
 31
0.0
  0
ARC
  5
D940
  8
0
 10
3695.5920765821279019
 20
209.1695935801556914
 30
0.0
 40
85.6700000000000017
 50
79.359700955153329
 51
86.1817217960845028
  0
ARC
  5
D941
  8
0
 10
3701.3062609358280497
 20
294.7877220993556762
 30
0.0
 40
0.1385999999999999
 50
180.0
 51
266.1817217960845028
  0
ARC
  5
D942
  8
0
 10
3711.5950553725278951
 20
294.3493656497557254
 30
0.0
 40
1.0
 50
259.3597009551533006
 51
270.0
  0
ARC
  5
D943
  8
0
 10
3716.8959159083269697
 20
294.3493656497557254
 30
0.0
 40
1.0
 50
270.0
 51
279.9999999991849791
  0
LINE
  5
D944
  8
0
 10
3718.1176609358280984
 20
293.5493656497558277
 30
0.0
 11
3717.0695640859798914
 21
293.3645578967473284
 31
0.0
  0
LINE
  5
D945
  8
0
 10
3712.3752609358280097
 20
293.1063656497556735
 30
0.0
 11
3716.0952609358278096
 21
293.1063656497556735
 31
0.0
  0
ARC
  5
D946
  8
0
 10
3711.8585210384280799
 20
293.3291656497556801
 30
0.0
 40
0.0202
 50
34.002593933020421
 51
90.0
  0
ARC
  5
D947
  8
0
 10
3711.9945952768280222
 20
293.3241463905558248
 30
0.0
 40
0.0898000000000002
 50
214.0028001178646093
 51
252.0424072066099939
  0
LINE
  5
D948
  8
0
 10
3711.9669087703518926
 20
293.2387209999557172
 30
0.0
 11
3712.3752609358280097
 21
293.1063656497556735
 31
0.0
  0
LINE
  5
D949
  8
0
 10
3711.9201507001280333
 20
293.2739264243556931
 30
0.0
 11
3711.8752670452959137
 21
293.3404621647893009
 31
0.0
  0
ARC
  5
D94A
  8
0
 10
3716.6120008331281497
 20
293.3291656497556801
 30
0.0
 40
0.0202
 50
90.0
 51
145.9974060669796074
  0
ARC
  5
D94B
  8
0
 10
3716.4759265947282074
 20
293.3241463905558248
 30
0.0
 40
0.0898000000000002
 50
287.9575927933898924
 51
325.9971998821354191
  0
LINE
  5
D94C
  8
0
 10
3716.5036131012038823
 20
293.2387209999557172
 30
0.0
 11
3716.0952609357268557
 21
293.1063656497556735
 31
0.0
  0
LINE
  5
D94D
  8
0
 10
3716.5503711714281962
 20
293.2739264243556931
 30
0.0
 11
3716.5952548262598611
 21
293.3404621647893009
 31
0.0
  0
LINE
  5
D94E
  8
0
 10
3674.4976609358268433
 20
299.4622594837558154
 30
0.0
 11
3718.1176609358280984
 21
299.4622594837558154
 31
0.0
  0
LINE
  5
D94F
  8
0
 10
3674.4976609358268433
 20
299.4826568117558168
 30
0.0
 11
3718.1176609358280984
 21
299.4826568117558168
 31
0.0
  0
LINE
  5
D951
  8
0
 10
3724.1027609358279733
 20
305.2579656497558176
 30
0.0
 11
3724.1027609358279733
 21
303.9829656497557266
 31
0.0
  0
LINE
  5
D952
  8
0
 10
3740.367760935827846
 20
303.9829656497557266
 30
0.0
 11
3724.1027609358279733
 21
303.9829656497557266
 31
0.0
  0
LINE
  5
D953
  8
0
 10
3740.367760935827846
 20
305.2579656497558176
 30
0.0
 11
3724.1027609358279733
 21
305.2579656497558176
 31
0.0
  0
LINE
  5
D954
  8
0
 10
3740.367760935827846
 20
305.2579656497558176
 30
0.0
 11
3740.367760935827846
 21
303.9829656497557266
 31
0.0
  0
LINE
  5
D955
  8
0
 10
3740.367760935827846
 20
305.0379656497557903
 30
0.0
 11
3724.1027609358279733
 21
305.0379656497557903
 31
0.0
  0
LINE
  5
D956
  8
0
 10
3740.367760935827846
 20
304.2029656497556971
 30
0.0
 11
3724.1027609358279733
 21
304.2029656497556971
 31
0.0
  0
LINE
  5
D957
  8
0
 10
3745.6977609358277732
 20
305.0379656497557903
 30
0.0
 11
3745.6977609358277732
 21
303.762965649755813
 31
0.0
  0
LINE
  5
D958
  8
0
 10
3751.1977609358277732
 20
303.762965649755813
 30
0.0
 11
3745.6977609358277732
 21
303.762965649755813
 31
0.0
  0
LINE
  5
D959
  8
0
 10
3751.1977609358277732
 20
305.0379656497557903
 30
0.0
 11
3751.1977609358277732
 21
303.762965649755813
 31
0.0
  0
LINE
  5
D95A
  8
0
 10
3751.1977609358277732
 20
305.0379656497557903
 30
0.0
 11
3745.6977609358277732
 21
305.0379656497557903
 31
0.0
  0
LINE
  5
D95B
  8
0
 10
3753.1277609358280642
 20
304.2454656497557153
 30
0.0
 11
3751.1977609358277732
 21
304.2454656497557153
 31
0.0
  0
LINE
  5
D95C
  8
0
 10
3745.6977609358277732
 20
304.2454656497557153
 30
0.0
 11
3743.7677609358279369
 21
304.2454656497557153
 31
0.0
  0
LINE
  5
D95D
  8
0
 10
3753.1277609358280642
 20
304.5554656497557175
 30
0.0
 11
3751.1977609358277732
 21
304.5554656497557175
 31
0.0
  0
LINE
  5
D95E
  8
0
 10
3745.6977609358277732
 20
304.5554656497557175
 30
0.0
 11
3743.7677609358279369
 21
304.5554656497557175
 31
0.0
  0
LINE
  5
D95F
  8
0
 10
3745.6977609358277732
 20
304.8179656497557062
 30
0.0
 11
3751.1977609358277732
 21
304.8179656497559904
 31
0.0
  0
LINE
  5
D960
  8
0
 10
3745.6977609358277732
 20
303.9829656497557266
 30
0.0
 11
3751.1977609358277732
 21
303.9829656497554993
 31
0.0
  0
ARC
  5
D961
  8
0
 10
3743.7677609358279369
 20
304.400465649755688
 30
0.0
 40
0.1549999999999992
 50
90.0
 51
270.0
  0
ARC
  5
D962
  8
0
 10
3753.1277609358280642
 20
304.400465649755688
 30
0.0
 40
0.1549999999999992
 50
270.0
 51
90.0
  0
LINE
  5
D963
  8
0
 10
3716.5036131016281615
 20
293.2387209999557172
 30
0.0
 11
3711.9669087700281125
 21
293.2387209999557172
 31
0.0
  0
ENDSEC
  0
EOF
