  0
SECTION
  2
HEADER
  9
$ACADVER
  1
AC1009
  9
$INSBASE
 10
3683.010319673138838
 20
295.9990098471898818
 30
0.0
  9
$EXTMIN
 10
3660.2751685991679551
 20
286.9947644045382162
 30
-0.0015258207003583
  9
$EXTMAX
 10
3740.1714070941447972
 20
305.0066956047909912
 30
0.0000000349246037
  9
$LIMMIN
 10
0.0
 20
0.0
  9
$LIMMAX
 10
11.6929133858000007
 20
8.2677165353999982
  9
$ORTHOMODE
 70
     0
  9
$REGENMODE
 70
     1
  9
$FILLMODE
 70
     1
  9
$QTEXTMODE
 70
     0
  9
$MIRRTEXT
 70
     0
  9
$DRAGMODE
 70
     2
  9
$LTSCALE
 40
0.6431102362
  9
$OSMODE
 70
  4095
  9
$ATTMODE
 70
     1
  9
$TEXTSIZE
 40
0.2
  9
$TRACEWID
 40
0.05
  9
$TEXTSTYLE
  7
STANDARD
  9
$CLAYER
  8
0
  9
$CELTYPE
  6
BYLAYER
  9
$CECOLOR
 62
   256
  9
$DIMSCALE
 40
1.0
  9
$DIMASZ
 40
0.1875
  9
$DIMEXO
 40
0.0625
  9
$DIMDLI
 40
0.4443307087
  9
$DIMRND
 40
0.0
  9
$DIMDLE
 40
0.0
  9
$DIMEXE
 40
0.125
  9
$DIMTP
 40
0.01
  9
$DIMTM
 40
0.01
  9
$DIMTXT
 40
2.0
  9
$DIMCEN
 40
0.1052362205
  9
$DIMTSZ
 40
0.0
  9
$DIMTOL
 70
     1
  9
$DIMLIM
 70
     0
  9
$DIMTIH
 70
     1
  9
$DIMTOH
 70
     1
  9
$DIMSE1
 70
     0
  9
$DIMSE2
 70
     0
  9
$DIMTAD
 70
     0
  9
$DIMZIN
 70
     0
  9
$DIMBLK
  1

  9
$DIMASO
 70
     1
  9
$DIMSHO
 70
     1
  9
$DIMPOST
  1
\X
  9
$DIMAPOST
  1

  9
$DIMALT
 70
     1
  9
$DIMALTD
 70
     2
  9
$DIMALTF
 40
25.3999999999999986
  9
$DIMLFAC
 40
1.0
  9
$DIMTOFL
 70
     0
  9
$DIMTVP
 40
0.0
  9
$DIMTIX
 70
     0
  9
$DIMSOXD
 70
     0
  9
$DIMSAH
 70
     0
  9
$DIMBLK1
  1

  9
$DIMBLK2
  1

  9
$DIMSTYLE
  2
STANDARD
  9
$DIMCLRD
 70
     0
  9
$DIMCLRE
 70
     0
  9
$DIMCLRT
 70
     0
  9
$DIMTFAC
 40
1.0
  9
$DIMGAP
 40
0.09
  9
$LUNITS
 70
     2
  9
$LUPREC
 70
     4
  9
$SKETCHINC
 40
0.1
  9
$FILLETRAD
 40
0.0
  9
$AUNITS
 70
     0
  9
$AUPREC
 70
     0
  9
$MENU
  1
.
  9
$ELEVATION
 40
0.0
  9
$PELEVATION
 40
0.0
  9
$THICKNESS
 40
0.0
  9
$LIMCHECK
 70
     0
  9
$BLIPMODE
 70
     0
  9
$CHAMFERA
 40
0.0
  9
$CHAMFERB
 40
0.0
  9
$SKPOLY
 70
     0
  9
$TDCREATE
 40
2458060.468368056230247
  9
$TDUPDATE
 40
2460874.276203703135252
  9
$TDINDWG
 40
0.5149376157
  9
$TDUSRTIMER
 40
0.5149376157
  9
$USRTIMER
 70
     1
  9
$ANGBASE
 50
0.0
  9
$ANGDIR
 70
     0
  9
$PDMODE
 70
     0
  9
$PDSIZE
 40
0.3125
  9
$PLINEWID
 40
0.0
  9
$COORDS
 70
     1
  9
$SPLFRAME
 70
     0
  9
$SPLINETYPE
 70
     6
  9
$SPLINESEGS
 70
     8
  9
$ATTDIA
 70
     1
  9
$ATTREQ
 70
     1
  9
$HANDLING
 70
     1
  9
$HANDSEED
  5
12275
  9
$SURFTAB1
 70
     6
  9
$SURFTAB2
 70
     6
  9
$SURFTYPE
 70
     6
  9
$SURFU
 70
     6
  9
$SURFV
 70
     6
  9
$UCSNAME
  2

  9
$UCSORG
 10
0.0
 20
0.0
 30
0.0
  9
$UCSXDIR
 10
1.0
 20
0.0
 30
0.0
  9
$UCSYDIR
 10
0.0
 20
1.0
 30
0.0
  9
$PUCSNAME
  2

  9
$PUCSORG
 10
0.0
 20
0.0
 30
0.0
  9
$PUCSXDIR
 10
1.0
 20
0.0
 30
0.0
  9
$PUCSYDIR
 10
0.0
 20
1.0
 30
0.0
  9
$USERI1
 70
     0
  9
$USERI2
 70
     0
  9
$USERI3
 70
     0
  9
$USERI4
 70
     0
  9
$USERI5
 70
     0
  9
$USERR1
 40
0.0
  9
$USERR2
 40
0.0
  9
$USERR3
 40
0.0
  9
$USERR4
 40
0.0
  9
$USERR5
 40
0.0
  9
$WORLDVIEW
 70
     1
  9
$SHADEDGE
 70
     3
  9
$SHADEDIF
 70
    70
  9
$TILEMODE
 70
     1
  9
$MAXACTVP
 70
    64
  9
$PLIMCHECK
 70
     0
  9
$PEXTMIN
 10
1.0000000000000000E+20
 20
1.0000000000000000E+20
 30
1.0000000000000000E+20
  9
$PEXTMAX
 10
-1.0000000000000000E+20
 20
-1.0000000000000000E+20
 30
-1.0000000000000000E+20
  9
$PLIMMIN
 10
0.0
 20
0.0
  9
$PLIMMAX
 10
12.0
 20
9.0
  9
$UNITMODE
 70
     0
  9
$VISRETAIN
 70
     1
  9
$PLINEGEN
 70
     0
  9
$PSLTSCALE
 70
     1
  0
ENDSEC
  0
SECTION
  2
TABLES
  0
TABLE
  2
VPORT
 70
     1
  0
VPORT
  2
*ACTIVE
 70
     0
 10
0.0
 20
0.0
 11
1.0
 21
1.0
 12
622.3534147997816035
 22
5.634335961695851
 13
0.0
 23
0.0
 14
1.0
 24
1.0
 15
0.0
 25
0.0
 16
0.0
 26
0.0
 36
38.8639293105787971
 17
3077.869873046875
 27
290.3663940429686932
 37
0.0
 40
34.9407974592682322
 41
2.2939024390243898
 42
50.0
 43
0.0
 44
0.0
 50
0.0
 51
0.0
 71
     0
 72
   100
 73
     1
 74
     1
 75
     0
 76
     0
 77
     0
 78
     0
  0
ENDTAB
  0
TABLE
  2
LTYPE
 70
     2
  0
LTYPE
  2
CONTINUOUS
 70
     0
  3
Solid line
 72
    65
 73
     0
 40
0.0
  0
LTYPE
  2
PHANTOM2
 70
     0
  3
___ _ _ ___ _ _ ___ _ _ ___ _ _
 72
    65
 73
     6
 40
1.25
 49
0.625
 49
-0.125
 49
0.125
 49
-0.125
 49
0.125
 49
-0.125
  0
ENDTAB
  0
TABLE
  2
LAYER
 70
     2
  0
LAYER
  2
0
 70
     0
 62
   255
  6
CONTINUOUS
  0
LAYER
  2
DEFPOINTS
 70
     0
 62
     7
  6
CONTINUOUS
  0
ENDTAB
  0
TABLE
  2
STYLE
 70
     1
  0
STYLE
  2
STANDARD
 70
     0
 40
0.0
 41
0.8
 50
0.0
 71
     0
 42
0.2
  3
txt
  4

  0
ENDTAB
  0
TABLE
  2
VIEW
 70
     0
  0
ENDTAB
  0
TABLE
  2
UCS
 70
     0
  0
ENDTAB
  0
TABLE
  2
APPID
 70
     9
  0
APPID
  2
ACAD
 70
     0
  0
APPID
  2
ACAD_MLEADERVER
 70
     0
  0
APPID
  2
ACAD_EXEMPT_FROM_CAD_STANDARDS
 70
     0
  0
APPID
  2
ACAD_NAV_VCDISPLAY
 70
     0
  0
APPID
  2
ACAECLAYERSTANDARD
 70
     0
  0
APPID
  2
ACCMTRANSPARENCY
 70
     0
  0
APPID
  2
ACAD_DSTYLE_DIMJAG
 70
     0
  0
APPID
  2
ACAD_DSTYLE_DIMTALN
 70
     0
  0
APPID
  2
ACDBATTR
 70
     0
  0
ENDTAB
  0
TABLE
  2
DIMSTYLE
 70
     1
  0
DIMSTYLE
  2
STANDARD
 70
     0
  3

  4

  5

  6

  7

 40
1.0
 41
0.1875
 42
0.0625
 43
0.38
 44
0.125
 45
0.0
 46
0.0
 47
0.01
 48
0.01
140
0.15625
141
0.09
142
0.0
143
25.3999999999999986
144
1.0
145
0.0
146
1.0
147
0.09
 71
     1
 72
     0
 73
     1
 74
     1
 75
     0
 76
     0
 77
     0
 78
     4
170
     0
171
     2
172
     0
173
     0
174
     0
175
     0
176
     0
177
     0
178
     0
  0
ENDTAB
  0
ENDSEC
  0
SECTION
  2
BLOCKS
  0
BLOCK
  8
0
  2
$MODEL_SPACE
 70
     0
 10
0.0
 20
0.0
 30
0.0
  3
$MODEL_SPACE
  1

  0
ENDBLK
  5
21
  8
0
  0
BLOCK
 67
     1
  8
0
  2
$PAPER_SPACE
 70
     0
 10
0.0
 20
0.0
 30
0.0
  3
$PAPER_SPACE
  1

  0
ENDBLK
  5
1D
 67
     1
  8
0
  0
BLOCK
  8
0
  2
_FILLED
 70
     0
 10
0.0
 20
0.0
 30
0.0
  3
_FILLED
  1

  0
SOLID
  5
A02F
  8
0
  6
BYBLOCK
 62
     0
 10
0.0
 20
0.0
 30
0.0
 11
-1.0
 21
0.1666666667
 31
0.0
 12
-1.0
 22
-0.1666666667
 32
0.0
 13
-1.0
 23
-0.1666666667
 33
0.0
  0
ENDBLK
  5
A030
  8
0
  6
BYBLOCK
 62
     0
  0
ENDSEC
  0
SECTION
  2
ENTITIES
  0
ATTDEF
  5
3930
  8
DEFPOINTS
 10
3682.9890743010478218
 20
295.9995490318690941
 30
0.0
 40
0.001
  1
L20309-00
  3

  2
MODELNUMBER
 70
     0
1001
ACDBATTR
1070
     0
1070
     1
  0
ATTDEF
  5
3931
  8
DEFPOINTS
 10
3682.9890743010478218
 20
295.9978823652024857
 30
0.0
 40
0.001
  1
KALLISTA
  3

  2
BRANDNAME
 70
     0
1001
ACDBATTR
1070
     0
1070
     1
  0
ATTDEF
  5
3932
  8
DEFPOINTS
 10
3682.9890743010478218
 20
295.9962156985358206
 30
0.0
 40
0.001
  1
KITCHEN SINK
  3

  2
PRODUCT
 70
     0
1001
ACDBATTR
1070
     0
1070
     1
  0
LINE
  5
11F87
  8
0
 10
3660.510319673138838
 20
304.9990098471898818
 30
0.0
 11
3705.510319673138838
 21
304.9990098471898818
 31
0.0
  0
LINE
  5
11F88
  8
0
 10
3660.510319673138838
 20
304.9990098471898818
 30
0.0
 11
3660.510319673138838
 21
286.9990098471899955
 31
0.0
  0
LINE
  5
11F89
  8
0
 10
3705.510319673138838
 20
304.9990098471898818
 30
0.0
 11
3705.5103196731379285
 21
286.9990098471899955
 31
0.0
  0
LINE
  5
11F8A
  8
0
 10
3660.510319673138838
 20
286.9990098471899955
 30
0.0
 11
3705.510319673138838
 21
286.9990098471899955
 31
0.0
  0
LINE
  5
11F8B
  8
0
 10
3687.9301196731389609
 20
303.6655992548899121
 30
0.0
 11
3687.9301196731389609
 21
298.7380514649898942
 31
0.0
  0
LINE
  5
11F8C
  8
0
 10
3661.2601196731379787
 20
288.3251074830898801
 30
0.0
 11
3704.7605196731387878
 21
288.3251074830898801
 31
0.0
  0
LINE
  5
11F8D
  8
0
 10
3687.7072356435378424
 20
298.7035102582900095
 30
0.0
 11
3663.6237063636381208
 21
288.3251074830898801
 31
0.0
  0
LINE
  5
11F8E
  8
0
 10
3687.9055154181878606
 20
298.7356121747325801
 30
0.0
 11
3687.9301196731389609
 21
298.7380514649898942
 31
0.0
  0
ARC
  5
11F8F
  8
0
 10
3687.7904728390290074
 20
298.507799828785096
 30
0.0
 40
0.2126758163834137
 50
101.0108201783059059
 51
113.0404336572752015
  0
LINE
  5
11F90
  8
0
 10
3687.7801934401018116
 20
298.7216896669631865
 30
0.0
 11
3687.9301196731389609
 21
298.73859378849329
 31
0.0
  0
ARC
  5
11F91
  8
0
 10
3687.8610483353340896
 20
298.1511063597553743
 30
0.0
 40
0.576283632031365
 50
98.0654374438647238
 51
101.1251403525154018
  0
ARC
  5
11F92
  8
0
 10
3682.612419673138902
 20
301.6863098471898752
 30
0.0
 40
6.4085000000000001
 50
342.3177915954942137
 51
17.6822197435554394
  0
ARC
  5
11F93
  8
0
 10
3682.612419673138902
 20
301.6863098471898752
 30
0.0
 40
6.5955000000000004
 50
342.83493908764342
 51
17.1650609123566085
  0
ARC
  5
11F94
  8
0
 10
3682.612419673138902
 20
301.6863098471898752
 30
0.0
 40
6.700499999999999
 50
343.1120648930195784
 51
16.8879351069773094
  0
ARC
  5
11F95
  8
0
 10
3682.6126356180729999
 20
301.6863098459455159
 30
0.0
 40
6.805293077006791
 50
343.3790711599718861
 51
16.6202685113069215
  0
CIRCLE
  5
11F96
  8
0
 10
3689.0878253746391238
 20
300.1813098471898797
 30
0.0
 40
0.0524999999999949
  0
CIRCLE
  5
11F97
  8
0
 10
3689.1729287234388721
 20
300.6113098471900003
 30
0.0
 40
0.0524999999999949
  0
CIRCLE
  5
11F98
  8
0
 10
3689.2290562053390204
 20
301.0413098471900071
 30
0.0
 40
0.0524999999999949
  0
CIRCLE
  5
11F99
  8
0
 10
3689.2569421540388248
 20
301.4713098471899002
 30
0.0
 40
0.0524999999999949
  0
CIRCLE
  5
11F9A
  8
0
 10
3689.2569421540388248
 20
301.901309847189907
 30
0.0
 40
0.0524999999999949
  0
CIRCLE
  5
11F9B
  8
0
 10
3689.2290562053390204
 20
302.3313098471899139
 30
0.0
 40
0.0524999999999949
  0
CIRCLE
  5
11F9C
  8
0
 10
3689.1729287234388721
 20
302.7613098471899207
 30
0.0
 40
0.0524999999999949
  0
CIRCLE
  5
11F9D
  8
0
 10
3689.0878253746391238
 20
303.1913098471899275
 30
0.0
 40
0.0524999999999949
  0
LINE
  5
11F9E
  8
0
 10
3689.0878253746391238
 20
300.1288098471899275
 30
0.0
 11
3689.1293893677129745
 21
300.1288098471899275
 31
0.0
  0
LINE
  5
11F9F
  8
0
 10
3689.2359221229780815
 20
300.1288098471899275
 30
0.0
 11
3698.7006736540338352
 21
300.1288098471899275
 31
0.0
  0
LINE
  5
11FA0
  8
0
 10
3698.8298791730530866
 20
300.1288098471899275
 30
0.0
 11
3698.8565337766381163
 21
300.1288098471899275
 31
0.0
  0
LINE
  5
11FA1
  8
0
 10
3689.0878253746391238
 20
300.2338098471898888
 30
0.0
 11
3689.1535926566339185
 21
300.2338098471898888
 31
0.0
  0
LINE
  5
11FA2
  8
0
 10
3689.2589592146300674
 20
300.2338098471898888
 30
0.0
 11
3698.6311210798498905
 21
300.2338098471898888
 31
0.0
  0
LINE
  5
11FA3
  8
0
 10
3698.7562036627468842
 20
300.2338098471898888
 30
0.0
 11
3698.8565337766381163
 21
300.2338098471898888
 31
0.0
  0
CIRCLE
  5
11FA4
  8
0
 10
3698.8565337766381163
 20
300.1813098471898797
 30
0.0
 40
0.0525000000000011
  0
CIRCLE
  5
11FA5
  8
0
 10
3698.6052029629390745
 20
300.6113098471900003
 30
0.0
 40
0.0525000000000011
  0
CIRCLE
  5
11FA6
  8
0
 10
3698.4517243368381969
 20
301.0413098471900071
 30
0.0
 40
0.0525000000000011
  0
CIRCLE
  5
11FA7
  8
0
 10
3698.3784339337389611
 20
301.4713098471899002
 30
0.0
 40
0.0525000000000011
  0
CIRCLE
  5
11FA8
  8
0
 10
3698.3784339337389611
 20
301.901309847189907
 30
0.0
 40
0.0524249999999995
  0
CIRCLE
  5
11FA9
  8
0
 10
3698.4517243368381969
 20
302.3313098471899139
 30
0.0
 40
0.0525000000000011
  0
CIRCLE
  5
11FAA
  8
0
 10
3698.6052029629390745
 20
302.7613098471899207
 30
0.0
 40
0.0525000000000011
  0
CIRCLE
  5
11FAB
  8
0
 10
3698.8565337766381163
 20
303.1913098471899275
 30
0.0
 40
0.0525000000000011
  0
LINE
  5
11FAC
  8
0
 10
3689.1729287234388721
 20
300.5588098471898775
 30
0.0
 11
3689.217375691160214
 21
300.5588098471898775
 31
0.0
  0
LINE
  5
11FAD
  8
0
 10
3689.3217406429989751
 20
300.5588098471898775
 30
0.0
 11
3698.4560212566029804
 21
300.5588098471898775
 31
0.0
  0
LINE
  5
11FAE
  8
0
 10
3698.571829068363968
 20
300.5588098471898775
 30
0.0
 11
3698.6052029629390745
 21
300.5588098471898775
 31
0.0
  0
LINE
  5
11FAF
  8
0
 10
3689.1729287234388721
 20
300.6638098471900094
 30
0.0
 11
3689.2344430799230395
 21
300.6638098471900094
 31
0.0
  0
LINE
  5
11FB0
  8
0
 10
3689.3385432132331516
 20
300.6638098471900094
 30
0.0
 11
3698.4109511830301926
 21
300.6638098471900094
 31
0.0
  0
LINE
  5
11FB1
  8
0
 10
3698.5245952544169086
 20
300.6638098471900094
 30
0.0
 11
3698.6052029629390745
 21
300.6638098471900094
 31
0.0
  0
LINE
  5
11FB2
  8
0
 10
3689.2290562053390204
 20
300.988809847189998
 30
0.0
 11
3689.2765170613829468
 21
300.988809847189998
 31
0.0
  0
LINE
  5
11FB3
  8
0
 10
3689.3799700332469911
 20
300.988809847189998
 30
0.0
 11
3698.302664514713797
 21
300.988809847189998
 31
0.0
  0
LINE
  5
11FB4
  8
0
 10
3698.4114330315751431
 20
300.988809847189998
 30
0.0
 11
3698.4517243368381969
 21
300.988809847189998
 31
0.0
  0
LINE
  5
11FB5
  8
0
 10
3689.2290562053390204
 20
301.0938098471899025
 30
0.0
 11
3689.2866719908138293
 21
301.0938098471899025
 31
0.0
  0
LINE
  5
11FB6
  8
0
 10
3689.3899699589428565
 20
301.0938098471899025
 30
0.0
 11
3698.2770890227579912
 21
301.0938098471899025
 31
0.0
  0
LINE
  5
11FB7
  8
0
 10
3698.3847677485559871
 20
301.0938098471899025
 30
0.0
 11
3698.4517243368381969
 21
301.0938098471899025
 31
0.0
  0
LINE
  5
11FB8
  8
0
 10
3689.25413691340691
 20
301.4188848471898723
 30
0.0
 11
3689.3075809198430761
 21
301.4188848471898723
 31
0.0
  0
LINE
  5
11FB9
  8
0
 10
3689.41056118357983
 20
301.4188848471898723
 30
0.0
 11
3698.2250894895319107
 21
301.4188848471898723
 31
0.0
  0
LINE
  5
11FBA
  8
0
 10
3689.25413691340691
 20
301.5237348471899281
 30
0.0
 11
3689.3109470948470516
 21
301.5237348471899281
 31
0.0
  0
LINE
  5
11FBB
  8
0
 10
3689.4138763918122095
 20
301.5237348471899281
 30
0.0
 11
3698.2167741873190607
 21
301.5237348471899281
 31
0.0
  0
LINE
  5
11FBC
  8
0
 10
3698.3219666213090022
 20
301.5237348471899281
 30
0.0
 11
3698.3812391743699663
 21
301.5237348471899281
 31
0.0
  0
LINE
  5
11FBD
  8
0
 10
3689.25413691340691
 20
301.8488848471898791
 30
0.0
 11
3689.3109470948470516
 21
301.8488848471898791
 31
0.0
  0
LINE
  5
11FBE
  8
0
 10
3689.4138763918122095
 20
301.8488848471898791
 30
0.0
 11
3698.216771869475906
 21
301.8488848471898791
 31
0.0
  0
LINE
  5
11FBF
  8
0
 10
3698.3219666213090022
 20
301.8488848471898791
 30
0.0
 11
3698.3784339337389611
 21
301.8488848471898791
 31
0.0
  0
LINE
  5
11FC0
  8
0
 10
3689.25413691340691
 20
301.9537348471898781
 30
0.0
 11
3689.3075809198430761
 21
301.9537348471898781
 31
0.0
  0
LINE
  5
11FC1
  8
0
 10
3689.41056118357983
 20
301.9537348471898781
 30
0.0
 11
3698.225083589004953
 21
301.9537348471898781
 31
0.0
  0
LINE
  5
11FC2
  8
0
 10
3689.2290562053390204
 20
302.2788098471899048
 30
0.0
 11
3689.2866719908138293
 21
302.2788098471899048
 31
0.0
  0
LINE
  5
11FC3
  8
0
 10
3689.2290562053390204
 20
302.2788098471899048
 30
0.0
 11
3689.2866719908138293
 21
302.2788098471899048
 31
0.0
  0
LINE
  5
11FC4
  8
0
 10
3689.3920785141131091
 20
302.2788098471899048
 30
0.0
 11
3698.2770890227579912
 21
302.2788098471899048
 31
0.0
  0
LINE
  5
11FC5
  8
0
 10
3698.3847677485559871
 20
302.2788098471899048
 30
0.0
 11
3698.4517243368381969
 21
302.2788098471899048
 31
0.0
  0
LINE
  5
11FC6
  8
0
 10
3689.2290562053390204
 20
302.3838098471899229
 30
0.0
 11
3689.2765170613829468
 21
302.3838098471899229
 31
0.0
  0
LINE
  5
11FC7
  8
0
 10
3689.2290562053390204
 20
302.3838098471899229
 30
0.0
 11
3689.2765170613829468
 21
302.3838098471899229
 31
0.0
  0
LINE
  5
11FC8
  8
0
 10
3689.3820817031069055
 20
302.3838098471899229
 30
0.0
 11
3698.302664514713797
 21
302.3838098471899229
 31
0.0
  0
LINE
  5
11FC9
  8
0
 10
3698.4114330315751431
 20
302.3838098471899229
 30
0.0
 11
3698.4517243368381969
 21
302.3838098471899229
 31
0.0
  0
LINE
  5
11FCA
  8
0
 10
3689.1729287234388721
 20
302.7088098471899116
 30
0.0
 11
3689.2344430799230395
 21
302.7088098471899116
 31
0.0
  0
LINE
  5
11FCB
  8
0
 10
3689.1729287234388721
 20
302.7088098471899116
 30
0.0
 11
3689.2344430799230395
 21
302.7088098471899116
 31
0.0
  0
LINE
  5
11FCC
  8
0
 10
3689.3406678849692071
 20
302.7088098471899116
 30
0.0
 11
3698.4109511830301926
 21
302.7088098471899116
 31
0.0
  0
LINE
  5
11FCD
  8
0
 10
3698.5245952544169086
 20
302.7088098471899116
 30
0.0
 11
3698.6052029629390745
 21
302.7088098471899116
 31
0.0
  0
LINE
  5
11FCE
  8
0
 10
3689.1729287234388721
 20
302.8138098471898729
 30
0.0
 11
3689.217375691160214
 21
302.8138098471898729
 31
0.0
  0
LINE
  5
11FCF
  8
0
 10
3689.1729287234388721
 20
302.8138098471898729
 30
0.0
 11
3689.217375691160214
 21
302.8138098471898729
 31
0.0
  0
LINE
  5
11FD0
  8
0
 10
3689.3238706339971031
 20
302.8138098471898729
 30
0.0
 11
3698.4560212566029804
 21
302.8138098471898729
 31
0.0
  0
LINE
  5
11FD1
  8
0
 10
3698.571829068363968
 20
302.8138098471898729
 30
0.0
 11
3698.6052029629390745
 21
302.8138098471898729
 31
0.0
  0
LINE
  5
11FD2
  8
0
 10
3689.0878253746391238
 20
303.1388098471899184
 30
0.0
 11
3689.1535926566339185
 21
303.1388098471899184
 31
0.0
  0
LINE
  5
11FD3
  8
0
 10
3689.2589592146300674
 20
303.1388098471899184
 30
0.0
 11
3698.6311210798498905
 21
303.1388098471899184
 31
0.0
  0
LINE
  5
11FD4
  8
0
 10
3698.7562036627468842
 20
303.1388098471899184
 30
0.0
 11
3698.8565337766390257
 21
303.1388098471899184
 31
0.0
  0
LINE
  5
11FD5
  8
0
 10
3689.0878253746391238
 20
303.2438098471898797
 30
0.0
 11
3689.1293893677129745
 21
303.2438098471898797
 31
0.0
  0
LINE
  5
11FD6
  8
0
 10
3689.2351410078022127
 20
303.2438098471898797
 30
0.0
 11
3698.7006736540338352
 21
303.2438098471898797
 31
0.0
  0
LINE
  5
11FD7
  8
0
 10
3698.8298791730530866
 20
303.2438098471898797
 30
0.0
 11
3698.8565337766381163
 21
303.2438098471898797
 31
0.0
  0
LINE
  5
11FD8
  8
0
 10
3698.3784339337389611
 20
301.9537348471898781
 30
0.0
 11
3698.3308163863380287
 21
301.9537348471898781
 31
0.0
  0
LINE
  5
11FD9
  8
0
 10
3690.7753272494392149
 20
300.2338098471898888
 30
0.0
 11
3690.7753272494392149
 21
300.5588098471898775
 31
0.0
  0
LINE
  5
11FDA
  8
0
 10
3690.7753272494392149
 20
300.6638098471900094
 30
0.0
 11
3690.7753272494392149
 21
300.988809847189998
 31
0.0
  0
LINE
  5
11FDB
  8
0
 10
3690.7753272494392149
 20
301.0938098471899025
 30
0.0
 11
3690.7753272494392149
 21
301.4188848471898723
 31
0.0
  0
LINE
  5
11FDC
  8
0
 10
3690.7753272494392149
 20
301.5237348471899281
 30
0.0
 11
3690.7753272494392149
 21
301.8488848471898791
 31
0.0
  0
LINE
  5
11FDD
  8
0
 10
3690.7753272494392149
 20
301.9537348471898781
 30
0.0
 11
3690.7753272494392149
 21
302.2788098471899048
 31
0.0
  0
LINE
  5
11FDE
  8
0
 10
3690.7753272494392149
 20
302.3838098471899229
 30
0.0
 11
3690.7753272494392149
 21
302.7088098471899116
 31
0.0
  0
LINE
  5
11FDF
  8
0
 10
3690.7753272494392149
 20
302.8138098471898729
 30
0.0
 11
3690.7753272494392149
 21
303.1388098471899184
 31
0.0
  0
LINE
  5
11FE0
  8
0
 10
3690.7753272494392149
 20
303.2438098471898797
 30
0.0
 11
3690.7753272494392149
 21
303.6328098471900034
 31
0.0
  0
LINE
  5
11FE1
  8
0
 10
3690.7753272494392149
 20
300.1288098471899275
 30
0.0
 11
3690.7753272494392149
 21
299.7398098471899175
 31
0.0
  0
LINE
  5
11FE2
  8
0
 10
3690.7753272494392149
 20
299.5528098471899057
 30
0.0
 11
3690.7753272494392149
 21
299.5003098471898966
 31
0.0
  0
LINE
  5
11FE3
  8
0
 10
3690.8803272494378689
 20
300.2338098471898888
 30
0.0
 11
3690.8803272494378689
 21
300.5588098471898775
 31
0.0
  0
LINE
  5
11FE4
  8
0
 10
3690.8803272494378689
 20
300.6638098471900094
 30
0.0
 11
3690.8803272494378689
 21
300.988809847189998
 31
0.0
  0
LINE
  5
11FE5
  8
0
 10
3690.8803272494378689
 20
301.0938098471899025
 30
0.0
 11
3690.8803272494378689
 21
301.4188848471898723
 31
0.0
  0
LINE
  5
11FE6
  8
0
 10
3690.8803272494378689
 20
301.5237348471899281
 30
0.0
 11
3690.8803272494378689
 21
301.8488848471898791
 31
0.0
  0
LINE
  5
11FE7
  8
0
 10
3690.8803272494378689
 20
301.9537348471898781
 30
0.0
 11
3690.8803272494378689
 21
302.2788098471899048
 31
0.0
  0
LINE
  5
11FE8
  8
0
 10
3690.8803272494378689
 20
302.3838098471899229
 30
0.0
 11
3690.8803272494378689
 21
302.7088098471899116
 31
0.0
  0
LINE
  5
11FE9
  8
0
 10
3690.8803272494378689
 20
302.8138098471898729
 30
0.0
 11
3690.8803272494378689
 21
303.1388098471899184
 31
0.0
  0
LINE
  5
11FEA
  8
0
 10
3690.8803272494378689
 20
303.2438098471898797
 30
0.0
 11
3690.8803272494378689
 21
303.6328098471900034
 31
0.0
  0
LINE
  5
11FEB
  8
0
 10
3690.8803272494378689
 20
300.1288098471899275
 30
0.0
 11
3690.8803272494378689
 21
299.7398098471899175
 31
0.0
  0
LINE
  5
11FEC
  8
0
 10
3690.8803272494378689
 20
299.5528098471899057
 30
0.0
 11
3690.8803272494378689
 21
299.5003098471898966
 31
0.0
  0
CIRCLE
  5
11FED
  8
0
 10
3690.8278272494389967
 20
299.5003098471898966
 30
0.0
 40
0.0524999999999984
  0
LINE
  5
11FEE
  8
0
 10
3692.3153272494378143
 20
300.2338098471898888
 30
0.0
 11
3692.3153272494378143
 21
300.5588098471898775
 31
0.0
  0
LINE
  5
11FEF
  8
0
 10
3692.3153272494378143
 20
300.6638098471900094
 30
0.0
 11
3692.3153272494378143
 21
300.988809847189998
 31
0.0
  0
LINE
  5
11FF0
  8
0
 10
3692.3153272494378143
 20
301.0938098471899025
 30
0.0
 11
3692.3153272494378143
 21
301.4188848471898723
 31
0.0
  0
LINE
  5
11FF1
  8
0
 10
3692.3153272494378143
 20
301.5237348471899281
 30
0.0
 11
3692.3153272494378143
 21
301.8488848471898791
 31
0.0
  0
LINE
  5
11FF2
  8
0
 10
3692.3153272494378143
 20
301.9537348471898781
 30
0.0
 11
3692.3153272494378143
 21
302.2788098471899048
 31
0.0
  0
LINE
  5
11FF3
  8
0
 10
3692.3153272494378143
 20
302.3838098471899229
 30
0.0
 11
3692.3153272494378143
 21
302.7088098471899116
 31
0.0
  0
LINE
  5
11FF4
  8
0
 10
3692.3153272494378143
 20
302.8138098471898729
 30
0.0
 11
3692.3153272494378143
 21
303.1388098471899184
 31
0.0
  0
LINE
  5
11FF5
  8
0
 10
3692.3153272494378143
 20
303.2438098471898797
 30
0.0
 11
3692.3153272494378143
 21
303.6328098471900034
 31
0.0
  0
LINE
  5
11FF6
  8
0
 10
3692.3153272494378143
 20
300.1288098471899275
 30
0.0
 11
3692.3153272494378143
 21
299.7398098471899175
 31
0.0
  0
LINE
  5
11FF7
  8
0
 10
3692.3153272494378143
 20
299.5528098471899057
 30
0.0
 11
3692.3153272494378143
 21
299.5003098471898966
 31
0.0
  0
LINE
  5
11FF8
  8
0
 10
3692.4203272494378325
 20
300.2338098471898888
 30
0.0
 11
3692.4203272494378325
 21
300.5588098471898775
 31
0.0
  0
LINE
  5
11FF9
  8
0
 10
3692.4203272494378325
 20
300.6638098471900094
 30
0.0
 11
3692.4203272494378325
 21
300.988809847189998
 31
0.0
  0
LINE
  5
11FFA
  8
0
 10
3692.4203272494378325
 20
301.0938098471899025
 30
0.0
 11
3692.4203272494378325
 21
301.4188848471898723
 31
0.0
  0
LINE
  5
11FFB
  8
0
 10
3692.4203272494378325
 20
301.5237348471899281
 30
0.0
 11
3692.4203272494378325
 21
301.8488848471898791
 31
0.0
  0
LINE
  5
11FFC
  8
0
 10
3692.4203272494378325
 20
301.9537348471898781
 30
0.0
 11
3692.4203272494378325
 21
302.2788098471899048
 31
0.0
  0
LINE
  5
11FFD
  8
0
 10
3692.4203272494378325
 20
302.3838098471899229
 30
0.0
 11
3692.4203272494378325
 21
302.7088098471899116
 31
0.0
  0
LINE
  5
11FFE
  8
0
 10
3692.4203272494378325
 20
302.8138098471898729
 30
0.0
 11
3692.4203272494378325
 21
303.1388098471899184
 31
0.0
  0
LINE
  5
11FFF
  8
0
 10
3692.4203272494378325
 20
303.2438098471898797
 30
0.0
 11
3692.4203272494378325
 21
303.6328098471900034
 31
0.0
  0
LINE
  5
12000
  8
0
 10
3692.4203272494378325
 20
300.1288098471899275
 30
0.0
 11
3692.4203272494378325
 21
299.7398098471899175
 31
0.0
  0
LINE
  5
12001
  8
0
 10
3692.4203272494378325
 20
299.5528098471899057
 30
0.0
 11
3692.4203272494378325
 21
299.5003098471898966
 31
0.0
  0
CIRCLE
  5
12002
  8
0
 10
3692.3678272494389603
 20
299.5003098471898966
 30
0.0
 40
0.0524999999999984
  0
LINE
  5
12003
  8
0
 10
3693.8553272494377779
 20
300.2338098471898888
 30
0.0
 11
3693.8553272494377779
 21
300.5588098471898775
 31
0.0
  0
LINE
  5
12004
  8
0
 10
3693.8553272494377779
 20
300.6638098471900094
 30
0.0
 11
3693.8553272494377779
 21
300.988809847189998
 31
0.0
  0
LINE
  5
12005
  8
0
 10
3693.8553272494377779
 20
301.0938098471899025
 30
0.0
 11
3693.8553272494377779
 21
301.4188848471898723
 31
0.0
  0
LINE
  5
12006
  8
0
 10
3693.8553272494377779
 20
301.5237348471899281
 30
0.0
 11
3693.8553272494377779
 21
301.8488848471898791
 31
0.0
  0
LINE
  5
12007
  8
0
 10
3693.8553272494377779
 20
301.9537348471898781
 30
0.0
 11
3693.8553272494377779
 21
302.2788098471899048
 31
0.0
  0
LINE
  5
12008
  8
0
 10
3693.8553272494377779
 20
302.3838098471899229
 30
0.0
 11
3693.8553272494377779
 21
302.7088098471899116
 31
0.0
  0
LINE
  5
12009
  8
0
 10
3693.8553272494377779
 20
302.8138098471898729
 30
0.0
 11
3693.8553272494377779
 21
303.1388098471899184
 31
0.0
  0
LINE
  5
1200A
  8
0
 10
3693.8553272494377779
 20
303.2438098471898797
 30
0.0
 11
3693.8553272494377779
 21
303.6328098471900034
 31
0.0
  0
LINE
  5
1200B
  8
0
 10
3693.8553272494377779
 20
300.1288098471899275
 30
0.0
 11
3693.8553272494377779
 21
299.7398098471899175
 31
0.0
  0
LINE
  5
1200C
  8
0
 10
3693.8553272494377779
 20
299.5528098471899057
 30
0.0
 11
3693.8553272494377779
 21
299.5003098471898966
 31
0.0
  0
LINE
  5
1200D
  8
0
 10
3693.9603272494377961
 20
300.2338098471898888
 30
0.0
 11
3693.9603272494377961
 21
300.5588098471898775
 31
0.0
  0
LINE
  5
1200E
  8
0
 10
3693.9603272494377961
 20
300.6638098471900094
 30
0.0
 11
3693.9603272494377961
 21
300.988809847189998
 31
0.0
  0
LINE
  5
1200F
  8
0
 10
3693.9603272494377961
 20
301.0938098471899025
 30
0.0
 11
3693.9603272494377961
 21
301.4188848471898723
 31
0.0
  0
LINE
  5
12010
  8
0
 10
3693.9603272494377961
 20
301.5237348471899281
 30
0.0
 11
3693.9603272494377961
 21
301.8488848471898791
 31
0.0
  0
LINE
  5
12011
  8
0
 10
3693.9603272494377961
 20
301.9537348471898781
 30
0.0
 11
3693.9603272494377961
 21
302.2788098471899048
 31
0.0
  0
LINE
  5
12012
  8
0
 10
3693.9603272494377961
 20
302.3838098471899229
 30
0.0
 11
3693.9603272494377961
 21
302.7088098471899116
 31
0.0
  0
LINE
  5
12013
  8
0
 10
3693.9603272494377961
 20
302.8138098471898729
 30
0.0
 11
3693.9603272494377961
 21
303.1388098471899184
 31
0.0
  0
LINE
  5
12014
  8
0
 10
3693.9603272494377961
 20
303.2438098471898797
 30
0.0
 11
3693.9603272494377961
 21
303.6328098471900034
 31
0.0
  0
LINE
  5
12015
  8
0
 10
3693.9603272494377961
 20
300.1288098471899275
 30
0.0
 11
3693.9603272494377961
 21
299.7398098471899175
 31
0.0
  0
LINE
  5
12016
  8
0
 10
3693.9603272494377961
 20
299.5528098471899057
 30
0.0
 11
3693.9603272494377961
 21
299.5003098471898966
 31
0.0
  0
CIRCLE
  5
12017
  8
0
 10
3693.9078272494389239
 20
299.5003098471898966
 30
0.0
 40
0.0524999999999984
  0
LINE
  5
12018
  8
0
 10
3695.3953272494381963
 20
300.2338098471898888
 30
0.0
 11
3695.3953272494381963
 21
300.5588098471898775
 31
0.0
  0
LINE
  5
12019
  8
0
 10
3695.3953272494381963
 20
300.6638098471900094
 30
0.0
 11
3695.3953272494381963
 21
300.988809847189998
 31
0.0
  0
LINE
  5
1201A
  8
0
 10
3695.3953272494381963
 20
301.0938098471899025
 30
0.0
 11
3695.3953272494381963
 21
301.4188848471898723
 31
0.0
  0
LINE
  5
1201B
  8
0
 10
3695.3953272494381963
 20
301.5237348471899281
 30
0.0
 11
3695.3953272494381963
 21
301.8488848471898791
 31
0.0
  0
LINE
  5
1201C
  8
0
 10
3695.3953272494381963
 20
301.9537348471898781
 30
0.0
 11
3695.3953272494381963
 21
302.2788098471899048
 31
0.0
  0
LINE
  5
1201D
  8
0
 10
3695.3953272494381963
 20
302.3838098471899229
 30
0.0
 11
3695.3953272494381963
 21
302.7088098471899116
 31
0.0
  0
LINE
  5
1201E
  8
0
 10
3695.3953272494381963
 20
302.8138098471898729
 30
0.0
 11
3695.3953272494381963
 21
303.1388098471899184
 31
0.0
  0
LINE
  5
1201F
  8
0
 10
3695.3953272494381963
 20
303.2438098471898797
 30
0.0
 11
3695.3953272494381963
 21
303.6328098471900034
 31
0.0
  0
LINE
  5
12020
  8
0
 10
3695.3953272494381963
 20
300.1288098471899275
 30
0.0
 11
3695.3953272494381963
 21
299.7398098471899175
 31
0.0
  0
LINE
  5
12021
  8
0
 10
3695.3953272494381963
 20
299.5528098471899057
 30
0.0
 11
3695.3953272494381963
 21
299.5003098471898966
 31
0.0
  0
LINE
  5
12022
  8
0
 10
3695.5003272494382145
 20
300.2338098471898888
 30
0.0
 11
3695.5003272494382145
 21
300.5588098471898775
 31
0.0
  0
LINE
  5
12023
  8
0
 10
3695.5003272494382145
 20
300.6638098471900094
 30
0.0
 11
3695.5003272494382145
 21
300.988809847189998
 31
0.0
  0
LINE
  5
12024
  8
0
 10
3695.5003272494382145
 20
301.0938098471899025
 30
0.0
 11
3695.5003272494382145
 21
301.4188848471898723
 31
0.0
  0
LINE
  5
12025
  8
0
 10
3695.5003272494382145
 20
301.5237348471899281
 30
0.0
 11
3695.5003272494382145
 21
301.8488848471898791
 31
0.0
  0
LINE
  5
12026
  8
0
 10
3695.5003272494382145
 20
301.9537348471898781
 30
0.0
 11
3695.5003272494382145
 21
302.2788098471899048
 31
0.0
  0
LINE
  5
12027
  8
0
 10
3695.5003272494382145
 20
302.3838098471899229
 30
0.0
 11
3695.5003272494382145
 21
302.7088098471899116
 31
0.0
  0
LINE
  5
12028
  8
0
 10
3695.5003272494382145
 20
302.8138098471898729
 30
0.0
 11
3695.5003272494382145
 21
303.1388098471899184
 31
0.0
  0
LINE
  5
12029
  8
0
 10
3695.5003272494382145
 20
303.2438098471898797
 30
0.0
 11
3695.5003272494382145
 21
303.6328098471900034
 31
0.0
  0
LINE
  5
1202A
  8
0
 10
3695.5003272494382145
 20
300.1288098471899275
 30
0.0
 11
3695.5003272494382145
 21
299.7398098471899175
 31
0.0
  0
LINE
  5
1202B
  8
0
 10
3695.5003272494382145
 20
299.5528098471899057
 30
0.0
 11
3695.5003272494382145
 21
299.5003098471898966
 31
0.0
  0
CIRCLE
  5
1202C
  8
0
 10
3695.447827249437978
 20
299.5003098471898966
 30
0.0
 40
0.0524999999999984
  0
LINE
  5
1202D
  8
0
 10
3696.9353272494381599
 20
300.2338098471898888
 30
0.0
 11
3696.9353272494381599
 21
300.5588098471898775
 31
0.0
  0
LINE
  5
1202E
  8
0
 10
3696.9353272494381599
 20
300.6638098471900094
 30
0.0
 11
3696.9353272494381599
 21
300.988809847189998
 31
0.0
  0
LINE
  5
1202F
  8
0
 10
3696.9353272494381599
 20
301.0938098471899025
 30
0.0
 11
3696.9353272494381599
 21
301.4188848471898723
 31
0.0
  0
LINE
  5
12030
  8
0
 10
3696.9353272494381599
 20
301.5237348471899281
 30
0.0
 11
3696.9353272494381599
 21
301.8488848471898791
 31
0.0
  0
LINE
  5
12031
  8
0
 10
3696.9353272494381599
 20
301.9537348471898781
 30
0.0
 11
3696.9353272494381599
 21
302.2788098471899048
 31
0.0
  0
LINE
  5
12032
  8
0
 10
3696.9353272494381599
 20
302.3838098471899229
 30
0.0
 11
3696.9353272494381599
 21
302.7088098471899116
 31
0.0
  0
LINE
  5
12033
  8
0
 10
3696.9353272494381599
 20
302.8138098471898729
 30
0.0
 11
3696.9353272494381599
 21
303.1388098471899184
 31
0.0
  0
LINE
  5
12034
  8
0
 10
3696.9353272494381599
 20
303.2438098471898797
 30
0.0
 11
3696.9353272494381599
 21
303.6328098471900034
 31
0.0
  0
LINE
  5
12035
  8
0
 10
3696.9353272494381599
 20
300.1288098471899275
 30
0.0
 11
3696.9353272494381599
 21
299.7398098471899175
 31
0.0
  0
LINE
  5
12036
  8
0
 10
3696.9353272494381599
 20
299.5528098471899057
 30
0.0
 11
3696.9353272494381599
 21
299.5003098471898966
 31
0.0
  0
LINE
  5
12037
  8
0
 10
3697.0403272494381781
 20
300.2338098471898888
 30
0.0
 11
3697.0403272494381781
 21
300.5588098471898775
 31
0.0
  0
LINE
  5
12038
  8
0
 10
3697.0403272494381781
 20
300.6638098471900094
 30
0.0
 11
3697.0403272494381781
 21
300.988809847189998
 31
0.0
  0
LINE
  5
12039
  8
0
 10
3697.0403272494381781
 20
301.0938098471899025
 30
0.0
 11
3697.0403272494381781
 21
301.4188848471898723
 31
0.0
  0
LINE
  5
1203A
  8
0
 10
3697.0403272494381781
 20
301.5237348471899281
 30
0.0
 11
3697.0403272494381781
 21
301.8488848471898791
 31
0.0
  0
LINE
  5
1203B
  8
0
 10
3697.0403272494381781
 20
301.9537348471898781
 30
0.0
 11
3697.0403272494381781
 21
302.2788098471899048
 31
0.0
  0
LINE
  5
1203C
  8
0
 10
3697.0403272494381781
 20
302.3838098471899229
 30
0.0
 11
3697.0403272494381781
 21
302.7088098471899116
 31
0.0
  0
LINE
  5
1203D
  8
0
 10
3697.0403272494381781
 20
302.8138098471898729
 30
0.0
 11
3697.0403272494381781
 21
303.1388098471899184
 31
0.0
  0
LINE
  5
1203E
  8
0
 10
3697.0403272494381781
 20
303.2438098471898797
 30
0.0
 11
3697.0403272494381781
 21
303.6328098471900034
 31
0.0
  0
LINE
  5
1203F
  8
0
 10
3697.0403272494381781
 20
300.1288098471899275
 30
0.0
 11
3697.0403272494381781
 21
299.7398098471899175
 31
0.0
  0
LINE
  5
12040
  8
0
 10
3697.0403272494381781
 20
299.5528098471899057
 30
0.0
 11
3697.0403272494381781
 21
299.5003098471898966
 31
0.0
  0
CIRCLE
  5
12041
  8
0
 10
3696.9878272494388511
 20
299.5003098471898966
 30
0.0
 40
0.0524999999999984
  0
CIRCLE
  5
12042
  8
0
 10
3700.937919673138822
 20
301.6863098471898752
 30
0.0
 40
1.8599999999999981
  0
ARC
  5
12043
  8
0
 10
3700.937919673138822
 20
301.6863098471898752
 30
0.0
 40
2.7259999999999982
 50
343.6921280495610063
 51
343.6991940493442144
  0
ARC
  5
12044
  8
0
 10
3700.937919673138822
 20
301.6863098471898752
 30
0.0
 40
2.7259999999999982
 50
16.3008059506558105
 51
16.3078719504390612
  0
ARC
  5
12045
  8
0
 10
3700.937919673138822
 20
301.6863098471898752
 30
0.0
 40
2.7259999999999982
 50
46.5586225787666876
 51
46.7826208951896305
  0
ARC
  5
12046
  8
0
 10
3700.937919673138822
 20
301.6863098471898752
 30
0.0
 40
2.516
 50
127.8530126295146943
 51
230.6826745415436051
  0
ARC
  5
12047
  8
0
 10
3700.937919673138822
 20
301.6863098471898752
 30
0.0
 40
2.516
 50
237.9918784721014902
 51
52.1469873704852489
  0
ARC
  5
12048
  8
0
 10
3700.937919673138822
 20
301.6863098471898752
 30
0.0
 40
2.6210000000000009
 50
130.7156772408974064
 51
226.6114077943078939
  0
ARC
  5
12049
  8
0
 10
3700.937919673138822
 20
301.6863098471898752
 30
0.0
 40
2.6210000000000009
 50
348.1611483691186208
 51
348.1712090078576125
  0
ARC
  5
1204A
  8
0
 10
3700.937919673138822
 20
301.6863098471898752
 30
0.0
 40
2.6210000000000009
 50
11.8287909921424497
 51
11.8388516308845908
  0
ARC
  5
1204B
  8
0
 10
3700.937919673138822
 20
301.6863098471898752
 30
0.0
 40
2.6210000000000009
 50
49.0398539780614797
 51
49.2843227591025723
  0
ARC
  5
1204C
  8
0
 10
3700.937919673138822
 20
301.6863098471898752
 30
0.0
 40
2.3289999999999988
 50
121.4621517707868037
 51
58.5378482292131679
  0
ARC
  5
1204D
  8
0
 10
3706.433936601548794
 20
301.6863150222018248
 30
0.0
 40
2.792516928415397
 50
146.0027586650359979
 51
213.9966581442984079
  0
ARC
  5
1204E
  8
0
 10
3706.4339196731389166
 20
301.6863098471898752
 30
0.0
 40
2.979674088804257
 50
140.9857610757688064
 51
219.0142389242311083
  0
ARC
  5
1204F
  8
0
 10
3699.0464225808382253
 20
299.6853098471898988
 30
0.0
 40
0.1325000000000015
 50
123.2807142022166005
 51
155.7121704125264046
  0
ARC
  5
12050
  8
0
 10
3699.0464225808382253
 20
299.6853098471898988
 30
0.0
 40
0.1325000000000015
 50
24.2878295874736416
 51
46.6114077769115909
  0
LINE
  5
12051
  8
0
 10
3688.5776196731389973
 20
299.5528098471899057
 30
0.0
 11
3699.6043403729090642
 21
299.5528098471899057
 31
0.0
  0
LINE
  5
12052
  8
0
 10
3688.5776196731389973
 20
299.7398098509511897
 30
0.0
 11
3688.7181555022139037
 21
299.7398098509019064
 31
0.0
  0
LINE
  5
12053
  8
0
 10
3688.9141462630650494
 20
299.7398098508331259
 30
0.0
 11
3699.3437447298110783
 21
299.7398098471729213
 31
0.0
  0
LINE
  5
12054
  8
0
 10
3688.7181555022139037
 20
299.7398098509019064
 30
0.0
 11
3688.7861060920381533
 21
299.6463098471899116
 31
0.0
  0
LINE
  5
12055
  8
0
 10
3688.7861060920381533
 20
299.6463098471899116
 30
0.0
 11
3688.9141462619340928
 21
299.7398098471725234
 31
0.0
  0
ARC
  5
12056
  8
0
 10
3701.0923198753630459
 20
304.6306314694714956
 30
0.0
 40
5.1940014613850876
 50
250.326924637791592
 51
253.6643321639614044
  0
LINE
  5
12057
  8
0
 10
3699.6314334504518229
 20
299.6463098471896842
 30
0.0
 11
3699.6043403728381236
 21
299.5528098471899057
 31
0.0
  0
LINE
  5
12058
  8
0
 10
3688.5776196731389973
 20
299.1698098471899812
 30
0.0
 11
3704.1187440699382023
 21
299.1698098471899812
 31
0.0
  0
LINE
  5
12059
  8
0
 10
3688.5776196731389973
 20
298.9828098471899125
 30
0.0
 11
3704.1187440699382023
 21
298.9828098471899125
 31
0.0
  0
ARC
  5
1205A
  8
0
 10
3688.4836196731389464
 20
299.3613098471898866
 30
0.0
 40
0.1715
 50
90.0
 51
270.0
  0
ARC
  5
1205B
  8
0
 10
3688.4836196731389464
 20
299.3613098471898866
 30
0.0
 40
0.3984999999999999
 50
90.0
 51
270.0
  0
LINE
  5
1205C
  8
0
 10
3688.4836196731389464
 20
299.5328098471899239
 30
0.0
 11
3688.4836196731389464
 21
299.7598098471898993
 31
0.0
  0
LINE
  5
1205D
  8
0
 10
3688.4836196731389464
 20
299.1898098471899061
 30
0.0
 11
3688.4836196731389464
 21
298.9628098471898738
 31
0.0
  0
LINE
  5
1205E
  8
0
 10
3688.5676196731378695
 20
299.5328098471899239
 30
0.0
 11
3688.5676196731378695
 21
299.7598098471898993
 31
0.0
  0
LINE
  5
1205F
  8
0
 10
3688.5676196731378695
 20
299.1898098471899061
 30
0.0
 11
3688.5676196731378695
 21
298.9628098471898738
 31
0.0
  0
LINE
  5
12060
  8
0
 10
3688.5676196731378695
 20
299.5328098471899239
 30
0.0
 11
3688.4836196731389464
 21
299.5328098471899239
 31
0.0
  0
LINE
  5
12061
  8
0
 10
3688.4836196731389464
 20
299.1898098471899061
 30
0.0
 11
3688.5676196731378695
 21
299.1898098471899061
 31
0.0
  0
LINE
  5
12062
  8
0
 10
3688.5776196731389973
 20
299.5428098471899148
 30
0.0
 11
3688.5776196731389973
 21
299.7498098471899084
 31
0.0
  0
LINE
  5
12063
  8
0
 10
3688.5776196731389973
 20
299.1798098471899152
 30
0.0
 11
3688.5776196731389973
 21
298.9728098471899216
 31
0.0
  0
ARC
  5
12064
  8
0
 10
3688.5676196731378695
 20
299.5428098471899148
 30
0.0
 40
0.0100000000000016
 50
270.0
 51
0.0
  0
LINE
  5
12065
  8
0
 10
3688.4836196731389464
 20
299.7598098471898993
 30
0.0
 11
3688.5676196731378695
 21
299.7598098471898993
 31
0.0
  0
ARC
  5
12066
  8
0
 10
3688.5676196731378695
 20
299.7498098471899084
 30
0.0
 40
0.0099999999999998
 50
0.0
 51
90.0
  0
ARC
  5
12067
  8
0
 10
3688.5676196731378695
 20
299.1798098471899152
 30
0.0
 40
0.0099999999999993
 50
0.0
 51
90.0
  0
LINE
  5
12068
  8
0
 10
3688.5676196731378695
 20
298.9628098471898738
 30
0.0
 11
3688.4836196731389464
 21
298.9628098471898738
 31
0.0
  0
ARC
  5
12069
  8
0
 10
3688.5676196731378695
 20
298.9728098471899216
 30
0.0
 40
0.009999999999999
 50
270.0
 51
0.0
  0
ARC
  5
1206A
  8
0
 10
3704.1702683232388154
 20
299.4043098471900066
 30
0.0
 40
0.2145
 50
270.0
 51
45.2364342623773226
  0
ARC
  5
1206B
  8
0
 10
3704.1702683232388154
 20
299.4043098471900066
 30
0.0
 40
0.4415000000000005
 50
270.0
 51
45.2364342539092092
  0
ARC
  5
1206C
  8
0
 10
3704.1702683232388154
 20
299.4043098471900066
 30
0.0
 40
0.4415000000000005
 50
99.7068884082892026
 51
99.7326166710099642
  0
LINE
  5
1206D
  8
0
 10
3704.1287440699388753
 20
299.1898098471899061
 30
0.0
 11
3704.1287440699388753
 21
298.9628098471898738
 31
0.0
  0
LINE
  5
1206E
  8
0
 10
3704.1287440699388753
 20
299.1898098471899061
 30
0.0
 11
3704.1702683232388154
 21
299.1898098471899061
 31
0.0
  0
LINE
  5
1206F
  8
0
 10
3704.1187440699382023
 20
299.1798098471899152
 30
0.0
 11
3704.1187440699382023
 21
298.9728098471899216
 31
0.0
  0
LINE
  5
12070
  8
0
 10
3704.1287440699388753
 20
298.9628098471898738
 30
0.0
 11
3704.1702683232388154
 21
298.9628098471898738
 31
0.0
  0
ARC
  5
12071
  8
0
 10
3704.1287440699388753
 20
298.9728098471899216
 30
0.0
 40
0.0099999999999985
 50
180.0
 51
270.0
  0
ARC
  5
12072
  8
0
 10
3704.1287440699388753
 20
299.1798098471899152
 30
0.0
 40
0.0099999999999985
 50
90.0
 51
180.0
  0
LINE
  5
12073
  8
0
 10
3704.3213155452140199
 20
299.5566088515648744
 30
0.0
 11
3704.4811650528981772
 21
299.7177830892491102
 31
0.0
  0
ARC
  5
12074
  8
0
 10
3706.4335120132391239
 20
301.6863098471898752
 30
0.0
 40
2.7724999999999991
 50
214.0746467094992909
 51
225.2364342543330054
  0
ARC
  5
12075
  8
0
 10
3706.4335120132391239
 20
301.6863098471898752
 30
0.0
 40
2.9994999999999972
 50
219.560336425991693
 51
225.2364342536835125
  0
LINE
  5
12076
  8
0
 10
3704.1210083429868973
 20
299.7759901541843988
 30
0.0
 11
3704.1370271533401137
 21
300.1329542735184077
 31
0.0
  0
LINE
  5
12077
  8
0
 10
3704.1187599631311969
 20
303.2457911405535924
 30
0.0
 11
3704.1187599631311969
 21
303.5908434574125181
 31
0.0
  0
ARC
  5
12078
  8
0
 10
3704.1287900543111391
 20
299.7823442641765155
 30
0.0
 40
0.0100463796920117
 50
180.5082861135051076
 51
219.2331519231263997
  0
ARC
  5
12079
  8
0
 10
3704.1287432627391354
 20
300.12735238178999
 30
0.0
 40
0.0099970329000001
 50
34.0436718397618208
 51
182.7816578431468884
  0
LINE
  5
1207A
  8
0
 10
3704.118758009098201
 20
300.1278375379811223
 30
0.0
 11
3704.1187580090968368
 21
299.7818077814328035
 31
0.0
  0
LINE
  5
1207B
  8
0
 10
3704.1791240963830205
 20
303.6655992548899121
 30
0.0
 11
3704.1210351627391901
 21
303.5966621300898964
 31
0.0
  0
ARC
  5
1207C
  8
0
 10
3706.4339196731389166
 20
301.6863098471898752
 30
0.0
 40
2.7728060042796812
 50
134.4532745489941874
 51
145.9309528043571902
  0
ARC
  5
1207D
  8
0
 10
3704.1287432627391354
 20
303.2452673125898741
 30
0.0
 40
0.0099970329000009
 50
176.996420563310096
 51
325.9563286485550861
  0
ARC
  5
1207E
  8
0
 10
3704.1287432627391354
 20
303.2452673125898741
 30
0.0
 40
0.0099970329000009
 50
39.1734366665208498
 51
39.1814382966233907
  0
LINE
  5
1207F
  8
0
 10
3704.1370295321898993
 20
303.2396123991035779
 30
0.0
 11
3704.1210351627391901
 21
303.5966621300898964
 31
0.0
  0
ARC
  5
12080
  8
0
 10
3704.1286779165398002
 20
303.5903357820563997
 30
0.0
 40
0.0099214094317318
 50
140.3834817706041918
 51
178.4876517884495968
  0
ARC
  5
12081
  8
0
 10
3703.8513272494378725
 20
302.9746425861898729
 30
0.0
 40
0.1081499999999997
 50
303.9636975287469909
 51
3.0119254972695129
  0
ARC
  5
12082
  8
0
 10
3703.8513272494378725
 20
302.9746425861898729
 30
0.0
 40
0.1081499999999997
 50
122.673470744649606
 51
184.3016683835352865
  0
ARC
  5
12083
  8
0
 10
3703.8513272494378725
 20
302.9746425861898729
 30
0.0
 40
0.0981500000000003
 50
316.2652706575353818
 51
350.7103523684900779
  0
ARC
  5
12084
  8
0
 10
3703.8513272494378725
 20
302.9746425861898729
 30
0.0
 40
0.0981500000000003
 50
135.288558083049395
 51
171.6865810451344885
  0
ARC
  5
12085
  8
0
 10
3703.8513272494378725
 20
300.3979385631898822
 30
0.0
 40
0.1081499999999997
 50
356.9880745027305124
 51
56.0363024712511901
  0
ARC
  5
12086
  8
0
 10
3703.8513272494378725
 20
300.3979385631898822
 30
0.0
 40
0.1081499999999997
 50
175.6983316164613029
 51
237.3265292553504082
  0
ARC
  5
12087
  8
0
 10
3703.8513272494378725
 20
300.3979385631898822
 30
0.0
 40
0.0981500000000003
 50
9.2896476315098973
 51
43.7347293424645613
  0
ARC
  5
12088
  8
0
 10
3703.8513272494378725
 20
300.3979385631898822
 30
0.0
 40
0.0981500000000003
 50
188.313418954861703
 51
224.7114419169481891
  0
LINE
  5
12089
  8
0
 10
3687.9301196731389609
 20
298.8318098471900157
 30
0.0
 11
3704.7605196731387878
 21
298.8318098471900157
 31
0.0
  0
LINE
  5
1208A
  8
0
 10
3661.2601196731379787
 20
303.6655992548899121
 30
0.0
 11
3661.2601196731379787
 21
303.6729122112899972
 31
0.0
  0
LINE
  5
1208B
  8
0
 10
3704.7605196731387878
 20
303.6729122112899972
 30
0.0
 11
3704.7605196731387878
 21
288.3251074830898801
 31
0.0
  0
LINE
  5
1208C
  8
0
 10
3661.2600566238911597
 20
303.6729122112899972
 30
0.0
 11
3704.7605196731387878
 21
303.6729122112899972
 31
0.0
  0
ARC
  5
1208D
  8
0
 10
3688.4836196731389464
 20
304.0113098471899207
 30
0.0
 40
0.3984999999999986
 50
238.1224316219924049
 51
270.0
  0
LINE
  5
1208E
  8
0
 10
3688.4836196731389464
 20
303.6128098471899079
 30
0.0
 11
3688.5676196731378695
 21
303.6128098471899079
 31
0.0
  0
LINE
  5
1208F
  8
0
 10
3688.5776196731389973
 20
303.6228098471898988
 30
0.0
 11
3688.5776196731389973
 21
303.6729122112899972
 31
0.0
  0
ARC
  5
12090
  8
0
 10
3688.5676196731378695
 20
303.6228098471898988
 30
0.0
 40
0.0100000000000013
 50
270.0
 51
0.0
  0
LINE
  5
12091
  8
0
 10
3688.7181555010301963
 20
303.6328098471900034
 30
0.0
 11
3688.5776196731389973
 21
303.6328098471900034
 31
0.0
  0
LINE
  5
12092
  8
0
 10
3688.7181542334010373
 20
303.6328098471900034
 30
0.0
 11
3688.7181555010301963
 21
303.6328098471900034
 31
0.0
  0
LINE
  5
12093
  8
0
 10
3688.7181542334010373
 20
303.6328098471900034
 30
0.0
 11
3688.7474394017622217
 21
303.6729122112899972
 31
0.0
  0
LINE
  5
12094
  8
0
 10
3688.9142064204461349
 20
303.6328098471900034
 30
0.0
 11
3688.8596042211011081
 21
303.6729122112899972
 31
0.0
  0
LINE
  5
12095
  8
0
 10
3688.9141462618467813
 20
303.6328098471900034
 30
0.0
 11
3699.1827049426851772
 21
303.6328098471900034
 31
0.0
  0
ARC
  5
12096
  8
0
 10
3700.937919673138822
 20
301.6863098471898752
 30
0.0
 40
2.726
 50
134.4346117843840887
 51
225.5653882156157977
  0
LINE
  5
12097
  8
0
 10
3699.1374425063390845
 20
303.591020578989685
 30
0.0
 11
3699.0979401178387889
 21
303.6328098471900034
 31
0.0
  0
ARC
  5
12098
  8
0
 10
3699.0464225808382253
 20
303.6873098471899084
 30
0.0
 40
0.1325000000000017
 50
313.3885922230862207
 51
335.7121704125233919
  0
LINE
  5
1209A
  8
0
 10
3661.2601196731379787
 20
303.6729122112899972
 30
0.0
 11
3661.2601196731379787
 21
288.3251074830898801
 31
0.0
  0
LINE
  5
1209B
  8
0
 10
3710.8054196731382035
 20
304.1990098471899273
 30
0.0
 11
3710.8054196731382035
 21
302.8290098471903775
 31
0.0
  0
LINE
  5
1209C
  8
0
 10
3710.8054196731382035
 20
289.1990098471899273
 30
0.0
 11
3710.8054196731382035
 21
287.7990098471898932
 31
0.0
  0
LINE
  5
1209D
  8
0
 10
3727.0704196731389857
 20
287.7990098471898932
 30
0.0
 11
3710.8054196731382035
 21
287.7990098471898932
 31
0.0
  0
LINE
  5
1209E
  8
0
 10
3727.0704196731389857
 20
304.1990098471899273
 30
0.0
 11
3727.0704196731389857
 21
301.3655598471626718
 31
0.0
  0
LINE
  5
1209F
  8
0
 10
3727.0704196731389857
 20
290.6324598472170919
 30
0.0
 11
3727.0704196731389857
 21
287.7990098471898932
 31
0.0
  0
LINE
  5
120A0
  8
0
 10
3710.8054196731382035
 20
304.1990098471899273
 30
0.0
 11
3727.0704196731389857
 21
304.1990098471899273
 31
0.0
  0
ARC
  5
120A1
  8
0
 10
3731.7282493284378688
 20
295.9990098471898818
 30
0.0
 40
7.1060000000000008
 50
130.9559362828657072
 51
229.0440637171342928
  0
ARC
  5
120A2
  8
0
 10
3731.7282493284378688
 20
295.9990098471898818
 30
0.0
 40
7.2059463150999967
 50
130.2697439827524022
 51
229.7302560172475978
  0
LINE
  5
120A3
  8
0
 10
3727.0704196731389857
 20
288.3990098471899159
 30
0.0
 11
3710.8054196731382035
 21
288.3990098471899159
 31
0.0
  0
LINE
  5
120A4
  8
0
 10
3719.180419673139113
 20
303.5990098471899046
 30
0.0
 11
3727.0704196731389857
 21
303.5990098471899046
 31
0.0
  0
LINE
  5
120A5
  8
0
 10
3725.1688156816730952
 20
302.8290098471898091
 30
0.0
 11
3710.8054196731382035
 21
302.8290098471903775
 31
0.0
  0
LINE
  5
120A6
  8
0
 10
3721.3603309346599417
 20
304.020552289445618
 30
0.0
 11
3721.3604196731389493
 21
303.5990098471899046
 31
0.0
  0
LINE
  5
120A7
  8
0
 10
3721.3603713984539354
 20
302.8290098471899228
 30
0.0
 11
3721.3604196731389493
 21
302.423427168889873
 31
0.0
  0
LINE
  5
120A8
  8
0
 10
3720.3379196731380034
 20
302.8290098471899228
 30
0.0
 11
3720.3379196731380034
 21
302.3703626230898749
 31
0.0
  0
LINE
  5
120A9
  8
0
 10
3721.352551734626104
 20
302.3703626230898749
 30
0.0
 11
3720.3379196731380034
 21
302.3703626230898749
 31
0.0
  0
LINE
  5
120AA
  8
0
 10
3720.1582876116508487
 20
302.3703626230898749
 30
0.0
 11
3720.1582855546489554
 21
302.3703626230898749
 31
0.0
  0
LINE
  5
120AB
  8
0
 10
3721.2354196731380398
 20
302.2890098471899023
 30
0.0
 11
3720.2754196731380034
 21
302.2890098471899023
 31
0.0
  0
LINE
  5
120AC
  8
0
 10
3721.1729196731389493
 20
302.8290098471899228
 30
0.0
 11
3721.1729196731389493
 21
302.5222630226630258
 31
0.0
  0
LINE
  5
120AD
  8
0
 10
3721.2354290335320002
 20
304.1390094771423946
 30
0.0
 11
3720.2754196822379527
 21
304.1390098470898806
 31
0.0
  0
LINE
  5
120AE
  8
0
 10
3721.2354196731380398
 20
304.0599519194898903
 30
0.0
 11
3720.2754196809059977
 21
304.0599519194898903
 31
0.0
  0
LINE
  5
120AF
  8
0
 10
3720.1504635159390091
 20
304.0205427097898792
 30
0.0
 11
3720.1503758303379072
 21
303.5990026891017237
 31
0.0
  0
LINE
  5
120B0
  8
0
 10
3720.1504673753202042
 20
302.8290098471899228
 30
0.0
 11
3720.1503797923860475
 21
302.4079633808062795
 31
0.0
  0
LINE
  5
120B1
  8
0
 10
3720.2754196731380034
 20
304.1390094758899068
 30
0.0
 11
3720.2754196731380034
 21
303.5990025933541006
 31
0.0
  0
LINE
  5
120B2
  8
0
 10
3721.2354166859418001
 20
304.1390094758899068
 30
0.0
 11
3721.2354166859418001
 21
303.5989677616519202
 31
0.0
  0
ARC
  5
120B3
  8
0
 10
3720.1661103837668634
 20
304.0185840533446253
 30
0.0
 40
0.0157254801229005
 50
151.7616498458145031
 51
172.8450545214961949
  0
ARC
  5
120B4
  8
0
 10
3720.1758334157730133
 20
304.0127577539606136
 30
0.0
 40
0.0270532448713508
 50
127.4063457227741054
 51
150.6337308282402034
  0
ARC
  5
120B5
  8
0
 10
3720.2045633083262146
 20
303.9751892385226029
 30
0.0
 40
0.0743480657115525
 50
118.0525121258211954
 51
127.4063457227760949
  0
ARC
  5
120B6
  8
0
 10
3720.226237457508887
 20
303.9281073859926892
 30
0.0
 40
0.1261275444063925
 50
105.8377351121992973
 51
116.6832718929761938
  0
ARC
  5
120B7
  8
0
 10
3720.266499255978033
 20
303.779092784207478
 30
0.0
 40
0.2804800003018226
 50
93.5969817102543971
 51
105.4425041683765016
  0
ARC
  5
120B8
  8
0
 10
3720.2752972626381052
 20
303.6856052670179906
 30
0.0
 40
0.374346672349515
 50
89.981328342978756
 51
94.0432131544347101
  0
ARC
  5
120B9
  8
0
 10
3720.2704233710119297
 20
304.0190098181407166
 30
0.0
 40
0.1199258093522999
 50
155.0088512707384893
 51
179.2676266541222105
  0
ARC
  5
120BA
  8
0
 10
3720.2704358119440258
 20
304.0190040191787944
 30
0.0
 40
0.1199395354126232
 50
108.5293670094780936
 51
155.0088512707384893
  0
ARC
  5
120BB
  8
0
 10
3720.2712724407128917
 20
304.0165078519352164
 30
0.0
 40
0.1225721764070259
 50
88.0610216388292457
 51
108.5293670094780936
  0
ARC
  5
120BC
  8
0
 10
3721.3449824403319326
 20
304.0186878838479743
 30
0.0
 40
0.0154613161127135
 50
6.9258858174882247
 51
28.3273779866216309
  0
ARC
  5
120BD
  8
0
 10
3721.3350152999969396
 20
304.0127577539606136
 30
0.0
 40
0.0270532448713508
 50
29.3662691717598499
 51
52.5936542772258875
  0
ARC
  5
120BE
  8
0
 10
3721.3062854074451025
 20
303.9751892385226029
 30
0.0
 40
0.0743480657115525
 50
52.5936542772239122
 51
61.9474878741787904
  0
ARC
  5
120BF
  8
0
 10
3721.2846112582610658
 20
303.9281073859926892
 30
0.0
 40
0.1261275444063925
 50
63.3167281070238417
 51
74.1622648878007311
  0
ARC
  5
120C0
  8
0
 10
3721.2443494597919198
 20
303.779092784207478
 30
0.0
 40
0.2804800003018226
 50
74.5574958316234699
 51
86.4030182897456029
  0
ARC
  5
120C1
  8
0
 10
3721.2355514531318477
 20
303.6856052670179906
 30
0.0
 40
0.374346672349515
 50
85.9567868455653041
 51
90.0186716570212582
  0
ARC
  5
120C2
  8
0
 10
3721.2406444423168068
 20
304.0190849486813249
 30
0.0
 40
0.1196954867081269
 50
0.7024035835772753
 51
25.002860894690901
  0
ARC
  5
120C3
  8
0
 10
3721.2404129038268366
 20
304.0190040191787944
 30
0.0
 40
0.1199395354126232
 50
24.9911487292614609
 51
71.4706329905218212
  0
ARC
  5
120C4
  8
0
 10
3721.2395762750579706
 20
304.0165078519352164
 30
0.0
 40
0.1225721764070259
 50
71.4706329905218212
 51
91.9389783611707543
  0
ARC
  5
120C5
  8
0
 10
3720.2759144701840341
 20
302.4147262309480197
 30
0.0
 40
0.1257167111888707
 50
183.0836783416118863
 51
269.8692321488845778
  0
ARC
  5
120C6
  8
0
 10
3720.0335152815391666
 20
302.7248145567954793
 30
0.0
 40
0.4672239366011628
 50
294.345991912359807
 51
310.6560837991385142
  0
ARC
  5
120C7
  8
0
 10
3721.2354196731380398
 20
302.4140098471899023
 30
0.0
 40
0.1250000000000005
 50
270.0
 51
120.0000000000004974
  0
LINE
  5
120C8
  8
0
 10
3727.0704196731389857
 20
303.6440098471899205
 30
0.0
 11
3724.5471075592390662
 21
303.6440098471899205
 31
0.0
  0
ARC
  5
120C9
  8
0
 10
3722.420208076236122
 20
288.1140813623467238
 30
0.0
 40
15.6748964958346608
 50
81.0707472681718571
 51
82.2015793015362561
  0
ARC
  5
120CA
  8
0
 10
3724.7631127066288173
 20
305.218434934651782
 30
0.0
 40
1.589173552425549
 50
262.1880074230733157
 51
262.2057458874186864
  0
ARC
  5
120CB
  8
0
 10
3725.5144695957028489
 20
314.3265185819042244
 30
0.0
 40
10.7298309874578308
 50
265.8737973741809242
 51
268.8079244921560189
  0
ARC
  5
120CC
  8
0
 10
3724.9969472392717762
 20
307.1598612975801075
 30
0.0
 40
3.5445122596689131
 50
262.7088389852822843
 51
265.8821095461652249
  0
LINE
  5
120CD
  8
0
 10
3725.5404196731378761
 20
303.5990098471899046
 30
0.0
 11
3725.5404196731378761
 21
303.2040098471899228
 31
0.0
  0
ARC
  5
120CE
  8
0
 10
3725.1523925034921376
 20
303.2169036653260719
 30
0.0
 40
0.3882413359366678
 50
272.424418959396121
 51
358.0968094738190075
  0
ARC
  5
120CF
  8
0
 10
3727.5288656043121591
 20
303.2195522330973745
 30
0.0
 40
2.0878762495603471
 50
169.5286787717263906
 51
180.4265201732548007
  0
ARC
  5
120D0
  8
0
 10
3725.0731228476770411
 20
303.1951468857105283
 30
0.0
 40
0.3680136663784859
 50
309.5780023010971149
 51
1.2407247252102069
  0
ARC
  5
120D1
  8
0
 10
3725.0694405143258336
 20
303.213184477143102
 30
0.0
 40
0.3843598387030472
 50
271.7787578101180088
 51
308.2878478946009864
  0
LINE
  5
120D2
  8
0
 10
3714.5739196731387892
 20
303.3095098471898723
 30
0.0
 11
3719.180419673139113
 21
303.3095098471898723
 31
0.0
  0
LINE
  5
120D3
  8
0
 10
3714.5739196731387892
 20
303.1225098471899173
 30
0.0
 11
3719.180419673139113
 21
303.1225098471899173
 31
0.0
  0
ARC
  5
120D4
  8
0
 10
3714.5739196731387892
 20
303.2160098471899232
 30
0.0
 40
0.0934999999999988
 50
90.0
 51
270.0
  0
LINE
  5
120D5
  8
0
 10
3719.180419673139113
 20
303.6440098471899205
 30
0.0
 11
3719.180419673139113
 21
302.8290098471899228
 31
0.0
  0
LINE
  5
120D6
  8
0
 10
3710.8054196731382035
 20
303.6440098471899205
 30
0.0
 11
3719.180419673139113
 21
303.6440098471899205
 31
0.0
  0
LINE
  5
120D7
  8
0
 10
3721.2346216709070177
 20
303.6440098471899205
 30
0.0
 11
3721.2354166859418001
 21
303.6440098471899205
 31
0.0
  0
LINE
  5
120D8
  8
0
 10
3721.3604102002341278
 20
303.6440098471899205
 30
0.0
 11
3721.3604196731389493
 21
303.6440098471899205
 31
0.0
  0
LINE
  5
120D9
  8
0
 10
3713.0454196731388947
 20
289.1990098471899273
 30
0.0
 11
3710.8054196731382035
 21
289.1990098471899273
 31
0.0
  0
LINE
  5
120DA
  8
0
 10
3713.0454196731388947
 20
302.8290098471903207
 30
0.0
 11
3713.0454196731388947
 21
289.1990098471899273
 31
0.0
  0
LINE
  5
120DB
  8
0
 10
3711.1729196731389493
 20
289.1990098471899273
 30
0.0
 11
3711.1729196731389493
 21
302.8290098471903775
 31
0.0
  0
LINE
  5
120DC
  8
0
 10
3711.5479196731389493
 20
289.1990098471899273
 30
0.0
 11
3711.5479196731389493
 21
302.8290098471903775
 31
0.0
  0
LINE
  5
120DD
  8
0
 10
3712.6654196731387856
 20
302.8290098471903207
 30
0.0
 11
3712.6654196731387856
 21
289.1990098471899273
 31
0.0
  0
LINE
  5
120DE
  8
0
 10
3737.9004196731389129
 20
302.3915098471899228
 30
0.0
 11
3732.4004196731389129
 21
302.3915098471899228
 31
0.0
  0
LINE
  5
120DF
  8
0
 10
3737.9004196731389129
 20
302.4767007835898767
 30
0.0
 11
3732.4004196731389129
 21
302.4767007835898767
 31
0.0
  0
LINE
  5
120E0
  8
0
 10
3737.9004196731389129
 20
304.131509847189875
 30
0.0
 11
3732.4004196731389129
 21
304.131509847189875
 31
0.0
  0
LINE
  5
120E1
  8
0
 10
3737.9004196731389129
 20
304.131509847189875
 30
0.0
 11
3737.9004196731389129
 21
302.3915098471899228
 31
0.0
  0
LINE
  5
120E2
  8
0
 10
3732.4004196731389129
 20
304.131509847189875
 30
0.0
 11
3732.4004196731389129
 21
302.3915098471899228
 31
0.0
  0
LINE
  5
120E3
  8
0
 10
3737.9004196731389129
 20
303.6075098471898741
 30
0.0
 11
3732.4004196731389129
 21
303.6075098471898741
 31
0.0
  0
CIRCLE
  5
120E4
  8
0
 10
3733.5704196731389857
 20
303.0515098471898909
 30
0.0
 40
0.2063647533000005
  0
LINE
  5
120E5
  8
0
 10
3733.6014196731389347
 20
302.8488673047660882
 30
0.0
 11
3733.6014196731389347
 21
303.2541523896138074
 31
0.0
  0
LINE
  5
120E6
  8
0
 10
3733.5394196731381271
 20
302.8488673047660882
 30
0.0
 11
3733.5394196731381271
 21
303.2541523896138074
 31
0.0
  0
ARC
  5
120E7
  8
0
 10
3733.5704196731389857
 20
303.0515098471898909
 30
0.0
 40
0.2050000000000032
 50
261.3023943187890268
 51
278.6976056812105185
  0
ARC
  5
120E8
  8
0
 10
3733.5704196731389857
 20
303.0515098471898909
 30
0.0
 40
0.2050000000000032
 50
81.3023943187889842
 51
98.6976056812110158
  0
CIRCLE
  5
120E9
  8
0
 10
3736.7304196731388402
 20
303.0515098471898909
 30
0.0
 40
0.2063647533000005
  0
LINE
  5
120EA
  8
0
 10
3736.7614196731378797
 20
302.8488673047660882
 30
0.0
 11
3736.7614196731378797
 21
303.2541523896138074
 31
0.0
  0
LINE
  5
120EB
  8
0
 10
3736.6994196731388911
 20
302.8488673047660882
 30
0.0
 11
3736.6994196731388911
 21
303.2541523896138074
 31
0.0
  0
ARC
  5
120EC
  8
0
 10
3736.7304196731388402
 20
303.0515098471898909
 30
0.0
 40
0.2050000000000032
 50
261.3023943187890268
 51
278.6976056812105185
  0
ARC
  5
120ED
  8
0
 10
3736.7304196731388402
 20
303.0515098471898909
 30
0.0
 40
0.2050000000000032
 50
81.3023943187889842
 51
98.6976056812110158
  0
LINE
  5
120EE
  8
0
 10
3737.9004196731389129
 20
289.6065098471898978
 30
0.0
 11
3732.4004196731389129
 21
289.6065098471898978
 31
0.0
  0
LINE
  5
120EF
  8
0
 10
3737.9004196731389129
 20
289.521318910789887
 30
0.0
 11
3732.4004196731389129
 21
289.521318910789887
 31
0.0
  0
LINE
  5
120F0
  8
0
 10
3737.9004196731389129
 20
287.8665098471898887
 30
0.0
 11
3732.4004196731389129
 21
287.8665098471898887
 31
0.0
  0
LINE
  5
120F1
  8
0
 10
3737.9004196731389129
 20
287.8665098471898887
 30
0.0
 11
3737.9004196731389129
 21
289.6065098471898978
 31
0.0
  0
LINE
  5
120F2
  8
0
 10
3732.4004196731389129
 20
287.8665098471898887
 30
0.0
 11
3732.4004196731389129
 21
289.6065098471898978
 31
0.0
  0
LINE
  5
120F3
  8
0
 10
3737.9004196731389129
 20
288.3905098471898896
 30
0.0
 11
3732.4004196731389129
 21
288.3905098471898896
 31
0.0
  0
CIRCLE
  5
120F4
  8
0
 10
3733.5704196731389857
 20
288.9465098471899864
 30
0.0
 40
0.2063647533000005
  0
LINE
  5
120F5
  8
0
 10
3733.6014196731389347
 20
289.1491523896136755
 30
0.0
 11
3733.6014196731389347
 21
288.7438673047661268
 31
0.0
  0
LINE
  5
120F6
  8
0
 10
3733.5394196731381271
 20
289.1491523896136755
 30
0.0
 11
3733.5394196731381271
 21
288.7438673047661268
 31
0.0
  0
ARC
  5
120F7
  8
0
 10
3733.5704196731389857
 20
288.9465098471899864
 30
0.0
 40
0.2050000000000032
 50
81.3023943187894815
 51
98.6976056812110158
  0
ARC
  5
120F8
  8
0
 10
3733.5704196731389857
 20
288.9465098471899864
 30
0.0
 40
0.2050000000000032
 50
261.3023943187890268
 51
278.6976056812105185
  0
CIRCLE
  5
120F9
  8
0
 10
3736.7304196731388402
 20
288.9465098471899864
 30
0.0
 40
0.2063647533000005
  0
LINE
  5
120FA
  8
0
 10
3736.7614196731378797
 20
289.1491523896136755
 30
0.0
 11
3736.7614196731378797
 21
288.7438673047661268
 31
0.0
  0
LINE
  5
120FB
  8
0
 10
3736.6994196731388911
 20
289.1491523896136755
 30
0.0
 11
3736.6994196731388911
 21
288.7438673047661268
 31
0.0
  0
ARC
  5
120FC
  8
0
 10
3736.7304196731388402
 20
288.9465098471899864
 30
0.0
 40
0.2050000000000032
 50
81.3023943187894815
 51
98.6976056812110158
  0
ARC
  5
120FD
  8
0
 10
3736.7304196731388402
 20
288.9465098471899864
 30
0.0
 40
0.2050000000000032
 50
261.3023943187890268
 51
278.6976056812105185
  0
LINE
  5
120FE
  8
0
 10
3732.9354196731392221
 20
300.2951592858898948
 30
0.0
 11
3732.9354196731392221
 21
302.3918326303268032
 31
0.0
  0
LINE
  5
120FF
  8
0
 10
3732.6254196731379125
 20
289.6061871120934939
 30
0.0
 11
3732.6254196731379125
 21
291.7028604083898813
 31
0.0
  0
LINE
  5
12100
  8
0
 10
3732.6254196731379125
 20
292.2426751914405259
 30
0.0
 11
3732.6254196731379125
 21
292.2440131760861846
 31
0.0
  0
LINE
  5
12101
  8
0
 10
3732.6254196731379125
 20
300.2951592858898948
 30
0.0
 11
3732.6254196731379125
 21
302.3918343688794721
 31
0.0
  0
ARC
  5
12102
  8
0
 10
3732.3104196731392221
 20
300.2951592858898948
 30
0.0
 40
0.3149999999999979
 50
303.4669794417783919
 51
0.0
  0
ARC
  5
12103
  8
0
 10
3732.3104196731392221
 20
300.2951592858898948
 30
0.0
 40
0.6250000000000071
 50
303.4664132582872185
 51
0.0
  0
ARC
  5
12104
  8
0
 10
3735.1504196731380034
 20
295.9990098471898818
 30
0.0
 40
4.5249999999999977
 50
123.4669012403798973
 51
236.5330205613055057
  0
ARC
  5
12105
  8
0
 10
3735.1504196731380034
 20
295.9990098471898818
 30
0.0
 40
4.835
 50
123.4669257309255954
 51
236.5330205613740873
  0
ARC
  5
12106
  8
0
 10
3735.1504196731380034
 20
295.9990098471898818
 30
0.0
 40
4.835
 50
242.6918654781754014
 51
242.7342750599648014
  0
ARC
  5
12107
  8
0
 10
3732.3104196731392221
 20
291.7028604083898813
 30
0.0
 40
0.3150000000000027
 50
0.0
 51
56.5330205582198033
  0
ARC
  5
12108
  8
0
 10
3732.3104196731392221
 20
291.7028604083898813
 30
0.0
 40
0.6250000000000023
 50
359.8496939620816875
 51
59.7350073890059505
  0
LINE
  5
12109
  8
0
 10
3732.9354196731392221
 20
291.7028604083898813
 30
0.0
 11
3732.9354196731392221
 21
289.6058989342805035
 31
0.0
  0
LINE
  5
1210A
  8
0
 10
3737.3654196731381489
 20
300.2951592858898948
 30
0.0
 11
3737.3654196731381489
 21
302.3918326303268032
 31
0.0
  0
LINE
  5
1210B
  8
0
 10
3737.6754196731380944
 20
289.6061871120934939
 30
0.0
 11
3737.6754196731380944
 21
291.7028604083898813
 31
0.0
  0
LINE
  5
1210C
  8
0
 10
3737.6754196731380944
 20
292.2426751914405259
 30
0.0
 11
3737.6754196731380944
 21
292.2440131760861846
 31
0.0
  0
LINE
  5
1210D
  8
0
 10
3737.6754196731380944
 20
300.2951592858898948
 30
0.0
 11
3737.6754196731380944
 21
302.3918343688794721
 31
0.0
  0
ARC
  5
1210E
  8
0
 10
3737.9904196731381489
 20
300.2951592858898948
 30
0.0
 40
0.3149999999999979
 50
180.0
 51
236.5330205582216081
  0
ARC
  5
1210F
  8
0
 10
3737.9904196731381489
 20
300.2951592858898948
 30
0.0
 40
0.6250000000000007
 50
179.8496939529266001
 51
236.5335867417128952
  0
ARC
  5
12110
  8
0
 10
3735.1504196731380034
 20
295.9990098471898818
 30
0.0
 40
4.5249999999999977
 50
303.4669794386945227
 51
56.5330987596201027
  0
ARC
  5
12111
  8
0
 10
3735.1504196731380034
 20
295.9990098471898818
 30
0.0
 40
4.835
 50
303.4669794386259127
 51
56.5330742690743335
  0
ARC
  5
12112
  8
0
 10
3735.1504196731380034
 20
295.9990098471898818
 30
0.0
 40
4.835
 50
297.2657249400352271
 51
297.3081345218246838
  0
ARC
  5
12113
  8
0
 10
3737.9904196731381489
 20
291.7028604083898813
 30
0.0
 40
0.3150000000000027
 50
123.4669794417801967
 51
180.0
  0
ARC
  5
12114
  8
0
 10
3737.9904196731381489
 20
291.7028604083898813
 30
0.0
 40
0.6250000000000023
 50
120.2649926109923939
 51
180.1503060379181989
  0
LINE
  5
12115
  8
0
 10
3737.3654196731381489
 20
291.7028604083898813
 30
0.0
 11
3737.3654196731381489
 21
289.6058989342805035
 31
0.0
  0
CIRCLE
  5
12116
  8
0
 10
3700.937919673138822
 20
301.6863098471898752
 30
0.0
 40
0.31
  0
CIRCLE
  5
12117
  8
0
 10
3700.937919673138822
 20
301.6863098471898752
 30
0.0
 40
0.2760925586
  0
ENDSEC
  0
EOF
