  0
SECTION
  2
HEADER
  9
$ACADVER
  1
AC1009
  9
$INSBASE
 10
3694.3710883638200357
 20
310.7969779475948826
 30
0.0
  9
$EXTMIN
 10
3682.2284576654201373
 20
301.4254598062930199
 30
-0.0000000000000058
  9
$EXTMAX
 10
3706.5474039109458317
 20
319.4608777618278168
 30
0.0000000000000104
  9
$LIMMIN
 10
0.0
 20
0.0
  9
$LIMMAX
 10
11.6929133858000007
 20
8.2677165353999982
  9
$ORTHOMODE
 70
     0
  9
$REGENMODE
 70
     1
  9
$FILLMODE
 70
     1
  9
$QTEXTMODE
 70
     0
  9
$MIRRTEXT
 70
     0
  9
$DRAGMODE
 70
     2
  9
$LTSCALE
 40
0.6431102362
  9
$OSMODE
 70
  4095
  9
$ATTMODE
 70
     1
  9
$TEXTSIZE
 40
0.2
  9
$TRACEWID
 40
0.05
  9
$TEXTSTYLE
  7
STANDARD
  9
$CLAYER
  8
0
  9
$CELTYPE
  6
BYLAYER
  9
$CECOLOR
 62
   256
  9
$DIMSCALE
 40
1.0
  9
$DIMASZ
 40
0.1875
  9
$DIMEXO
 40
0.0625
  9
$DIMDLI
 40
0.4443307087
  9
$DIMRND
 40
0.0
  9
$DIMDLE
 40
0.0
  9
$DIMEXE
 40
0.125
  9
$DIMTP
 40
0.01
  9
$DIMTM
 40
0.01
  9
$DIMTXT
 40
2.0
  9
$DIMCEN
 40
0.1052362205
  9
$DIMTSZ
 40
0.0
  9
$DIMTOL
 70
     1
  9
$DIMLIM
 70
     0
  9
$DIMTIH
 70
     1
  9
$DIMTOH
 70
     1
  9
$DIMSE1
 70
     0
  9
$DIMSE2
 70
     0
  9
$DIMTAD
 70
     0
  9
$DIMZIN
 70
     0
  9
$DIMBLK
  1

  9
$DIMASO
 70
     1
  9
$DIMSHO
 70
     1
  9
$DIMPOST
  1
\X
  9
$DIMAPOST
  1

  9
$DIMALT
 70
     1
  9
$DIMALTD
 70
     2
  9
$DIMALTF
 40
25.3999999999999986
  9
$DIMLFAC
 40
1.0
  9
$DIMTOFL
 70
     0
  9
$DIMTVP
 40
0.0
  9
$DIMTIX
 70
     0
  9
$DIMSOXD
 70
     0
  9
$DIMSAH
 70
     0
  9
$DIMBLK1
  1

  9
$DIMBLK2
  1

  9
$DIMSTYLE
  2
STANDARD
  9
$DIMCLRD
 70
     0
  9
$DIMCLRE
 70
     0
  9
$DIMCLRT
 70
     0
  9
$DIMTFAC
 40
1.0
  9
$DIMGAP
 40
0.09
  9
$LUNITS
 70
     2
  9
$LUPREC
 70
     4
  9
$SKETCHINC
 40
0.1
  9
$FILLETRAD
 40
0.0
  9
$AUNITS
 70
     0
  9
$AUPREC
 70
     0
  9
$MENU
  1
.
  9
$ELEVATION
 40
0.0
  9
$PELEVATION
 40
0.0
  9
$THICKNESS
 40
0.0
  9
$LIMCHECK
 70
     0
  9
$BLIPMODE
 70
     0
  9
$CHAMFERA
 40
0.0
  9
$CHAMFERB
 40
0.0
  9
$SKPOLY
 70
     0
  9
$TDCREATE
 40
2458060.468368056230247
  9
$TDUPDATE
 40
2460874.2848263890482485
  9
$TDINDWG
 40
0.5156552083
  9
$TDUSRTIMER
 40
0.5156552083
  9
$USRTIMER
 70
     1
  9
$ANGBASE
 50
0.0
  9
$ANGDIR
 70
     0
  9
$PDMODE
 70
     0
  9
$PDSIZE
 40
0.3125
  9
$PLINEWID
 40
0.0
  9
$COORDS
 70
     1
  9
$SPLFRAME
 70
     0
  9
$SPLINETYPE
 70
     6
  9
$SPLINESEGS
 70
     8
  9
$ATTDIA
 70
     1
  9
$ATTREQ
 70
     1
  9
$HANDLING
 70
     1
  9
$HANDSEED
  5
12134
  9
$SURFTAB1
 70
     6
  9
$SURFTAB2
 70
     6
  9
$SURFTYPE
 70
     6
  9
$SURFU
 70
     6
  9
$SURFV
 70
     6
  9
$UCSNAME
  2

  9
$UCSORG
 10
0.0
 20
0.0
 30
0.0
  9
$UCSXDIR
 10
1.0
 20
0.0
 30
0.0
  9
$UCSYDIR
 10
0.0
 20
1.0
 30
0.0
  9
$PUCSNAME
  2

  9
$PUCSORG
 10
0.0
 20
0.0
 30
0.0
  9
$PUCSXDIR
 10
1.0
 20
0.0
 30
0.0
  9
$PUCSYDIR
 10
0.0
 20
1.0
 30
0.0
  9
$USERI1
 70
     0
  9
$USERI2
 70
     0
  9
$USERI3
 70
     0
  9
$USERI4
 70
     0
  9
$USERI5
 70
     0
  9
$USERR1
 40
0.0
  9
$USERR2
 40
0.0
  9
$USERR3
 40
0.0
  9
$USERR4
 40
0.0
  9
$USERR5
 40
0.0
  9
$WORLDVIEW
 70
     1
  9
$SHADEDGE
 70
     3
  9
$SHADEDIF
 70
    70
  9
$TILEMODE
 70
     1
  9
$MAXACTVP
 70
    64
  9
$PLIMCHECK
 70
     0
  9
$PEXTMIN
 10
1.0000000000000000E+20
 20
1.0000000000000000E+20
 30
1.0000000000000000E+20
  9
$PEXTMAX
 10
-1.0000000000000000E+20
 20
-1.0000000000000000E+20
 30
-1.0000000000000000E+20
  9
$PLIMMIN
 10
0.0
 20
0.0
  9
$PLIMMAX
 10
12.0
 20
9.0
  9
$UNITMODE
 70
     0
  9
$VISRETAIN
 70
     1
  9
$PLINEGEN
 70
     0
  9
$PSLTSCALE
 70
     1
  0
ENDSEC
  0
SECTION
  2
TABLES
  0
TABLE
  2
VPORT
 70
     1
  0
VPORT
  2
*ACTIVE
 70
     0
 10
0.0
 20
0.0
 11
1.0
 21
1.0
 12
616.5180577413075298
 22
20.07677474109164
 13
0.0
 23
0.0
 14
1.0
 24
1.0
 15
0.0
 25
0.0
 16
0.0
 26
0.0
 36
38.8639293105787971
 17
3077.869873046875
 27
290.3663940429686932
 37
0.0
 40
18.1672236896799291
 41
2.2939024390243898
 42
50.0
 43
0.0
 44
0.0
 50
0.0
 51
0.0
 71
     0
 72
   100
 73
     1
 74
     1
 75
     0
 76
     0
 77
     0
 78
     0
  0
ENDTAB
  0
TABLE
  2
LTYPE
 70
     2
  0
LTYPE
  2
CONTINUOUS
 70
     0
  3
Solid line
 72
    65
 73
     0
 40
0.0
  0
LTYPE
  2
PHANTOM2
 70
     0
  3
___ _ _ ___ _ _ ___ _ _ ___ _ _
 72
    65
 73
     6
 40
1.25
 49
0.625
 49
-0.125
 49
0.125
 49
-0.125
 49
0.125
 49
-0.125
  0
ENDTAB
  0
TABLE
  2
LAYER
 70
     2
  0
LAYER
  2
0
 70
     0
 62
   255
  6
CONTINUOUS
  0
LAYER
  2
DEFPOINTS
 70
     0
 62
     7
  6
CONTINUOUS
  0
ENDTAB
  0
TABLE
  2
STYLE
 70
     1
  0
STYLE
  2
STANDARD
 70
     0
 40
0.0
 41
0.8
 50
0.0
 71
     0
 42
0.2
  3
txt
  4

  0
ENDTAB
  0
TABLE
  2
VIEW
 70
     0
  0
ENDTAB
  0
TABLE
  2
UCS
 70
     0
  0
ENDTAB
  0
TABLE
  2
APPID
 70
     9
  0
APPID
  2
ACAD
 70
     0
  0
APPID
  2
ACAD_MLEADERVER
 70
     0
  0
APPID
  2
ACAD_EXEMPT_FROM_CAD_STANDARDS
 70
     0
  0
APPID
  2
ACAD_NAV_VCDISPLAY
 70
     0
  0
APPID
  2
ACAECLAYERSTANDARD
 70
     0
  0
APPID
  2
ACCMTRANSPARENCY
 70
     0
  0
APPID
  2
ACAD_DSTYLE_DIMJAG
 70
     0
  0
APPID
  2
ACAD_DSTYLE_DIMTALN
 70
     0
  0
APPID
  2
ACDBATTR
 70
     0
  0
ENDTAB
  0
TABLE
  2
DIMSTYLE
 70
     1
  0
DIMSTYLE
  2
STANDARD
 70
     0
  3

  4

  5

  6

  7

 40
1.0
 41
0.1875
 42
0.0625
 43
0.38
 44
0.125
 45
0.0
 46
0.0
 47
0.01
 48
0.01
140
0.15625
141
0.09
142
0.0
143
25.3999999999999986
144
1.0
145
0.0
146
1.0
147
0.09
 71
     1
 72
     0
 73
     1
 74
     1
 75
     0
 76
     0
 77
     0
 78
     4
170
     0
171
     2
172
     0
173
     0
174
     0
175
     0
176
     0
177
     0
178
     0
  0
ENDTAB
  0
ENDSEC
  0
SECTION
  2
BLOCKS
  0
BLOCK
  8
0
  2
$MODEL_SPACE
 70
     0
 10
0.0
 20
0.0
 30
0.0
  3
$MODEL_SPACE
  1

  0
ENDBLK
  5
21
  8
0
  0
BLOCK
 67
     1
  8
0
  2
$PAPER_SPACE
 70
     0
 10
0.0
 20
0.0
 30
0.0
  3
$PAPER_SPACE
  1

  0
ENDBLK
  5
1D
 67
     1
  8
0
  0
BLOCK
  8
0
  2
_FILLED
 70
     0
 10
0.0
 20
0.0
 30
0.0
  3
_FILLED
  1

  0
SOLID
  5
A02F
  8
0
  6
BYBLOCK
 62
     0
 10
0.0
 20
0.0
 30
0.0
 11
-1.0
 21
0.1666666667
 31
0.0
 12
-1.0
 22
-0.1666666667
 32
0.0
 13
-1.0
 23
-0.1666666667
 33
0.0
  0
ENDBLK
  5
A030
  8
0
  6
BYBLOCK
 62
     0
  0
ENDSEC
  0
SECTION
  2
ENTITIES
  0
ATTDEF
  5
3930
  8
DEFPOINTS
 10
3694.3677753442179892
 20
310.7923784197951136
 30
0.0
 40
0.001
  1
L20311-00
  3

  2
MODELNUMBER
 70
     0
1001
ACDBATTR
1070
     0
1070
     1
  0
ATTDEF
  5
3931
  8
DEFPOINTS
 10
3694.3677753442179892
 20
310.7907117531283916
 30
0.0
 40
0.001
  1
KALLISTA
  3

  2
BRANDNAME
 70
     0
1001
ACDBATTR
1070
     0
1070
     1
  0
ATTDEF
  5
3932
  8
DEFPOINTS
 10
3694.3677753442179892
 20
310.7890450864617264
 30
0.0
 40
0.001
  1
KITCHEN SINK
  3

  2
PRODUCT
 70
     0
1001
ACDBATTR
1070
     0
1070
     1
  0
LINE
  5
11EB4
  8
0
 10
3682.3710883638209452
 20
319.1976779475949115
 30
0.0
 11
3682.3710883638209452
 21
301.6976779475949115
 31
0.0
  0
LINE
  5
11EB5
  8
0
 10
3706.1210883638209452
 20
301.4476779475949115
 30
0.0
 11
3682.6210883638200357
 21
301.4476779475950252
 31
0.0
  0
LINE
  5
11EB6
  8
0
 10
3706.3710883638209452
 20
319.1976779475949115
 30
0.0
 11
3706.3710883638209452
 21
301.6976779475949115
 31
0.0
  0
LINE
  5
11EB7
  8
0
 10
3682.6210883638200357
 20
319.4476779475949115
 30
0.0
 11
3706.1210883638209452
 21
319.4476779475949115
 31
0.0
  0
ARC
  5
11EB8
  8
0
 10
3682.6210883638200357
 20
301.6976779475949115
 30
0.0
 40
0.2499999999999996
 50
180.0
 51
270.0
  0
ARC
  5
11EB9
  8
0
 10
3706.1210883638209452
 20
301.6976779475949115
 30
0.0
 40
0.2499999999999996
 50
270.0
 51
0.0
  0
ARC
  5
11EBA
  8
0
 10
3682.6210883638200357
 20
319.1976779475949115
 30
0.0
 40
0.2499999999999996
 50
90.0
 51
180.0
  0
ARC
  5
11EBB
  8
0
 10
3706.1210883638209452
 20
319.1976779475949115
 30
0.0
 40
0.2499999999999996
 50
0.0
 51
90.0
  0
LINE
  5
11EBC
  8
0
 10
3685.7622713725208996
 20
305.0192129444905049
 30
0.0
 11
3685.7622882290211237
 21
316.6044121811949026
 31
0.0
  0
LINE
  5
11EBD
  8
0
 10
3702.7995487221210169
 20
304.8388615682948739
 30
0.0
 11
3685.9410446547208267
 21
304.8388735002948806
 31
0.0
  0
LINE
  5
11EBE
  8
0
 10
3702.8011767099687859
 20
316.7820025147948968
 30
0.0
 11
3685.9424786845461313
 21
316.7820129152465256
 31
0.0
  0
LINE
  5
11EBF
  8
0
 10
3702.9798861972190025
 20
316.6046342593256213
 30
0.0
 11
3702.979900186021041
 21
305.0192125240948826
 31
0.0
  0
ARC
  5
11EC0
  8
0
 10
3685.9419639981579166
 20
305.0185649425574752
 30
0.0
 40
0.1796937940352548
 50
179.7933826455007988
 51
269.7068639517045199
  0
ARC
  5
11EC1
  8
0
 10
3702.8001893566402032
 20
305.0185723958707058
 30
0.0
 40
0.1797119694415825
 50
269.7957524361588071
 51
0.2040861455360732
  0
ARC
  5
11EC2
  8
0
 10
3685.9418035408270953
 20
316.6024885669099262
 30
0.0
 40
0.1795256178507987
 50
89.7845267024703304
 51
179.3860648393705901
  0
ARC
  5
11EC3
  8
0
 10
3702.7998033415701684
 20
316.6019042028472086
 30
0.0
 40
0.1801035482915057
 50
0.8685376071401453
 51
89.563090364713716
  0
LINE
  5
11EC4
  8
0
 10
3683.1232369213180391
 20
318.7192934634949211
 30
0.0
 11
3683.1232369213212223
 21
302.1998265050949044
 31
0.0
  0
LINE
  5
11EC5
  8
0
 10
3683.1232369213212223
 20
302.1998265050949044
 30
0.0
 11
3705.6189398063211229
 21
302.1998265050949044
 31
0.0
  0
LINE
  5
11EC6
  8
0
 10
3705.6189398063211229
 20
302.1998265050949044
 30
0.0
 11
3705.6189398063211229
 21
318.7192934634949211
 31
0.0
  0
LINE
  5
11EC7
  8
0
 10
3683.1232369213180391
 20
318.7192934634949211
 30
0.0
 11
3705.6189398063211229
 21
318.7192934634949211
 31
0.0
  0
CIRCLE
  5
11EC8
  8
0
 10
3694.3710883638200357
 20
310.7969779475948826
 30
0.0
 40
1.8600000000000001
  0
CIRCLE
  5
11ECA
  8
0
 10
3694.3710883638200357
 20
310.7969779475948826
 30
0.0
 40
2.3133294522999992
  0
LINE
  5
11ECE
  8
0
 10
3705.6189398063211229
 20
318.7192934634949211
 30
0.0
 11
3702.9317154258210394
 21
316.7244832037948754
 31
0.0
  0
LINE
  5
11ECF
  8
0
 10
3702.9386332710710121
 20
304.904348262744918
 30
0.0
 11
3705.6189398063211229
 21
302.1998265050949044
 31
0.0
  0
LINE
  5
11ED0
  8
0
 10
3685.8055172831209347
 20
304.9019472028949167
 30
0.0
 11
3683.1232369213212223
 21
302.1998265050949044
 31
0.0
  0
LINE
  5
11ED1
  8
0
 10
3685.8080692149710558
 20
316.7218073174948927
 30
0.0
 11
3683.1232369213180391
 21
318.7192934634949211
 31
0.0
  0
CIRCLE
  5
11F22
  8
0
 10
3694.3710883638200357
 20
310.7969779475948826
 30
0.0
 40
0.31
  0
CIRCLE
  5
11F23
  8
0
 10
3694.3710883638200357
 20
310.7969779475948826
 30
0.0
 40
0.2760925586
  0
ENDSEC
  0
EOF
