  0
SECTION
  2
HEADER
  9
$ACADVER
  1
AC1009
  9
$INSBASE
 10
3812.5456370220558711
 20
334.4719411039238253
 30
0.0
  9
$EXTMIN
 10
3801.7322157316980338
 20
327.4503732636848099
 30
-0.0000000000112498
  9
$EXTMAX
 10
3823.1771965451880533
 20
334.4796183760528265
 30
0.0000000000002956
  9
$LIMMIN
 10
0.0
 20
0.0
  9
$LIMMAX
 10
11.6929133858000007
 20
8.2677165353999982
  9
$ORTHOMODE
 70
     0
  9
$REGENMODE
 70
     1
  9
$FILLMODE
 70
     1
  9
$QTEXTMODE
 70
     0
  9
$MIRRTEXT
 70
     0
  9
$DRAGMODE
 70
     2
  9
$LTSCALE
 40
0.6431102362
  9
$OSMODE
 70
  4095
  9
$ATTMODE
 70
     1
  9
$TEXTSIZE
 40
0.2
  9
$TRACEWID
 40
0.05
  9
$TEXTSTYLE
  7
STANDARD
  9
$CLAYER
  8
0
  9
$CELTYPE
  6
BYLAYER
  9
$CECOLOR
 62
   256
  9
$DIMSCALE
 40
1.0
  9
$DIMASZ
 40
0.1875
  9
$DIMEXO
 40
0.0625
  9
$DIMDLI
 40
0.4443307087
  9
$DIMRND
 40
0.0
  9
$DIMDLE
 40
0.0
  9
$DIMEXE
 40
0.125
  9
$DIMTP
 40
0.01
  9
$DIMTM
 40
0.01
  9
$DIMTXT
 40
2.0
  9
$DIMCEN
 40
0.1052362205
  9
$DIMTSZ
 40
0.0
  9
$DIMTOL
 70
     1
  9
$DIMLIM
 70
     0
  9
$DIMTIH
 70
     1
  9
$DIMTOH
 70
     1
  9
$DIMSE1
 70
     0
  9
$DIMSE2
 70
     0
  9
$DIMTAD
 70
     0
  9
$DIMZIN
 70
     0
  9
$DIMBLK
  1

  9
$DIMASO
 70
     1
  9
$DIMSHO
 70
     1
  9
$DIMPOST
  1
\X
  9
$DIMAPOST
  1

  9
$DIMALT
 70
     1
  9
$DIMALTD
 70
     2
  9
$DIMALTF
 40
25.3999999999999986
  9
$DIMLFAC
 40
1.0
  9
$DIMTOFL
 70
     0
  9
$DIMTVP
 40
0.0
  9
$DIMTIX
 70
     0
  9
$DIMSOXD
 70
     0
  9
$DIMSAH
 70
     0
  9
$DIMBLK1
  1

  9
$DIMBLK2
  1

  9
$DIMSTYLE
  2
STANDARD
  9
$DIMCLRD
 70
     0
  9
$DIMCLRE
 70
     0
  9
$DIMCLRT
 70
     0
  9
$DIMTFAC
 40
1.0
  9
$DIMGAP
 40
0.09
  9
$LUNITS
 70
     2
  9
$LUPREC
 70
     4
  9
$SKETCHINC
 40
0.1
  9
$FILLETRAD
 40
0.0
  9
$AUNITS
 70
     0
  9
$AUPREC
 70
     0
  9
$MENU
  1
.
  9
$ELEVATION
 40
0.0
  9
$PELEVATION
 40
0.0
  9
$THICKNESS
 40
0.0
  9
$LIMCHECK
 70
     0
  9
$BLIPMODE
 70
     0
  9
$CHAMFERA
 40
0.0
  9
$CHAMFERB
 40
0.0
  9
$SKPOLY
 70
     0
  9
$TDCREATE
 40
2458060.468368056230247
  9
$TDUPDATE
 40
2460878.3144907411187887
  9
$TDINDWG
 40
0.5375765045999999
  9
$TDUSRTIMER
 40
0.5375765045999999
  9
$USRTIMER
 70
     1
  9
$ANGBASE
 50
0.0
  9
$ANGDIR
 70
     0
  9
$PDMODE
 70
     0
  9
$PDSIZE
 40
0.3125
  9
$PLINEWID
 40
0.0
  9
$COORDS
 70
     1
  9
$SPLFRAME
 70
     0
  9
$SPLINETYPE
 70
     6
  9
$SPLINESEGS
 70
     8
  9
$ATTDIA
 70
     1
  9
$ATTREQ
 70
     1
  9
$HANDLING
 70
     1
  9
$HANDSEED
  5
CD12
  9
$SURFTAB1
 70
     6
  9
$SURFTAB2
 70
     6
  9
$SURFTYPE
 70
     6
  9
$SURFU
 70
     6
  9
$SURFV
 70
     6
  9
$UCSNAME
  2

  9
$UCSORG
 10
0.0
 20
0.0
 30
0.0
  9
$UCSXDIR
 10
1.0
 20
0.0
 30
0.0
  9
$UCSYDIR
 10
0.0
 20
1.0
 30
0.0
  9
$PUCSNAME
  2

  9
$PUCSORG
 10
0.0
 20
0.0
 30
0.0
  9
$PUCSXDIR
 10
1.0
 20
0.0
 30
0.0
  9
$PUCSYDIR
 10
0.0
 20
1.0
 30
0.0
  9
$USERI1
 70
     0
  9
$USERI2
 70
     0
  9
$USERI3
 70
     0
  9
$USERI4
 70
     0
  9
$USERI5
 70
     0
  9
$USERR1
 40
0.0
  9
$USERR2
 40
0.0
  9
$USERR3
 40
0.0
  9
$USERR4
 40
0.0
  9
$USERR5
 40
0.0
  9
$WORLDVIEW
 70
     1
  9
$SHADEDGE
 70
     3
  9
$SHADEDIF
 70
    70
  9
$TILEMODE
 70
     1
  9
$MAXACTVP
 70
    64
  9
$PLIMCHECK
 70
     0
  9
$PEXTMIN
 10
1.0000000000000000E+20
 20
1.0000000000000000E+20
 30
1.0000000000000000E+20
  9
$PEXTMAX
 10
-1.0000000000000000E+20
 20
-1.0000000000000000E+20
 30
-1.0000000000000000E+20
  9
$PLIMMIN
 10
0.0
 20
0.0
  9
$PLIMMAX
 10
12.0
 20
9.0
  9
$UNITMODE
 70
     0
  9
$VISRETAIN
 70
     1
  9
$PLINEGEN
 70
     0
  9
$PSLTSCALE
 70
     1
  0
ENDSEC
  0
SECTION
  2
TABLES
  0
TABLE
  2
VPORT
 70
     1
  0
VPORT
  2
*ACTIVE
 70
     0
 10
0.0
 20
0.0
 11
1.0
 21
1.0
 12
679.5373477400053162
 22
141.3167562887254007
 13
0.0
 23
0.0
 14
1.0
 24
1.0
 15
0.0
 25
0.0
 16
0.0
 26
0.0
 36
71.4061910302851857
 17
3132.9173583984370453
 27
189.6482395311433891
 37
0.0
 40
8.4170069891238111
 41
2.5558546433378191
 42
50.0
 43
0.0
 44
0.0
 50
0.0
 51
0.0
 71
     0
 72
   100
 73
     1
 74
     1
 75
     0
 76
     0
 77
     0
 78
     0
  0
ENDTAB
  0
TABLE
  2
LTYPE
 70
     2
  0
LTYPE
  2
CONTINUOUS
 70
     0
  3
Solid line
 72
    65
 73
     0
 40
0.0
  0
LTYPE
  2
PHANTOM2
 70
     0
  3
___ _ _ ___ _ _ ___ _ _ ___ _ _
 72
    65
 73
     6
 40
1.25
 49
0.625
 49
-0.125
 49
0.125
 49
-0.125
 49
0.125
 49
-0.125
  0
ENDTAB
  0
TABLE
  2
LAYER
 70
     2
  0
LAYER
  2
0
 70
     0
 62
   255
  6
CONTINUOUS
  0
LAYER
  2
DEFPOINTS
 70
     0
 62
     7
  6
CONTINUOUS
  0
ENDTAB
  0
TABLE
  2
STYLE
 70
     1
  0
STYLE
  2
STANDARD
 70
     0
 40
0.0
 41
0.8
 50
0.0
 71
     0
 42
0.2
  3
txt
  4

  0
ENDTAB
  0
TABLE
  2
VIEW
 70
     0
  0
ENDTAB
  0
TABLE
  2
UCS
 70
     0
  0
ENDTAB
  0
TABLE
  2
APPID
 70
     9
  0
APPID
  2
ACAD
 70
     0
  0
APPID
  2
ACAD_MLEADERVER
 70
     0
  0
APPID
  2
ACAD_EXEMPT_FROM_CAD_STANDARDS
 70
     0
  0
APPID
  2
ACAD_NAV_VCDISPLAY
 70
     0
  0
APPID
  2
ACAECLAYERSTANDARD
 70
     0
  0
APPID
  2
ACCMTRANSPARENCY
 70
     0
  0
APPID
  2
ACAD_DSTYLE_DIMJAG
 70
     0
  0
APPID
  2
ACAD_DSTYLE_DIMTALN
 70
     0
  0
APPID
  2
ACDBATTR
 70
     0
  0
ENDTAB
  0
TABLE
  2
DIMSTYLE
 70
     1
  0
DIMSTYLE
  2
STANDARD
 70
     0
  3

  4

  5

  6

  7

 40
1.0
 41
0.1875
 42
0.0625
 43
0.38
 44
0.125
 45
0.0
 46
0.0
 47
0.01
 48
0.01
140
0.15625
141
0.09
142
0.0
143
25.3999999999999986
144
1.0
145
0.0
146
1.0
147
0.09
 71
     1
 72
     0
 73
     1
 74
     1
 75
     0
 76
     0
 77
     0
 78
     4
170
     0
171
     2
172
     0
173
     0
174
     0
175
     0
176
     0
177
     0
178
     0
  0
ENDTAB
  0
ENDSEC
  0
SECTION
  2
BLOCKS
  0
BLOCK
  8
0
  2
$MODEL_SPACE
 70
     0
 10
0.0
 20
0.0
 30
0.0
  3
$MODEL_SPACE
  1

  0
ENDBLK
  5
21
  8
0
  0
BLOCK
 67
     1
  8
0
  2
$PAPER_SPACE
 70
     0
 10
0.0
 20
0.0
 30
0.0
  3
$PAPER_SPACE
  1

  0
ENDBLK
  5
1D
 67
     1
  8
0
  0
BLOCK
  8
0
  2
_FILLED
 70
     0
 10
0.0
 20
0.0
 30
0.0
  3
_FILLED
  1

  0
SOLID
  5
9A2B
  8
0
  6
BYBLOCK
 62
     0
 10
0.0
 20
0.0
 30
0.0
 11
-1.0
 21
0.1666666667
 31
0.0
 12
-1.0
 22
-0.1666666667
 32
0.0
 13
-1.0
 23
-0.1666666667
 33
0.0
  0
ENDBLK
  5
9A2C
  8
0
  6
BYBLOCK
 62
     0
  0
BLOCK
  8
0
  2
A$CF701A2A3
 70
     0
 10
0.0
 20
0.0
 30
0.0
  3
A$CF701A2A3
  1

  0
ARC
  5
C34C
  8
0
 10
31.7467228304983315
 20
18.9726778524811515
 30
0.0
 40
0.0600571174933638
 50
178.1599123593194065
 51
269.9437701250961936
  0
ARC
  5
C34D
  8
0
 10
14.1289194617463902
 20
24.7599222207127703
 30
0.0
 40
18.4863577086482387
 50
341.76286500014902
 51
343.1049022069964849
  0
ARC
  5
C34E
  8
0
 10
32.3547745090794123
 20
17.8805677586952285
 30
0.0
 40
1.5998037006317429
 50
93.3602506880195904
 51
109.6281531223668964
  0
LINE
  5
C34F
  8
0
 10
32.2610038963430412
 20
19.477620967809461
 30
0.0
 11
47.4137775890446775
 21
19.4776209679094592
 31
0.0
  0
ARC
  5
C350
  8
0
 10
47.4325531323292111
 20
18.9089821500664286
 30
0.0
 40
0.5689487025941281
 50
57.5632611277698203
 51
91.8911278545007804
  0
ARC
  5
C351
  8
0
 10
47.448256021399807
 20
18.9336909094594716
 30
0.0
 40
0.5396723722929054
 50
4.1367077670949124
 51
57.5632611277699908
  0
ARC
  5
C352
  8
0
 10
47.926522090646607
 20
18.9726210998054405
 30
0.0
 40
0.0600003333965774
 50
270.0002551523782017
 51
359.9998709935546799
  0
ARC
  5
C353
  8
0
 10
47.587873331907609
 20
13200570.7895198706537485
 30
0.0
 40
13200551.8768991101533175
 50
269.9999996394840878
 51
270.0000014698749169
  0
ARC
  5
C354
  8
0
 10
47.5048128781491386
 20
18.5626208638961003
 30
0.0
 40
0.3499999003706384
 50
89.9999881479334078
 51
171.8937702021669054
  0
LINE
  5
C355
  8
0
 10
47.1583100607211989
 20
18.611973956747029
 30
0.0
 11
46.9122706485524006
 21
16.2638807503362912
 31
0.0
  0
ARC
  5
C356
  8
0
 10
46.5165232617200175
 20
16.3055558619400109
 30
0.0
 40
0.3979356846424334
 50
269.8857876861554814
 51
353.988489347651182
  0
LINE
  5
C357
  8
0
 10
46.5157300248430374
 20
15.9076209679094607
 30
0.0
 11
33.1574562263430508
 21
15.9076209679094607
 31
0.0
  0
ARC
  5
C358
  8
0
 10
33.1573073574459798
 20
16.3072334039208293
 30
0.0
 40
0.3996124637406694
 50
186.0447802799496912
 51
270.0213445787450723
  0
LINE
  5
C359
  8
0
 10
32.7599167805571128
 20
16.2651519284618296
 30
0.0
 11
32.516055175344448
 21
18.6028364391144407
 31
0.0
  0
ARC
  5
C35A
  8
0
 10
31.8520912294043193
 20
221431.4055756253947038
 30
0.0
 40
221412.4929548866057303
 50
269.9999727181537992
 51
270.0000818454552132
  0
ARC
  5
C35B
  8
0
 10
32.1683734246978403
 20
18.5626211517521007
 30
0.0
 40
0.3499998129575639
 50
6.5979081346952482
 51
90.0000818454552416
  0
ARC
  5
C35C
  8
0
 10
45.8650816453542873
 20
15.8875491405182707
 30
0.0
 40
0.0201276786869227
 50
94.2693119370321568
 51
176.8142859841273093
  0
LINE
  5
C35D
  8
0
 10
45.8449850709466418
 20
15.8886676870094607
 30
0.0
 11
45.841566230231038
 21
15.8234323212015102
 31
0.0
  0
ARC
  5
C35E
  8
0
 10
45.7616576806436228
 20
15.8276281037750408
 30
0.0
 40
0.0800186283847036
 50
269.0289202575320928
 51
356.9943132536590156
  0
ARC
  5
C35F
  8
0
 10
45.4881080674959506
 20
15.8875565959269398
 30
0.0
 40
0.0201199864796374
 50
2.9608163598199928
 51
85.7389377034040336
  0
LINE
  5
C360
  8
0
 10
45.5082011956612718
 20
15.8885958535124097
 30
0.0
 11
45.5116200210550303
 21
15.8234323212015102
 31
0.0
  0
ARC
  5
C361
  8
0
 10
45.5915285706424527
 20
15.8276281037750408
 30
0.0
 40
0.0800186283847036
 50
183.0056867463410128
 51
270.9710797424679072
  0
LINE
  5
C362
  8
0
 10
45.5928847045430388
 20
15.7476209679094605
 30
0.0
 11
45.7603015467430509
 21
15.7476209679094605
 31
0.0
  0
LINE
  5
C363
  8
0
 10
45.5082011956612718
 20
15.8885958535124097
 30
0.0
 11
45.8449850710174118
 21
15.8886676883476099
 31
0.0
  0
ARC
  5
C364
  8
0
 10
33.8081046058317867
 20
15.8875491405182707
 30
0.0
 40
0.0201276786869227
 50
3.1857140158728141
 51
85.7306880629678147
  0
LINE
  5
C365
  8
0
 10
33.8282011802394322
 20
15.8886676870094607
 30
0.0
 11
33.8316199281443417
 21
15.8234340913846196
 31
0.0
  0
ARC
  5
C366
  8
0
 10
33.9115285705424583
 20
15.8276281037750408
 30
0.0
 40
0.0800186283847036
 50
183.0056867463410128
 51
270.9710797424679072
  0
ARC
  5
C367
  8
0
 10
34.1850781836901305
 20
15.8875565959269398
 30
0.0
 40
0.0201199864796374
 50
94.2610622965959664
 51
177.0391836401799992
  0
LINE
  5
C368
  8
0
 10
34.1649850555248094
 20
15.8885958535124097
 30
0.0
 11
34.1615663229417379
 21
15.8234340913846196
 31
0.0
  0
ARC
  5
C369
  8
0
 10
34.0816576805436284
 20
15.8276281037750408
 30
0.0
 40
0.0800186283847036
 50
269.0289202575320928
 51
356.9943132536590156
  0
LINE
  5
C36A
  8
0
 10
34.0803015466430494
 20
15.7476209679094605
 30
0.0
 11
33.9128847044430302
 21
15.7476209679094605
 31
0.0
  0
LINE
  5
C36B
  8
0
 10
34.1649813062561094
 20
15.8885958543432597
 30
0.0
 11
33.8282011801686622
 21
15.8886676883476099
 31
0.0
  0
ARC
  5
C36C
  8
0
 10
32.2858884908540418
 20
18.8727042983943782
 30
0.0
 40
0.540700003591007
 50
125.9961878855065009
 51
175.7663630876411958
  0
ARC
  5
C36D
  8
0
 10
32.1946556962307469
 20
18.9137422562681685
 30
0.0
 40
0.4565898564669273
 50
85.7394130099727363
 51
119.7480005322425001
  0
LINE
  5
C36E
  8
0
 10
32.2285770162430296
 20
19.3690703150094592
 30
0.0
 11
47.4673695904430417
 21
19.3692474916094604
 31
0.0
  0
ARC
  5
C36F
  8
0
 10
47.4840113596567122
 20
18.9284751076434787
 30
0.0
 40
0.4410864347830401
 50
59.920538647086893
 51
92.1622281370483307
  0
ARC
  5
C370
  8
0
 10
47.3872974703873595
 20
18.8727041306933785
 30
0.0
 40
0.5407003051843597
 50
4.2336527987503709
 51
54.0037984291052808
  0
LINE
  5
C371
  8
0
 10
33.4061094097430384
 20
16.2661562000733895
 30
0.0
 11
46.2670768410430284
 21
16.2661562000733895
 31
0.0
  0
ARC
  5
C372
  8
0
 10
46.6029290276408332
 20
20.0234958731951203
 30
0.0
 40
3.7723199904643612
 50
264.8921551320796084
 51
274.7037085467621864
  0
ARC
  5
C373
  8
0
 10
33.0773997285922974
 20
19.8775415783709093
 30
0.0
 40
3.6263141624883168
 50
264.9773376339214224
 51
275.2007531578998965
  0
LINE
  5
C374
  8
0
 10
39.8365931255930406
 20
19.4776209678594583
 30
0.0
 11
42.422034637173077
 21
21.782013515564099
 31
0.0
  0
LINE
  5
C375
  8
0
 62
     1
 10
20.1960368498429013
 20
19.4776209679094592
 30
0.0
 11
3823.0280363541751285
 21
115.3308306698462502
 31
0.0
  0
ENDBLK
  5
C379
  8
0
  0
ENDSEC
  0
SECTION
  2
ENTITIES
  0
ATTDEF
  5
3930
  8
DEFPOINTS
 10
3812.5371446021208612
 20
334.4759997129253861
 30
0.0
 40
0.001
  1
L20515-00
  3

  2
MODELNUMBER
 70
     0
1001
ACDBATTR
1070
     0
1070
     1
  0
ATTDEF
  5
3931
  8
DEFPOINTS
 10
3812.5371446021208612
 20
334.474333046258721
 30
0.0
 40
0.001
  1
KALLISTA
  3

  2
BRANDNAME
 70
     0
1001
ACDBATTR
1070
     0
1070
     1
  0
ATTDEF
  5
3932
  8
DEFPOINTS
 10
3812.5371446021208612
 20
334.472666379591999
 30
0.0
 40
0.001
  1
KITCHEN SINK
  3

  2
PRODUCT
 70
     0
1001
ACDBATTR
1070
     0
1070
     1
  0
LINE
  5
CC6E
  8
0
 10
3803.9196166665560668
 20
327.7819411038711905
 30
0.0
 11
3801.9796166665560122
 21
327.7819411038711905
 31
0.0
  0
ARC
  5
CC6F
  8
0
 10
3801.9796166665560122
 20
327.8419411038711928
 30
0.0
 40
0.0599999999999987
 50
180.0
 51
270.0
  0
LINE
  5
CC70
  8
0
 10
3801.9196166665560668
 20
327.8419411038711928
 30
0.0
 11
3801.9196166665560668
 21
334.411941103871186
 31
0.0
  0
ARC
  5
CC71
  8
0
 10
3801.9821297556259196
 20
334.4094280148556777
 30
0.0
 40
0.062563583029699
 50
92.3021083498123289
 51
177.6978917005110929
  0
LINE
  5
CC72
  8
0
 10
3801.9796166665560122
 20
334.4719411039238253
 30
0.0
 11
3823.1116573775561847
 21
334.4719411039238253
 31
0.0
  0
LINE
  5
CC73
  8
0
 10
3823.1116573775561847
 20
334.4719411039238253
 30
0.0
 11
3823.1116573775561847
 21
334.4089411038712001
 31
0.0
  0
LINE
  5
CC74
  8
0
 10
3823.1116573775561847
 20
334.4089411038712001
 30
0.0
 11
3803.9196166665560668
 21
334.4089411038712001
 31
0.0
  0
LINE
  5
CC75
  8
0
 10
3803.9196166665560668
 20
334.4719411038711883
 30
0.0
 11
3803.9196166665560668
 21
327.7819411038711905
 31
0.0
  0
ARC
  5
CC76
  8
0
 10
3803.9796166390178769
 20
333.83894106888539
 30
0.0
 40
0.5700000443013903
 50
44.8672380760501213
 51
90.010358724555303
  0
ARC
  5
CC77
  8
0
 10
3799.0916966315940044
 20
328.973713432831687
 30
0.0
 40
7.4665355476727662
 50
355.1734083984056269
 51
44.8667334837581393
  0
ARC
  5
CC78
  8
0
 10
3806.7489858727449246
 20
328.1109943212126723
 30
0.0
 40
0.2392059669068935
 50
174.0724682799306038
 51
268.0178991622212266
  0
LINE
  5
CC79
  8
0
 10
3806.7407123875559591
 20
327.8719314758212136
 30
0.0
 11
3811.1342016981470806
 21
327.7035103306820929
 31
0.0
  0
ARC
  5
CC7A
  8
0
 10
3811.1334259028380984
 20
327.6831688672857013
 30
0.0
 40
0.020356251886863
 50
36.7906681083729481
 51
87.8158769542095428
  0
LINE
  5
CC7B
  8
0
 10
3811.1497277781468256
 20
327.6953600875821735
 30
0.0
 11
3811.2017274100680879
 21
327.6251666741716235
 31
0.0
  0
ARC
  5
CC7C
  8
0
 10
3811.2738492393327761
 20
327.6786688408948862
 30
0.0
 40
0.0898000005604467
 50
216.5691481802691101
 51
252.125656697686594
  0
LINE
  5
CC7D
  8
0
 10
3811.2462868830562002
 20
327.5932033120711822
 30
0.0
 11
3811.6588187426300465
 21
327.4601617874142789
 31
0.0
  0
LINE
  5
CC7E
  8
0
 10
3811.6588187426300465
 20
327.4601617874142789
 30
0.0
 11
3815.3788828776469018
 21
327.4601617874142789
 31
0.0
  0
LINE
  5
CC7F
  8
0
 10
3811.1342016981470806
 20
327.7035103306820929
 30
0.0
 11
3815.9035640572469674
 21
327.7035103306820929
 31
0.0
  0
ARC
  5
CC80
  8
0
 10
3815.9043398524549957
 20
327.6831688672857013
 30
0.0
 40
0.020356251886863
 50
92.1841230457904857
 51
143.209331891626988
  0
LINE
  5
CC81
  8
0
 10
3815.888037977147178
 20
327.6953600875821735
 30
0.0
 11
3815.8360383452259157
 21
327.6251666741716235
 31
0.0
  0
ARC
  5
CC82
  8
0
 10
3815.7639165161472192
 20
327.6786688407049155
 30
0.0
 40
0.0898000002970886
 50
287.8743431762164278
 51
323.4308518460103983
  0
LINE
  5
CC83
  8
0
 10
3815.7914788721559489
 20
327.5932033120711822
 30
0.0
 11
3815.3788828776469018
 21
327.4601617874142789
 31
0.0
  0
LINE
  5
CC84
  8
0
 10
3815.9035640572378725
 20
327.703510330671179
 30
0.0
 11
3820.3090686863561132
 21
327.8715303063711985
 31
0.0
  0
ARC
  5
CC85
  8
0
 10
3820.2999140552501558
 20
328.1115658708285991
 30
0.0
 40
0.2402100736336086
 50
272.1841248099864856
 51
4.5367821678665221
  0
ARC
  5
CC86
  8
0
 10
3830.8752890646219385
 20
328.9506974045162906
 30
0.0
 40
10.3684042713063
 50
150.0709269931199117
 51
184.5367821678665052
  0
ARC
  5
CC87
  8
0
 10
3822.3831684365309229
 20
333.8394341289825888
 30
0.0
 40
0.569636029509122
 50
91.2196462466711466
 51
150.0548203566094116
  0
LINE
  5
CC89
  8
0
 10
3811.2462868830562002
 20
327.5932033120711822
 30
0.0
 11
3815.7914788721559489
 21
327.5932033120711822
 31
0.0
  0
ARC
  5
CC8A
  8
0
 10
3806.7710444052559069
 20
328.3274503787977778
 30
0.0
 40
0.2399672177731938
 50
175.6918715481492939
 51
268.8198552868107072
  0
LINE
  5
CC8B
  8
0
 10
3806.5317552181218161
 20
328.3454767629855269
 30
0.0
 11
3806.5110588663487761
 21
328.1356972406995283
 31
0.0
  0
ARC
  5
CC8C
  8
0
 10
3813.5196361336520567
 20
629.8138092322036528
 30
0.0
 40
301.8018478244974858
 50
268.7177636462191117
 51
271.2854332311781036
  0
ARC
  5
CC8D
  8
0
 10
3820.2850495155639692
 20
328.3278204428355025
 30
0.0
 40
0.2399602709789005
 50
271.1833949157406778
 51
359.9984573507703089
  0
ENDSEC
  0
EOF
