  0
SECTION
  2
HEADER
  9
$ACADVER
  1
AC1009
  9
$INSBASE
 10
3764.8976835219368695
 20
304.0898904397603815
 30
0.0
  9
$EXTMIN
 10
3746.9957413076122066
 20
293.4191918716680902
 30
-0.0000000000000058
  9
$EXTMAX
 10
3782.7814566450711027
 20
314.6904983186086042
 30
0.0000000000000104
  9
$LIMMIN
 10
0.0
 20
0.0
  9
$LIMMAX
 10
11.6929133858000007
 20
8.2677165353999982
  9
$ORTHOMODE
 70
     0
  9
$REGENMODE
 70
     1
  9
$FILLMODE
 70
     1
  9
$QTEXTMODE
 70
     0
  9
$MIRRTEXT
 70
     0
  9
$DRAGMODE
 70
     2
  9
$LTSCALE
 40
0.6431102362
  9
$OSMODE
 70
  4095
  9
$ATTMODE
 70
     1
  9
$TEXTSIZE
 40
0.2
  9
$TRACEWID
 40
0.05
  9
$TEXTSTYLE
  7
STANDARD
  9
$CLAYER
  8
0
  9
$CELTYPE
  6
BYLAYER
  9
$CECOLOR
 62
   256
  9
$DIMSCALE
 40
1.0
  9
$DIMASZ
 40
0.1875
  9
$DIMEXO
 40
0.0625
  9
$DIMDLI
 40
0.4443307087
  9
$DIMRND
 40
0.0
  9
$DIMDLE
 40
0.0
  9
$DIMEXE
 40
0.125
  9
$DIMTP
 40
0.01
  9
$DIMTM
 40
0.01
  9
$DIMTXT
 40
2.0
  9
$DIMCEN
 40
0.1052362205
  9
$DIMTSZ
 40
0.0
  9
$DIMTOL
 70
     1
  9
$DIMLIM
 70
     0
  9
$DIMTIH
 70
     1
  9
$DIMTOH
 70
     1
  9
$DIMSE1
 70
     0
  9
$DIMSE2
 70
     0
  9
$DIMTAD
 70
     0
  9
$DIMZIN
 70
     0
  9
$DIMBLK
  1

  9
$DIMASO
 70
     1
  9
$DIMSHO
 70
     1
  9
$DIMPOST
  1
\X
  9
$DIMAPOST
  1

  9
$DIMALT
 70
     1
  9
$DIMALTD
 70
     2
  9
$DIMALTF
 40
25.3999999999999986
  9
$DIMLFAC
 40
1.0
  9
$DIMTOFL
 70
     0
  9
$DIMTVP
 40
0.0
  9
$DIMTIX
 70
     0
  9
$DIMSOXD
 70
     0
  9
$DIMSAH
 70
     0
  9
$DIMBLK1
  1

  9
$DIMBLK2
  1

  9
$DIMSTYLE
  2
STANDARD
  9
$DIMCLRD
 70
     0
  9
$DIMCLRE
 70
     0
  9
$DIMCLRT
 70
     0
  9
$DIMTFAC
 40
1.0
  9
$DIMGAP
 40
0.09
  9
$LUNITS
 70
     2
  9
$LUPREC
 70
     4
  9
$SKETCHINC
 40
0.1
  9
$FILLETRAD
 40
0.0
  9
$AUNITS
 70
     0
  9
$AUPREC
 70
     0
  9
$MENU
  1
.
  9
$ELEVATION
 40
0.0
  9
$PELEVATION
 40
0.0
  9
$THICKNESS
 40
0.0
  9
$LIMCHECK
 70
     0
  9
$BLIPMODE
 70
     0
  9
$CHAMFERA
 40
0.0
  9
$CHAMFERB
 40
0.0
  9
$SKPOLY
 70
     0
  9
$TDCREATE
 40
2458060.468368056230247
  9
$TDUPDATE
 40
2460874.3979745372198522
  9
$TDINDWG
 40
0.5295325231
  9
$TDUSRTIMER
 40
0.5295325231
  9
$USRTIMER
 70
     1
  9
$ANGBASE
 50
0.0
  9
$ANGDIR
 70
     0
  9
$PDMODE
 70
     0
  9
$PDSIZE
 40
0.3125
  9
$PLINEWID
 40
0.0
  9
$COORDS
 70
     1
  9
$SPLFRAME
 70
     0
  9
$SPLINETYPE
 70
     6
  9
$SPLINESEGS
 70
     8
  9
$ATTDIA
 70
     1
  9
$ATTREQ
 70
     1
  9
$HANDLING
 70
     1
  9
$HANDSEED
  5
121F5
  9
$SURFTAB1
 70
     6
  9
$SURFTAB2
 70
     6
  9
$SURFTYPE
 70
     6
  9
$SURFU
 70
     6
  9
$SURFV
 70
     6
  9
$UCSNAME
  2

  9
$UCSORG
 10
0.0
 20
0.0
 30
0.0
  9
$UCSXDIR
 10
1.0
 20
0.0
 30
0.0
  9
$UCSYDIR
 10
0.0
 20
1.0
 30
0.0
  9
$PUCSNAME
  2

  9
$PUCSORG
 10
0.0
 20
0.0
 30
0.0
  9
$PUCSXDIR
 10
1.0
 20
0.0
 30
0.0
  9
$PUCSYDIR
 10
0.0
 20
1.0
 30
0.0
  9
$USERI1
 70
     0
  9
$USERI2
 70
     0
  9
$USERI3
 70
     0
  9
$USERI4
 70
     0
  9
$USERI5
 70
     0
  9
$USERR1
 40
0.0
  9
$USERR2
 40
0.0
  9
$USERR3
 40
0.0
  9
$USERR4
 40
0.0
  9
$USERR5
 40
0.0
  9
$WORLDVIEW
 70
     1
  9
$SHADEDGE
 70
     3
  9
$SHADEDIF
 70
    70
  9
$TILEMODE
 70
     1
  9
$MAXACTVP
 70
    64
  9
$PLIMCHECK
 70
     0
  9
$PEXTMIN
 10
1.0000000000000000E+20
 20
1.0000000000000000E+20
 30
1.0000000000000000E+20
  9
$PEXTMAX
 10
-1.0000000000000000E+20
 20
-1.0000000000000000E+20
 30
-1.0000000000000000E+20
  9
$PLIMMIN
 10
0.0
 20
0.0
  9
$PLIMMAX
 10
12.0
 20
9.0
  9
$UNITMODE
 70
     0
  9
$VISRETAIN
 70
     1
  9
$PLINEGEN
 70
     0
  9
$PSLTSCALE
 70
     1
  0
ENDSEC
  0
SECTION
  2
TABLES
  0
TABLE
  2
VPORT
 70
     1
  0
VPORT
  2
*ACTIVE
 70
     0
 10
0.0
 20
0.0
 11
1.0
 21
1.0
 12
687.0187259294660862
 22
13.6884510521696203
 13
0.0
 23
0.0
 14
1.0
 24
1.0
 15
0.0
 25
0.0
 16
0.0
 26
0.0
 36
38.8639293105787971
 17
3077.869873046875
 27
290.3663940429686932
 37
0.0
 40
21.4267605744456198
 41
2.2939024390243898
 42
50.0
 43
0.0
 44
0.0
 50
0.0
 51
0.0
 71
     0
 72
   100
 73
     1
 74
     1
 75
     0
 76
     0
 77
     0
 78
     0
  0
ENDTAB
  0
TABLE
  2
LTYPE
 70
     2
  0
LTYPE
  2
CONTINUOUS
 70
     0
  3
Solid line
 72
    65
 73
     0
 40
0.0
  0
LTYPE
  2
PHANTOM2
 70
     0
  3
___ _ _ ___ _ _ ___ _ _ ___ _ _
 72
    65
 73
     6
 40
1.25
 49
0.625
 49
-0.125
 49
0.125
 49
-0.125
 49
0.125
 49
-0.125
  0
ENDTAB
  0
TABLE
  2
LAYER
 70
     2
  0
LAYER
  2
0
 70
     0
 62
   255
  6
CONTINUOUS
  0
LAYER
  2
DEFPOINTS
 70
     0
 62
     7
  6
CONTINUOUS
  0
ENDTAB
  0
TABLE
  2
STYLE
 70
     1
  0
STYLE
  2
STANDARD
 70
     0
 40
0.0
 41
0.8
 50
0.0
 71
     0
 42
0.2
  3
txt
  4

  0
ENDTAB
  0
TABLE
  2
VIEW
 70
     0
  0
ENDTAB
  0
TABLE
  2
UCS
 70
     0
  0
ENDTAB
  0
TABLE
  2
APPID
 70
     9
  0
APPID
  2
ACAD
 70
     0
  0
APPID
  2
ACAD_MLEADERVER
 70
     0
  0
APPID
  2
ACAD_EXEMPT_FROM_CAD_STANDARDS
 70
     0
  0
APPID
  2
ACAD_NAV_VCDISPLAY
 70
     0
  0
APPID
  2
ACAECLAYERSTANDARD
 70
     0
  0
APPID
  2
ACCMTRANSPARENCY
 70
     0
  0
APPID
  2
ACAD_DSTYLE_DIMJAG
 70
     0
  0
APPID
  2
ACAD_DSTYLE_DIMTALN
 70
     0
  0
APPID
  2
ACDBATTR
 70
     0
  0
ENDTAB
  0
TABLE
  2
DIMSTYLE
 70
     1
  0
DIMSTYLE
  2
STANDARD
 70
     0
  3

  4

  5

  6

  7

 40
1.0
 41
0.1875
 42
0.0625
 43
0.38
 44
0.125
 45
0.0
 46
0.0
 47
0.01
 48
0.01
140
0.15625
141
0.09
142
0.0
143
25.3999999999999986
144
1.0
145
0.0
146
1.0
147
0.09
 71
     1
 72
     0
 73
     1
 74
     1
 75
     0
 76
     0
 77
     0
 78
     4
170
     0
171
     2
172
     0
173
     0
174
     0
175
     0
176
     0
177
     0
178
     0
  0
ENDTAB
  0
ENDSEC
  0
SECTION
  2
BLOCKS
  0
BLOCK
  8
0
  2
$MODEL_SPACE
 70
     0
 10
0.0
 20
0.0
 30
0.0
  3
$MODEL_SPACE
  1

  0
ENDBLK
  5
21
  8
0
  0
BLOCK
 67
     1
  8
0
  2
$PAPER_SPACE
 70
     0
 10
0.0
 20
0.0
 30
0.0
  3
$PAPER_SPACE
  1

  0
ENDBLK
  5
1D
 67
     1
  8
0
  0
BLOCK
  8
0
  2
_FILLED
 70
     0
 10
0.0
 20
0.0
 30
0.0
  3
_FILLED
  1

  0
SOLID
  5
A02F
  8
0
  6
BYBLOCK
 62
     0
 10
0.0
 20
0.0
 30
0.0
 11
-1.0
 21
0.1666666667
 31
0.0
 12
-1.0
 22
-0.1666666667
 32
0.0
 13
-1.0
 23
-0.1666666667
 33
0.0
  0
ENDBLK
  5
A030
  8
0
  6
BYBLOCK
 62
     0
  0
ENDSEC
  0
SECTION
  2
ENTITIES
  0
ATTDEF
  5
3930
  8
DEFPOINTS
 10
3764.898351074707989
 20
304.0839435185055777
 30
0.0
 40
0.001
  1
L20857-00
  3

  2
MODELNUMBER
 70
     0
1001
ACDBATTR
1070
     0
1070
     1
  0
ATTDEF
  5
3931
  8
DEFPOINTS
 10
3764.898351074707989
 20
304.0822768518390262
 30
0.0
 40
0.001
  1
KALLISTA
  3

  2
BRANDNAME
 70
     0
1001
ACDBATTR
1070
     0
1070
     1
  0
ATTDEF
  5
3932
  8
DEFPOINTS
 10
3764.898351074707989
 20
304.0806101851723042
 30
0.0
 40
0.001
  1
KITCHEN SINK
  3

  2
PRODUCT
 70
     0
1001
ACDBATTR
1070
     0
1070
     1
  0
CIRCLE
  5
11EB7
  8
0
 10
3764.8987363833371091
 20
306.7698815182603767
 30
0.0
 40
0.31
  0
CIRCLE
  5
11EB8
  8
0
 10
3764.8987363833371091
 20
306.7698815182603767
 30
0.0
 40
0.2760925586
  0
LINE
  5
1200C
  8
0
 10
3747.89768352193596
 20
314.4298904397602996
 30
0.0
 11
3747.89768352193596
 21
295.4398904397604042
 31
0.0
  0
LINE
  5
1200D
  8
0
 10
3782.5176835219372151
 20
293.4398904397604042
 30
0.0
 11
3747.2776835219360692
 21
293.4398904397604042
 31
0.0
  0
LINE
  5
1200E
  8
0
 10
3747.14768352193596
 20
295.4398904397604042
 30
0.0
 11
3747.14768352193596
 21
293.5698904397603997
 31
0.0
  0
LINE
  5
1200F
  8
0
 10
3782.6476835219368695
 20
295.4398904397604042
 30
0.0
 11
3781.8976835219368695
 21
295.4398904397604042
 31
0.0
  0
LINE
  5
12010
  8
0
 10
3747.89768352193596
 20
295.4398904397604042
 30
0.0
 11
3747.14768352193596
 21
295.4398904397604042
 31
0.0
  0
LINE
  5
12011
  8
0
 10
3782.6476835219368695
 20
295.4398904397604042
 30
0.0
 11
3782.6476835219368695
 21
293.5698904397603997
 31
0.0
  0
LINE
  5
12012
  8
0
 10
3781.8976835219368695
 20
314.4298904397602996
 30
0.0
 11
3781.8976835219368695
 21
295.4398904397604042
 31
0.0
  0
LINE
  5
12013
  8
0
 10
3781.64768352193596
 20
314.6798904397602996
 30
0.0
 11
3748.1476835219368695
 21
314.6798904397604133
 31
0.0
  0
ARC
  5
12014
  8
0
 10
3747.2776835219360692
 20
293.5698904397603997
 30
0.0
 40
0.1300000000000002
 50
180.0
 51
270.0
  0
ARC
  5
12015
  8
0
 10
3782.5176835219372151
 20
293.5698904397603997
 30
0.0
 40
0.1300000000000002
 50
270.0
 51
0.0
  0
ARC
  5
12016
  8
0
 10
3781.64768352193596
 20
314.4298904397602996
 30
0.0
 40
0.2499999999999996
 50
0.0
 51
90.0
  0
ARC
  5
12017
  8
0
 10
3748.1476835219368695
 20
314.4298904397602996
 30
0.0
 40
0.2500000000000008
 50
90.0
 51
180.0
  0
LINE
  5
12018
  8
0
 10
3748.52268352193596
 20
295.7810618922604249
 30
0.0
 11
3748.5226835219368695
 21
313.5538904397602096
 31
0.0
  0
ARC
  5
12019
  8
0
 10
3748.7736835219370732
 20
295.7810618922604249
 30
0.0
 40
0.251
 50
179.9999999999967031
 51
270.0
  0
LINE
  5
1201A
  8
0
 10
3748.7736835219370732
 20
313.8048904397601859
 30
0.0
 11
3781.0216835219371205
 21
313.8048904397629144
 31
0.0
  0
ARC
  5
1201B
  8
0
 10
3748.7736835219370732
 20
313.5538904397602096
 30
0.0
 40
0.251
 50
90.0
 51
179.9999999999967031
  0
ARC
  5
1201C
  8
0
 10
3781.0216835219371205
 20
313.5538904397628244
 30
0.0
 40
0.251
 50
0.0
 51
90.0
  0
LINE
  5
1201D
  8
0
 10
3781.2726835219368695
 20
295.7810618922604249
 30
0.0
 11
3781.2726835219368695
 21
313.5538904397628244
 31
0.0
  0
ARC
  5
1201E
  8
0
 10
3781.0216835219371205
 20
295.7810618922604249
 30
0.0
 40
0.251
 50
270.0
 51
0.0
  0
LINE
  5
1201F
  8
0
 10
3781.0216835219371205
 20
295.5300618922603917
 30
0.0
 11
3748.7736835219370732
 21
295.5300618922603917
 31
0.0
  0
CIRCLE
  5
12020
  8
0
 10
3764.8987363833371091
 20
306.7698815182603767
 30
0.0
 40
1.859602203994059
  0
CIRCLE
  5
12022
  8
0
 10
3764.8976835219368695
 20
306.7698904397603883
 30
0.0
 40
2.3169821938176498
  0
LINE
  5
12023
  8
0
 10
3748.52268352193596
 20
296.7936473057873172
 30
0.0
 11
3781.2726835219368695
 21
296.790388906080409
 31
0.0
  0
ENDSEC
  0
EOF
