  0
SECTION
  2
HEADER
  9
$ACADVER
  1
AC1009
  9
$INSBASE
 10
6504.0482413565741808
 20
442.9488371164422915
 30
0.0
  9
$EXTMIN
 10
6491.8951831347139887
 20
434.1986320813750808
 30
-0.0015258207003583
  9
$EXTMAX
 10
6516.1323228704386565
 20
442.9678681496229729
 30
0.0000000349246037
  9
$LIMMIN
 10
0.0
 20
0.0
  9
$LIMMAX
 10
11.6929133858000007
 20
8.2677165353999982
  9
$ORTHOMODE
 70
     0
  9
$REGENMODE
 70
     1
  9
$FILLMODE
 70
     1
  9
$QTEXTMODE
 70
     0
  9
$MIRRTEXT
 70
     0
  9
$DRAGMODE
 70
     2
  9
$LTSCALE
 40
0.6431102362
  9
$OSMODE
 70
  4095
  9
$ATTMODE
 70
     1
  9
$TEXTSIZE
 40
0.2
  9
$TRACEWID
 40
0.05
  9
$TEXTSTYLE
  7
STANDARD
  9
$CLAYER
  8
0
  9
$CELTYPE
  6
BYLAYER
  9
$CECOLOR
 62
   256
  9
$DIMSCALE
 40
1.0
  9
$DIMASZ
 40
0.1875
  9
$DIMEXO
 40
0.0625
  9
$DIMDLI
 40
0.4443307087
  9
$DIMRND
 40
0.0
  9
$DIMDLE
 40
0.0
  9
$DIMEXE
 40
0.125
  9
$DIMTP
 40
0.01
  9
$DIMTM
 40
0.01
  9
$DIMTXT
 40
2.0
  9
$DIMCEN
 40
0.1052362205
  9
$DIMTSZ
 40
0.0
  9
$DIMTOL
 70
     1
  9
$DIMLIM
 70
     0
  9
$DIMTIH
 70
     1
  9
$DIMTOH
 70
     1
  9
$DIMSE1
 70
     0
  9
$DIMSE2
 70
     0
  9
$DIMTAD
 70
     0
  9
$DIMZIN
 70
     0
  9
$DIMBLK
  1

  9
$DIMASO
 70
     1
  9
$DIMSHO
 70
     1
  9
$DIMPOST
  1
\X
  9
$DIMAPOST
  1

  9
$DIMALT
 70
     1
  9
$DIMALTD
 70
     2
  9
$DIMALTF
 40
25.3999999999999986
  9
$DIMLFAC
 40
1.0
  9
$DIMTOFL
 70
     0
  9
$DIMTVP
 40
0.0
  9
$DIMTIX
 70
     0
  9
$DIMSOXD
 70
     0
  9
$DIMSAH
 70
     0
  9
$DIMBLK1
  1

  9
$DIMBLK2
  1

  9
$DIMSTYLE
  2
STANDARD
  9
$DIMCLRD
 70
     0
  9
$DIMCLRE
 70
     0
  9
$DIMCLRT
 70
     0
  9
$DIMTFAC
 40
1.0
  9
$DIMGAP
 40
0.09
  9
$LUNITS
 70
     2
  9
$LUPREC
 70
     4
  9
$SKETCHINC
 40
0.1
  9
$FILLETRAD
 40
0.0
  9
$AUNITS
 70
     0
  9
$AUPREC
 70
     0
  9
$MENU
  1
.
  9
$ELEVATION
 40
0.0
  9
$PELEVATION
 40
0.0
  9
$THICKNESS
 40
0.0
  9
$LIMCHECK
 70
     0
  9
$BLIPMODE
 70
     0
  9
$CHAMFERA
 40
0.0
  9
$CHAMFERB
 40
0.0
  9
$SKPOLY
 70
     0
  9
$TDCREATE
 40
2458060.468368056230247
  9
$TDUPDATE
 40
2460930.70202546287328
  9
$TDINDWG
 40
0.7137686343
  9
$TDUSRTIMER
 40
0.7137686343
  9
$USRTIMER
 70
     1
  9
$ANGBASE
 50
0.0
  9
$ANGDIR
 70
     0
  9
$PDMODE
 70
     0
  9
$PDSIZE
 40
0.3125
  9
$PLINEWID
 40
0.0
  9
$COORDS
 70
     1
  9
$SPLFRAME
 70
     0
  9
$SPLINETYPE
 70
     6
  9
$SPLINESEGS
 70
     8
  9
$ATTDIA
 70
     1
  9
$ATTREQ
 70
     1
  9
$HANDLING
 70
     1
  9
$HANDSEED
  5
316C8
  9
$SURFTAB1
 70
     6
  9
$SURFTAB2
 70
     6
  9
$SURFTYPE
 70
     6
  9
$SURFU
 70
     6
  9
$SURFV
 70
     6
  9
$UCSNAME
  2

  9
$UCSORG
 10
0.0
 20
0.0
 30
0.0
  9
$UCSXDIR
 10
1.0
 20
0.0
 30
0.0
  9
$UCSYDIR
 10
0.0
 20
1.0
 30
0.0
  9
$PUCSNAME
  2

  9
$PUCSORG
 10
0.0
 20
0.0
 30
0.0
  9
$PUCSXDIR
 10
1.0
 20
0.0
 30
0.0
  9
$PUCSYDIR
 10
0.0
 20
1.0
 30
0.0
  9
$USERI1
 70
     0
  9
$USERI2
 70
     0
  9
$USERI3
 70
     0
  9
$USERI4
 70
     0
  9
$USERI5
 70
     0
  9
$USERR1
 40
0.0
  9
$USERR2
 40
0.0
  9
$USERR3
 40
0.0
  9
$USERR4
 40
0.0
  9
$USERR5
 40
0.0
  9
$WORLDVIEW
 70
     1
  9
$SHADEDGE
 70
     3
  9
$SHADEDIF
 70
    70
  9
$TILEMODE
 70
     1
  9
$MAXACTVP
 70
    64
  9
$PLIMCHECK
 70
     0
  9
$PEXTMIN
 10
1.0000000000000000E+20
 20
1.0000000000000000E+20
 30
1.0000000000000000E+20
  9
$PEXTMAX
 10
-1.0000000000000000E+20
 20
-1.0000000000000000E+20
 30
-1.0000000000000000E+20
  9
$PLIMMIN
 10
0.0
 20
0.0
  9
$PLIMMAX
 10
12.0
 20
9.0
  9
$UNITMODE
 70
     0
  9
$VISRETAIN
 70
     1
  9
$PLINEGEN
 70
     0
  9
$PSLTSCALE
 70
     1
  0
ENDSEC
  0
SECTION
  2
TABLES
  0
TABLE
  2
VPORT
 70
     1
  0
VPORT
  2
*ACTIVE
 70
     0
 10
0.0
 20
0.0
 11
1.0
 21
1.0
 12
2592.6483965572638226
 22
306.0036450129600212
 13
0.0
 23
0.0
 14
1.0
 24
1.0
 15
0.0
 25
0.0
 16
0.0
 26
0.0
 36
60.4960186965801583
 17
3911.3653564453120453
 27
132.5796051025390057
 37
0.0
 40
11.0294691631132693
 41
2.204387990762124
 42
50.0
 43
0.0
 44
0.0
 50
0.0
 51
0.0
 71
     0
 72
   100
 73
     1
 74
     1
 75
     0
 76
     0
 77
     0
 78
     0
  0
ENDTAB
  0
TABLE
  2
LTYPE
 70
     2
  0
LTYPE
  2
CONTINUOUS
 70
     0
  3
Solid line
 72
    65
 73
     0
 40
0.0
  0
LTYPE
  2
PHANTOM2
 70
     0
  3
___ _ _ ___ _ _ ___ _ _ ___ _ _
 72
    65
 73
     6
 40
1.25
 49
0.625
 49
-0.125
 49
0.125
 49
-0.125
 49
0.125
 49
-0.125
  0
ENDTAB
  0
TABLE
  2
LAYER
 70
     2
  0
LAYER
  2
0
 70
     0
 62
   255
  6
CONTINUOUS
  0
LAYER
  2
DEFPOINTS
 70
     0
 62
     7
  6
CONTINUOUS
  0
ENDTAB
  0
TABLE
  2
STYLE
 70
     1
  0
STYLE
  2
STANDARD
 70
     0
 40
0.0
 41
0.8
 50
0.0
 71
     0
 42
0.2
  3
txt
  4

  0
ENDTAB
  0
TABLE
  2
VIEW
 70
     0
  0
ENDTAB
  0
TABLE
  2
UCS
 70
     0
  0
ENDTAB
  0
TABLE
  2
APPID
 70
    11
  0
APPID
  2
ACAD
 70
     0
  0
APPID
  2
ACAD_MLEADERVER
 70
     0
  0
APPID
  2
ACAD_EXEMPT_FROM_CAD_STANDARDS
 70
     0
  0
APPID
  2
ACAD_NAV_VCDISPLAY
 70
     0
  0
APPID
  2
ACAECLAYERSTANDARD
 70
     0
  0
APPID
  2
ACCMTRANSPARENCY
 70
     0
  0
APPID
  2
ACAD_DSTYLE_DIMJAG
 70
     0
  0
APPID
  2
ACAD_DSTYLE_DIMTALN
 70
     0
  0
APPID
  2
ACDBATTR
 70
     0
  0
APPID
  2
ACADANNOTATIVE
 70
     0
  0
APPID
  2
DCO15
 70
     0
  0
ENDTAB
  0
TABLE
  2
DIMSTYLE
 70
     1
  0
DIMSTYLE
  2
STANDARD
 70
     0
  3

  4

  5

  6

  7

 40
1.0
 41
0.1875
 42
0.0625
 43
0.38
 44
0.125
 45
0.0
 46
0.0
 47
0.01
 48
0.01
140
0.15625
141
0.09
142
0.0
143
25.3999999999999986
144
1.0
145
0.0
146
1.0
147
0.09
 71
     1
 72
     0
 73
     1
 74
     1
 75
     0
 76
     0
 77
     0
 78
     4
170
     0
171
     2
172
     0
173
     0
174
     0
175
     0
176
     0
177
     0
178
     0
  0
ENDTAB
  0
ENDSEC
  0
SECTION
  2
BLOCKS
  0
BLOCK
  8
0
  2
$MODEL_SPACE
 70
     0
 10
0.0
 20
0.0
 30
0.0
  3
$MODEL_SPACE
  1

  0
ENDBLK
  5
21
  8
0
  0
BLOCK
 67
     1
  8
0
  2
$PAPER_SPACE
 70
     0
 10
0.0
 20
0.0
 30
0.0
  3
$PAPER_SPACE
  1

  0
ENDBLK
  5
1D
 67
     1
  8
0
  0
BLOCK
  8
0
  2
_FILLED
 70
     0
 10
0.0
 20
0.0
 30
0.0
  3
_FILLED
  1

  0
SOLID
  5
2853B
  8
0
  6
BYBLOCK
 62
     0
 10
0.0
 20
0.0
 30
0.0
 11
-1.0
 21
0.1666666667
 31
0.0
 12
-1.0
 22
-0.1666666667
 32
0.0
 13
-1.0
 23
-0.1666666667
 33
0.0
  0
ENDBLK
  5
2853C
  8
0
  6
BYBLOCK
 62
     0
  0
ENDSEC
  0
SECTION
  2
ENTITIES
  0
ATTDEF
  5
2842F
  8
DEFPOINTS
 10
6504.0452010517592498
 20
442.9523731586477879
 30
0.0
 40
0.001
  1
L39743-00
  3

  2
MODELNUMBER
 70
     0
1001
ACDBATTR
1070
     0
1070
     1
  0
ATTDEF
  5
28430
  8
DEFPOINTS
 10
6504.0450752421020297
 20
442.9507063182687148
 30
0.0
 40
0.001
  1
KALLISTA
  3

  2
TRADENAME
 70
     0
1001
ACDBATTR
1070
     0
1070
     1
  0
ATTDEF
  5
28431
  8
DEFPOINTS
 10
6504.0452010517592498
 20
442.9490398253145145
 30
0.0
 40
0.001
  1
KITCHEN SINK
  3

  2
PRODUCT
 70
     0
1001
ACDBATTR
1070
     0
1070
     1
  0
LINE
  5
3157D
  8
0
 10
6492.4232413565732713
 20
442.9488371164422915
 30
0.0
 11
6515.6732413565732713
 21
442.9488371164422915
 31
0.0
  0
LINE
  5
3157E
  8
0
 10
6492.2982413565732713
 20
442.8238371164422915
 30
0.0
 11
6492.2982413565732713
 21
434.3238371164424052
 31
0.0
  0
ARC
  5
3157F
  8
0
 10
6492.4232413565732713
 20
442.8238371164422915
 30
0.0
 40
0.125
 50
90.0
 51
180.0
  0
ARC
  5
31580
  8
0
 10
6492.4232413565732713
 20
434.3238371164424052
 30
0.0
 40
0.125
 50
180.0
 51
270.0
  0
LINE
  5
31581
  8
0
 10
6515.7982413565741808
 20
442.8238371164422915
 30
0.0
 11
6515.7982413565741808
 21
434.3238371164424052
 31
0.0
  0
ARC
  5
31582
  8
0
 10
6515.6732413565732713
 20
442.8238371164422915
 30
0.0
 40
0.125
 50
0.0
 51
90.0
  0
ARC
  5
31583
  8
0
 10
6515.6732413565732713
 20
434.3238371164424052
 30
0.0
 40
0.125
 50
270.0
 51
0.0
  0
LINE
  5
31585
  8
0
 10
6492.4232413565732713
 20
434.1988371164424052
 30
0.0
 11
6515.6732413565732713
 21
434.1988371164424052
 31
0.0
  0
ARC
  5
31586
  8
0
 10
6496.9182413565731622
 20
439.1988371164424052
 30
0.0
 40
1.090000000000001
 50
0.0
 51
180.0
  0
ARC
  5
31587
  8
0
 10
6496.9182413565731622
 20
439.1988371164424052
 30
0.0
 40
1.5600000000000001
 50
0.0
 51
180.0
  0
ARC
  5
31588
  8
0
 10
6496.9182413565731622
 20
439.1988371164424052
 30
0.0
 40
2.030000000000002
 50
0.0
 51
180.0
  0
ARC
  5
31589
  8
0
 10
6496.9182413565731622
 20
439.1988371164424052
 30
0.0
 40
2.4999999999999978
 50
0.0
 51
180.0
  0
LINE
  5
3158A
  8
0
 10
6495.8282413565730167
 20
434.3238371164424052
 30
0.0
 11
6495.8282413565730167
 21
439.1988371164424052
 31
0.0
  0
LINE
  5
3158B
  8
0
 10
6495.358241356572762
 20
434.3238371164424052
 30
0.0
 11
6495.358241356572762
 21
439.1988371164424052
 31
0.0
  0
LINE
  5
3158C
  8
0
 10
6494.8882413565734169
 20
434.3238371164424052
 30
0.0
 11
6494.8882413565734169
 21
439.1988371164424052
 31
0.0
  0
LINE
  5
3158D
  8
0
 10
6494.4182413565731622
 20
434.3238371164424052
 30
0.0
 11
6494.4182413565731622
 21
439.1988371164424052
 31
0.0
  0
ARC
  5
3158E
  8
0
 10
6494.2932413565722527
 20
434.3238371164424052
 30
0.0
 40
0.125
 50
270.0
 51
0.0
  0
ARC
  5
3158F
  8
0
 10
6494.7632413565715979
 20
434.3238371164424052
 30
0.0
 40
0.125
 50
270.0
 51
0.0
  0
ARC
  5
31590
  8
0
 10
6495.2332413565718525
 20
434.3238371164424052
 30
0.0
 40
0.125
 50
270.0
 51
0.0
  0
ARC
  5
31591
  8
0
 10
6495.7032413565721072
 20
434.3238371164424052
 30
0.0
 40
0.125
 50
270.0
 51
0.0
  0
LINE
  5
31592
  8
0
 10
6498.0082413565742172
 20
434.3238371164424052
 30
0.0
 11
6498.0082413565742172
 21
439.1988371164424052
 31
0.0
  0
LINE
  5
31593
  8
0
 10
6498.4782413565717434
 20
434.3238371164424052
 30
0.0
 11
6498.4782413565717434
 21
439.1988371164424052
 31
0.0
  0
LINE
  5
31594
  8
0
 10
6498.948241356571998
 20
434.3238371164424052
 30
0.0
 11
6498.948241356571998
 21
439.1988371164424052
 31
0.0
  0
LINE
  5
31595
  8
0
 10
6499.4182413565740717
 20
434.3238371164424052
 30
0.0
 11
6499.4182413565740717
 21
439.1988371164424052
 31
0.0
  0
ARC
  5
31596
  8
0
 10
6499.5432413565731622
 20
434.3238371164424052
 30
0.0
 40
0.125
 50
180.0
 51
270.0
  0
ARC
  5
31597
  8
0
 10
6499.0732413565729075
 20
434.3238371164424052
 30
0.0
 40
0.125
 50
180.0
 51
270.0
  0
ARC
  5
31598
  8
0
 10
6498.6032413565726529
 20
434.3238371164424052
 30
0.0
 40
0.125
 50
180.0
 51
270.0
  0
ARC
  5
31599
  8
0
 10
6498.1332413565733077
 20
434.3238371164424052
 30
0.0
 40
0.125
 50
180.0
 51
270.0
  0
ARC
  5
3159A
  8
0
 10
6504.0482413565741808
 20
439.1988371164424052
 30
0.0
 40
1.090000000000001
 50
0.0
 51
180.0
  0
ARC
  5
3159B
  8
0
 10
6504.0482413565741808
 20
439.1988371164424052
 30
0.0
 40
1.5600000000000001
 50
0.0
 51
180.0
  0
ARC
  5
3159C
  8
0
 10
6504.0482413565741808
 20
439.1988371164424052
 30
0.0
 40
2.030000000000002
 50
0.0
 51
180.0
  0
ARC
  5
3159D
  8
0
 10
6504.0482413565741808
 20
439.1988371164424052
 30
0.0
 40
2.4999999999999978
 50
0.0
 51
180.0
  0
LINE
  5
3159E
  8
0
 10
6502.9582413565731258
 20
434.3238371164424052
 30
0.0
 11
6502.9582413565731258
 21
439.1988371164424052
 31
0.0
  0
LINE
  5
3159F
  8
0
 10
6502.4882413565728712
 20
434.3238371164424052
 30
0.0
 11
6502.4882413565728712
 21
439.1988371164424052
 31
0.0
  0
LINE
  5
315A0
  8
0
 10
6502.018241356571707
 20
434.3238371164424052
 30
0.0
 11
6502.018241356571707
 21
439.1988371164424052
 31
0.0
  0
LINE
  5
315A1
  8
0
 10
6501.5482413565732713
 20
434.3238371164424052
 30
0.0
 11
6501.5482413565732713
 21
439.1988371164424052
 31
0.0
  0
ARC
  5
315A2
  8
0
 10
6501.4232413565732713
 20
434.3238371164424052
 30
0.0
 40
0.125
 50
270.0
 51
0.0
  0
ARC
  5
315A3
  8
0
 10
6501.893241356571707
 20
434.3238371164424052
 30
0.0
 40
0.125
 50
270.0
 51
0.0
  0
ARC
  5
315A4
  8
0
 10
6502.3632413565728712
 20
434.3238371164424052
 30
0.0
 40
0.125
 50
270.0
 51
0.0
  0
ARC
  5
315A5
  8
0
 10
6502.8332413565731258
 20
434.3238371164424052
 30
0.0
 40
0.125
 50
270.0
 51
0.0
  0
LINE
  5
315A6
  8
0
 10
6505.1382413565734169
 20
434.3238371164424052
 30
0.0
 11
6505.1382413565734169
 21
439.1988371164424052
 31
0.0
  0
LINE
  5
315A7
  8
0
 10
6505.608241356572762
 20
434.3238371164424052
 30
0.0
 11
6505.608241356572762
 21
439.1988371164424052
 31
0.0
  0
LINE
  5
315A8
  8
0
 10
6506.0782413565730167
 20
434.3238371164424052
 30
0.0
 11
6506.0782413565730167
 21
439.1988371164424052
 31
0.0
  0
LINE
  5
315A9
  8
0
 10
6506.5482413565732713
 20
434.3238371164424052
 30
0.0
 11
6506.5482413565732713
 21
439.1988371164424052
 31
0.0
  0
ARC
  5
315AA
  8
0
 10
6506.6732413565732713
 20
434.3238371164424052
 30
0.0
 40
0.125
 50
180.0
 51
270.0
  0
ARC
  5
315AB
  8
0
 10
6506.2032413565730167
 20
434.3238371164424052
 30
0.0
 40
0.125
 50
180.0
 51
270.0
  0
ARC
  5
315AC
  8
0
 10
6505.733241356572762
 20
434.3238371164424052
 30
0.0
 40
0.125
 50
180.0
 51
270.0
  0
ARC
  5
315AD
  8
0
 10
6505.2632413565734169
 20
434.3238371164424052
 30
0.0
 40
0.125
 50
180.0
 51
270.0
  0
ARC
  5
315AE
  8
0
 10
6511.1782413565733805
 20
439.1988371164424052
 30
0.0
 40
1.090000000000001
 50
0.0
 51
180.0
  0
ARC
  5
315AF
  8
0
 10
6511.1782413565733805
 20
439.1988371164424052
 30
0.0
 40
1.5600000000000001
 50
0.0
 51
180.0
  0
ARC
  5
315B0
  8
0
 10
6511.1782413565733805
 20
439.1988371164424052
 30
0.0
 40
2.030000000000002
 50
0.0
 51
180.0
  0
ARC
  5
315B1
  8
0
 10
6511.1782413565733805
 20
439.1988371164424052
 30
0.0
 40
2.4999999999999978
 50
0.0
 51
180.0
  0
LINE
  5
315B2
  8
0
 10
6510.088241356573235
 20
434.3238371164424052
 30
0.0
 11
6510.088241356573235
 21
439.1988371164424052
 31
0.0
  0
LINE
  5
315B3
  8
0
 10
6509.6182413565729803
 20
434.3238371164424052
 30
0.0
 11
6509.6182413565729803
 21
439.1988371164424052
 31
0.0
  0
LINE
  5
315B4
  8
0
 10
6509.1482413565727256
 20
434.3238371164424052
 30
0.0
 11
6509.1482413565727256
 21
439.1988371164424052
 31
0.0
  0
LINE
  5
315B5
  8
0
 10
6508.6782413565733805
 20
434.3238371164424052
 30
0.0
 11
6508.6782413565733805
 21
439.1988371164424052
 31
0.0
  0
ARC
  5
315B6
  8
0
 10
6508.5532413565715615
 20
434.3238371164424052
 30
0.0
 40
0.125
 50
270.0
 51
0.0
  0
ARC
  5
315B7
  8
0
 10
6509.0232413565718161
 20
434.3238371164424052
 30
0.0
 40
0.125
 50
270.0
 51
0.0
  0
ARC
  5
315B8
  8
0
 10
6509.4932413565720708
 20
434.3238371164424052
 30
0.0
 40
0.125
 50
270.0
 51
0.0
  0
ARC
  5
315B9
  8
0
 10
6509.9632413565723255
 20
434.3238371164424052
 30
0.0
 40
0.125
 50
270.0
 51
0.0
  0
LINE
  5
315BA
  8
0
 10
6512.268241356571707
 20
434.3238371164424052
 30
0.0
 11
6512.268241356571707
 21
439.1988371164424052
 31
0.0
  0
LINE
  5
315BB
  8
0
 10
6512.7382413565719617
 20
434.3238371164424052
 30
0.0
 11
6512.7382413565719617
 21
439.1988371164424052
 31
0.0
  0
LINE
  5
315BC
  8
0
 10
6513.2082413565722163
 20
434.3238371164424052
 30
0.0
 11
6513.2082413565722163
 21
439.1988371164424052
 31
0.0
  0
LINE
  5
315BD
  8
0
 10
6513.67824135657429
 20
434.3238371164424052
 30
0.0
 11
6513.67824135657429
 21
439.1988371164424052
 31
0.0
  0
ARC
  5
315BE
  8
0
 10
6513.80324135657429
 20
434.3238371164424052
 30
0.0
 40
0.125
 50
180.0
 51
270.0
  0
ARC
  5
315BF
  8
0
 10
6513.3332413565740353
 20
434.3238371164424052
 30
0.0
 40
0.125
 50
180.0
 51
270.0
  0
ARC
  5
315C0
  8
0
 10
6512.8632413565728712
 20
434.3238371164424052
 30
0.0
 40
0.125
 50
180.0
 51
270.0
  0
ARC
  5
315C1
  8
0
 10
6512.3932413565726165
 20
434.3238371164424052
 30
0.0
 40
0.125
 50
180.0
 51
270.0
  0
ENDSEC
  0
EOF
