  0
SECTION
  2
HEADER
  9
$ACADVER
  1
AC1009
  9
$INSBASE
 10
185.8582778919519001
 20
15.1659832143818907
 30
0.0
  9
$EXTMIN
 10
184.8849198570266879
 20
15.1658036177811208
 30
-0.0000000349181948
  9
$EXTMAX
 10
186.8377386271451996
 20
19.9553572842565892
 30
0.0000000814935746
  9
$LIMMIN
 10
0.0
 20
0.0
  9
$LIMMAX
 10
11.6929133858000007
 20
8.2677165353999982
  9
$ORTHOMODE
 70
     0
  9
$REGENMODE
 70
     1
  9
$FILLMODE
 70
     1
  9
$QTEXTMODE
 70
     0
  9
$MIRRTEXT
 70
     0
  9
$DRAGMODE
 70
     2
  9
$LTSCALE
 40
0.6431102362
  9
$OSMODE
 70
  3839
  9
$ATTMODE
 70
     1
  9
$TEXTSIZE
 40
0.2
  9
$TRACEWID
 40
0.05
  9
$TEXTSTYLE
  7
STANDARD
  9
$CLAYER
  8
0
  9
$CELTYPE
  6
BYLAYER
  9
$CECOLOR
 62
   256
  9
$DIMSCALE
 40
1.0
  9
$DIMASZ
 40
0.1875
  9
$DIMEXO
 40
0.0625
  9
$DIMDLI
 40
0.4443307087
  9
$DIMRND
 40
0.0
  9
$DIMDLE
 40
0.0
  9
$DIMEXE
 40
0.125
  9
$DIMTP
 40
0.01
  9
$DIMTM
 40
0.01
  9
$DIMTXT
 40
1.0
  9
$DIMCEN
 40
0.1052362205
  9
$DIMTSZ
 40
0.0
  9
$DIMTOL
 70
     1
  9
$DIMLIM
 70
     0
  9
$DIMTIH
 70
     1
  9
$DIMTOH
 70
     1
  9
$DIMSE1
 70
     0
  9
$DIMSE2
 70
     0
  9
$DIMTAD
 70
     0
  9
$DIMZIN
 70
     0
  9
$DIMBLK
  1

  9
$DIMASO
 70
     1
  9
$DIMSHO
 70
     1
  9
$DIMPOST
  1
\X
  9
$DIMAPOST
  1

  9
$DIMALT
 70
     1
  9
$DIMALTD
 70
     2
  9
$DIMALTF
 40
25.3999999999999986
  9
$DIMLFAC
 40
1.0
  9
$DIMTOFL
 70
     0
  9
$DIMTVP
 40
0.0
  9
$DIMTIX
 70
     0
  9
$DIMSOXD
 70
     0
  9
$DIMSAH
 70
     0
  9
$DIMBLK1
  1

  9
$DIMBLK2
  1

  9
$DIMSTYLE
  2
STANDARD
  9
$DIMCLRD
 70
     0
  9
$DIMCLRE
 70
     0
  9
$DIMCLRT
 70
     0
  9
$DIMTFAC
 40
1.0
  9
$DIMGAP
 40
0.09
  9
$LUNITS
 70
     2
  9
$LUPREC
 70
     4
  9
$SKETCHINC
 40
0.1
  9
$FILLETRAD
 40
0.0
  9
$AUNITS
 70
     0
  9
$AUPREC
 70
     0
  9
$MENU
  1
.
  9
$ELEVATION
 40
0.0
  9
$PELEVATION
 40
0.0
  9
$THICKNESS
 40
0.0
  9
$LIMCHECK
 70
     0
  9
$BLIPMODE
 70
     0
  9
$CHAMFERA
 40
0.0
  9
$CHAMFERB
 40
0.0
  9
$SKPOLY
 70
     0
  9
$TDCREATE
 40
2458172.4620254631154239
  9
$TDUPDATE
 40
2460493.3876736108213663
  9
$TDINDWG
 40
0.0838495255
  9
$TDUSRTIMER
 40
0.0838495255
  9
$USRTIMER
 70
     1
  9
$ANGBASE
 50
0.0
  9
$ANGDIR
 70
     0
  9
$PDMODE
 70
     0
  9
$PDSIZE
 40
0.3125
  9
$PLINEWID
 40
0.0
  9
$COORDS
 70
     1
  9
$SPLFRAME
 70
     0
  9
$SPLINETYPE
 70
     6
  9
$SPLINESEGS
 70
     8
  9
$ATTDIA
 70
     1
  9
$ATTREQ
 70
     1
  9
$HANDLING
 70
     1
  9
$HANDSEED
  5
39B7
  9
$SURFTAB1
 70
     6
  9
$SURFTAB2
 70
     6
  9
$SURFTYPE
 70
     6
  9
$SURFU
 70
     6
  9
$SURFV
 70
     6
  9
$UCSNAME
  2

  9
$UCSORG
 10
0.0
 20
0.0
 30
0.0
  9
$UCSXDIR
 10
1.0
 20
0.0
 30
0.0
  9
$UCSYDIR
 10
0.0
 20
1.0
 30
0.0
  9
$PUCSNAME
  2

  9
$PUCSORG
 10
0.0
 20
0.0
 30
0.0
  9
$PUCSXDIR
 10
1.0
 20
0.0
 30
0.0
  9
$PUCSYDIR
 10
0.0
 20
1.0
 30
0.0
  9
$USERI1
 70
     0
  9
$USERI2
 70
     0
  9
$USERI3
 70
     0
  9
$USERI4
 70
     0
  9
$USERI5
 70
     0
  9
$USERR1
 40
0.0
  9
$USERR2
 40
0.0
  9
$USERR3
 40
0.0
  9
$USERR4
 40
0.0
  9
$USERR5
 40
0.0
  9
$WORLDVIEW
 70
     1
  9
$SHADEDGE
 70
     3
  9
$SHADEDIF
 70
    70
  9
$TILEMODE
 70
     1
  9
$MAXACTVP
 70
    64
  9
$PLIMCHECK
 70
     0
  9
$PEXTMIN
 10
1.0000000000000000E+20
 20
1.0000000000000000E+20
 30
1.0000000000000000E+20
  9
$PEXTMAX
 10
-1.0000000000000000E+20
 20
-1.0000000000000000E+20
 30
-1.0000000000000000E+20
  9
$PLIMMIN
 10
0.0
 20
0.0
  9
$PLIMMAX
 10
12.0
 20
9.0
  9
$UNITMODE
 70
     0
  9
$VISRETAIN
 70
     1
  9
$PLINEGEN
 70
     0
  9
$PSLTSCALE
 70
     1
  0
ENDSEC
  0
SECTION
  2
TABLES
  0
TABLE
  2
VPORT
 70
     1
  0
VPORT
  2
*ACTIVE
 70
     0
 10
0.0
 20
0.0
 11
1.0
 21
1.0
 12
10.4575748038731096
 22
2.0216168336436162
 13
0.0
 23
0.0
 14
1.0
 24
1.0
 15
0.0
 25
0.0
 16
0.0
 26
0.0
 36
26.3860698290738505
 17
175.4037544382127862
 27
15.5389636173752397
 37
0.0
 40
4.8238464134908066
 41
2.2831541218637992
 42
50.0
 43
0.0
 44
0.0
 50
0.0
 51
0.0
 71
     0
 72
   100
 73
     1
 74
     1
 75
     0
 76
     0
 77
     0
 78
     0
  0
ENDTAB
  0
TABLE
  2
LTYPE
 70
     2
  0
LTYPE
  2
CONTINUOUS
 70
     0
  3
Solid line
 72
    65
 73
     0
 40
0.0
  0
LTYPE
  2
PHANTOM2
 70
     0
  3
___ _ _ ___ _ _ ___ _ _ ___ _ _
 72
    65
 73
     6
 40
1.25
 49
0.625
 49
-0.125
 49
0.125
 49
-0.125
 49
0.125
 49
-0.125
  0
ENDTAB
  0
TABLE
  2
LAYER
 70
     2
  0
LAYER
  2
0
 70
     0
 62
   255
  6
CONTINUOUS
  0
LAYER
  2
DEFPOINTS
 70
     0
 62
     7
  6
CONTINUOUS
  0
ENDTAB
  0
TABLE
  2
STYLE
 70
     1
  0
STYLE
  2
STANDARD
 70
     0
 40
0.0
 41
0.8
 50
0.0
 71
     0
 42
0.2
  3
txt
  4

  0
ENDTAB
  0
TABLE
  2
VIEW
 70
     0
  0
ENDTAB
  0
TABLE
  2
UCS
 70
     0
  0
ENDTAB
  0
TABLE
  2
APPID
 70
     9
  0
APPID
  2
ACAD
 70
     0
  0
APPID
  2
ACAD_MLEADERVER
 70
     0
  0
APPID
  2
ACAD_EXEMPT_FROM_CAD_STANDARDS
 70
     0
  0
APPID
  2
ACAD_DSTYLE_DIMJAG
 70
     0
  0
APPID
  2
ACAD_DSTYLE_DIMTALN
 70
     0
  0
APPID
  2
ACAD_NAV_VCDISPLAY
 70
     0
  0
APPID
  2
ACAECLAYERSTANDARD
 70
     0
  0
APPID
  2
ACCMTRANSPARENCY
 70
     0
  0
APPID
  2
ACDBATTR
 70
     0
  0
ENDTAB
  0
TABLE
  2
DIMSTYLE
 70
     1
  0
DIMSTYLE
  2
STANDARD
 70
     0
  3

  4

  5

  6

  7

 40
1.0
 41
0.1875
 42
0.0625
 43
0.38
 44
0.125
 45
0.0
 46
0.0
 47
0.01
 48
0.01
140
0.15625
141
0.09
142
0.0
143
25.3999999999999986
144
1.0
145
0.0
146
1.0
147
0.09
 71
     1
 72
     0
 73
     1
 74
     1
 75
     0
 76
     0
 77
     0
 78
     4
170
     0
171
     2
172
     0
173
     0
174
     0
175
     0
176
     0
177
     0
178
     0
  0
ENDTAB
  0
ENDSEC
  0
SECTION
  2
BLOCKS
  0
BLOCK
  8
0
  2
$MODEL_SPACE
 70
     0
 10
0.0
 20
0.0
 30
0.0
  3
$MODEL_SPACE
  1

  0
ENDBLK
  5
21
  8
0
  0
BLOCK
 67
     1
  8
0
  2
$PAPER_SPACE
 70
     0
 10
0.0
 20
0.0
 30
0.0
  3
$PAPER_SPACE
  1

  0
ENDBLK
  5
1D
 67
     1
  8
0
  0
BLOCK
  8
0
  2
_FILLED
 70
     0
 10
0.0
 20
0.0
 30
0.0
  3
_FILLED
  1

  0
SOLID
  5
2876
  8
0
  6
BYBLOCK
 62
     0
 10
0.0
 20
0.0
 30
0.0
 11
-1.0
 21
0.1666666667
 31
0.0
 12
-1.0
 22
-0.1666666667
 32
0.0
 13
-1.0
 23
-0.1666666667
 33
0.0
  0
ENDBLK
  5
2877
  8
0
  6
BYBLOCK
 62
     0
  0
ENDSEC
  0
SECTION
  2
ENTITIES
  0
ATTDEF
  5
3034
  8
DEFPOINTS
 10
185.8588755560897994
 20
15.1701538293832403
 30
0.0
 40
0.001
  1
K-P103K36-SBNA
  3

  2
MODELNUMBER
 70
     0
1001
ACDBATTR
1070
     0
1070
     1
  0
ATTDEF
  5
3035
  8
DEFPOINTS
 10
185.8588755560897994
 20
15.1684871627165698
 30
0.0
 40
0.001
  1
KUMIN
  3

  2
TRADENAME
 70
     0
1001
ACDBATTR
1070
     0
1070
     1
  0
ATTDEF
  5
3036
  8
DEFPOINTS
 10
185.8588755560897994
 20
15.16682049604991
 30
0.0
 40
0.001
  1
BATHROOM SINK FAUCET
  3

  2
PRODUCT
 70
     0
1001
ACDBATTR
1070
     0
1070
     1
  0
ARC
  5
34BC
  8
0
 10
185.8722285423903884
 20
17.2155095823610793
 30
0.0
 40
1.9830202570484321
 50
91.2134458157758559
 51
96.539561486994117
  0
ARC
  5
34BD
  8
0
 10
185.8412688752673034
 20
17.4046292768637905
 30
0.0
 40
1.791628827425308
 50
96.2447222130626443
 51
101.2566847056017991
  0
ARC
  5
34BE
  8
0
 10
185.6183756472393043
 20
18.4743797041283386
 30
0.0
 40
0.6990163831511244
 50
100.454621751265293
 51
112.3909653757261964
  0
ARC
  5
34BF
  8
0
 10
185.4091565277201994
 20
18.9800550531876695
 30
0.0
 40
0.1517713800963352
 50
112.0809859680265959
 51
136.6788945915942008
  0
ARC
  5
34C0
  8
0
 10
185.3331067763872113
 20
19.055544002000719
 30
0.0
 40
0.0447358935648238
 50
140.1942488783921874
 51
181.7682141635063999
  0
ARC
  5
34C1
  8
0
 10
185.382193057896302
 20
19.0640951275803197
 30
0.0
 40
0.0943251752139944
 50
186.0438812241619075
 51
234.9476318573146898
  0
ARC
  5
34C2
  8
0
 10
185.6616747067704125
 20
19.3777630985859517
 30
0.0
 40
0.5139229733619443
 50
229.5163201696892941
 51
250.3553127602772861
  0
ARC
  5
34C3
  8
0
 10
186.7315666556038138
 20
22.3972016891565104
 30
0.0
 40
3.7173071934053139
 50
250.4705141211285024
 51
251.8735470611752021
  0
ARC
  5
34C4
  8
0
 10
185.1967014050756859
 20
16.933706693481561
 30
0.0
 40
1.9516395727954541
 50
78.7430656277440448
 51
80.4280963361903076
  0
ARC
  5
34C5
  8
0
 10
185.7121497735491005
 20
19.3425208674843887
 30
0.0
 40
0.5271694831575703
 50
248.4639235561477904
 51
261.5914716038730035
  0
LINE
  5
34C6
  8
0
 10
185.5186327126519075
 20
18.8521548703818915
 30
0.0
 11
185.5186275847518971
 21
18.8580081172124387
 31
0.0
  0
ARC
  5
34C7
  8
0
 10
185.5201761384028032
 20
18.8542345886987199
 30
0.0
 40
0.0040789136212059
 50
75.0235220997331425
 51
112.3119162619996985
  0
ARC
  5
34C8
  8
0
 10
185.8498089987085962
 20
18.2230310072427812
 30
0.0
 40
0.8732708157621866
 50
90.5556574633012161
 51
109.588856746557596
  0
ARC
  5
34C9
  8
0
 10
185.5584440035262048
 20
18.962970003383731
 30
0.0
 40
0.0722359040906474
 50
129.6411834878556135
 51
167.1031689612366051
  0
ARC
  5
34CA
  8
0
 10
185.6374213710525964
 20
18.86324520279776
 30
0.0
 40
0.1994349995516756
 50
113.7721764417363062
 51
128.8352242313549141
  0
ARC
  5
34CB
  8
0
 10
185.5842315736437911
 20
18.9788945455906202
 30
0.0
 40
0.0962014223407799
 50
179.8819334694447036
 51
192.5192392180601075
  0
ARC
  5
34CC
  8
0
 10
185.603310849366693
 20
18.9936044869925595
 30
0.0
 40
0.1184577656783998
 50
197.4707595458638991
 51
243.9956029954524865
  0
ARC
  5
34CD
  8
0
 10
185.8567416354628108
 20
18.1090287931674787
 30
0.0
 40
0.9371912692537476
 50
89.9060799482652726
 51
100.0796734448211964
  0
ARC
  5
34CE
  8
0
 10
185.770492172270707
 20
18.5784211718643988
 30
0.0
 40
0.4599569643151606
 50
99.7350703587640339
 51
113.2243659352732976
  0
ARC
  5
34CF
  8
0
 10
185.6315262924487115
 20
18.8896377439539904
 30
0.0
 40
0.119264293836221
 50
110.8301352531881037
 51
147.6936380975658096
  0
ARC
  5
34D0
  8
0
 10
185.5640231019590942
 20
18.9385797351651384
 30
0.0
 40
0.0364394564443292
 50
156.0394165246763976
 51
200.9460841467414127
  0
ARC
  5
34D1
  8
0
 10
185.598288436587012
 20
18.9572118997749506
 30
0.0
 40
0.0752777100515877
 50
204.8700198550050118
 51
235.3744355313525887
  0
ARC
  5
34D2
  8
0
 10
185.8573230006450103
 20
19.0394858439774204
 30
0.0
 40
0.0810165244987045
 50
251.6828304181580904
 51
270.675325298563223
  0
ARC
  5
34D3
  8
0
 10
185.8363914864144135
 20
18.9790448455698311
 30
0.0
 40
0.0170821600971201
 50
210.3259496862278866
 51
254.6214296331299067
  0
ARC
  5
34D4
  8
0
 10
185.8321939971824861
 20
18.9755082807968307
 30
0.0
 40
0.0117105950291815
 50
185.8399338401169132
 51
205.755015487203309
  0
ARC
  5
34D5
  8
0
 10
185.8259530326554057
 20
18.9741680116251388
 30
0.0
 40
0.005410897090865
 50
134.1374488749223133
 51
178.4250128592744034
  0
ARC
  5
34D6
  8
0
 10
185.8382723243344117
 20
18.9602953373371008
 30
0.0
 40
0.0239598684556627
 50
104.1136185965660985
 51
132.1774278770124056
  0
ARC
  5
34D7
  8
0
 10
185.8573892901117972
 20
18.8937682788735799
 30
0.0
 40
0.0931691626199361
 50
89.4535654732993777
 51
105.538994245134802
  0
ARC
  5
34D8
  8
0
 10
185.8580464351798014
 20
19.0156383224367005
 30
0.0
 40
0.0518545801196372
 50
255.758339762588605
 51
270.2557448191328717
  0
ARC
  5
34D9
  8
0
 10
185.84745443812389
 20
18.9764287684187387
 30
0.0
 40
0.0112614077595597
 50
220.1694855167320952
 51
258.9166190051130911
  0
ARC
  5
34DA
  8
0
 10
185.8407963608665057
 20
18.9701883323025307
 30
0.0
 40
0.0021999280980069
 50
159.5944971622355126
 51
207.7330993576985918
  0
ARC
  5
34DB
  8
0
 10
185.8425042548259967
 20
18.969337587591621
 30
0.0
 40
0.0041022421194389
 50
123.1875133672250939
 51
156.7736922195435056
  0
ARC
  5
34DC
  8
0
 10
185.8512588822048883
 20
18.9558421766460405
 30
0.0
 40
0.0201885366822612
 50
94.1053664751197232
 51
123.0157403415511936
  0
ARC
  5
34DD
  8
0
 10
185.8582854016100896
 20
18.9186877583619406
 30
0.0
 40
0.057914144806837
 50
90.0074294755302731
 51
98.4115613404007661
  0
ARC
  5
34DE
  8
0
 10
185.8578211401504916
 20
18.9218235593362607
 30
0.0
 40
0.1163737562821757
 50
89.7751209677483644
 51
102.2054766292533969
  0
ARC
  5
34DF
  8
0
 10
185.8392112549898059
 20
19.0014956576642113
 30
0.0
 40
0.0345942815277707
 50
99.9771514789715496
 51
129.7821391618626876
  0
ARC
  5
34E0
  8
0
 10
185.8211234822992992
 20
19.0239920099185085
 30
0.0
 40
0.0057536881735497
 50
134.7134840198835946
 51
180.2187251008961937
  0
ARC
  5
34E1
  8
0
 10
185.8219164020918015
 20
19.0247641557034584
 30
0.0
 40
0.0065945536676979
 50
186.9162912019048974
 51
229.2424564872779911
  0
ARC
  5
34E2
  8
0
 10
507.7523822153813171
 20
39.7718585772638775
 30
0.0
 40
322.6029232474897981
 50
183.6867349559990998
 51
183.6963035536554116
  0
ARC
  5
34E3
  8
0
 10
185.8580366459306106
 20
18.8813324803768587
 30
0.0
 40
0.0957378242918952
 50
263.3441780502329266
 51
270.1443775600380945
  0
ARC
  5
34E4
  8
0
 10
185.8540801770452902
 20
18.8536020227133605
 30
0.0
 40
0.0677394680630944
 50
253.0539642760743106
 51
263.9495527896634144
  0
ARC
  5
34E5
  8
0
 10
185.8395145876216077
 20
18.8101302008053004
 30
0.0
 40
0.0219460975949591
 50
216.4810729313279865
 51
256.3515360863742103
  0
ARC
  5
34E6
  8
0
 10
185.8310551293679964
 20
18.8022439012188904
 30
0.0
 40
0.0105373049135615
 50
183.980107278208493
 51
209.3320460121749989
  0
ARC
  5
34E7
  8
0
 10
185.8264138163991959
 20
18.8009609762569099
 30
0.0
 40
0.0058964288053258
 50
126.8379110595452062
 51
174.6329268593752033
  0
ARC
  5
34E8
  8
0
 10
185.8388529571784034
 20
18.7849733277086912
 30
0.0
 40
0.0261524465978825
 50
102.6722043419627965
 51
127.6486149456632972
  0
ARC
  5
34E9
  8
0
 10
185.8573989773437063
 20
18.715951728879169
 30
0.0
 40
0.097605922945774
 50
89.4840255967928186
 51
104.4057895746522036
  0
ARC
  5
34EA
  8
0
 10
314.4308407765951188
 20
26.8871810321770717
 30
0.0
 40
128.8642179521856121
 50
183.5727972595146014
 51
183.5974238228976105
  0
ARC
  5
34EB
  8
0
 10
185.8582433890088055
 20
18.8301581898924191
 30
0.0
 40
0.0416142067206085
 50
244.5392649299213872
 51
270.0475047682289187
  0
ARC
  5
34EC
  8
0
 10
185.841983327989908
 20
18.7955718699119814
 30
0.0
 40
0.0034020006891781
 50
185.3261735001661918
 51
241.3796197562556927
  0
ARC
  5
34ED
  8
0
 10
185.8419562113637937
 20
18.794885578008401
 30
0.0
 40
0.0033805597690109
 50
120.2346991637033966
 51
173.7079067522080891
  0
ARC
  5
34EE
  8
0
 10
185.8503889300075116
 20
18.7822972210126515
 30
0.0
 40
0.0185269714943502
 50
98.8483711743392064
 51
123.1641152010007971
  0
ARC
  5
34EF
  8
0
 10
185.8581086102475126
 20
18.7472908537360006
 30
0.0
 40
0.0543504736716037
 50
89.8215444644187073
 51
101.2137252892052004
  0
ARC
  5
34F0
  8
0
 10
185.821474303675501
 20
18.8532294657424906
 30
0.0
 40
0.0061464984629214
 50
199.2181521070631902
 51
230.9309900722919053
  0
ARC
  5
34F1
  8
0
 10
185.8200463023142106
 20
18.8528724521081408
 30
0.0
 40
0.0046824471752132
 50
168.4791197611806979
 51
200.8449562427261128
  0
ARC
  5
34F2
  8
0
 10
185.8218078080560076
 20
18.8522899916470514
 30
0.0
 40
0.0065284651833713
 50
135.8378149230242968
 51
166.5575547844910886
  0
ARC
  5
34F3
  8
0
 10
185.8336814084217963
 20
18.8393011695240311
 30
0.0
 40
0.0241181164943395
 50
104.8243266209108953
 51
133.353172617474911
  0
ARC
  5
34F4
  8
0
 10
185.8538157400741113
 20
18.7781456285608392
 30
0.0
 40
0.0884719635200585
 50
93.8494540128100141
 51
107.2971260370942019
  0
ARC
  5
34F5
  8
0
 10
185.8572185928520071
 20
20.0852179855008508
 30
0.0
 40
1.284229278893982
 50
267.1080904393376727
 51
268.3635096902625037
  0
ARC
  5
34F6
  8
0
 10
185.830102312219708
 20
19.0002189500891099
 30
0.0
 40
0.0802354147042148
 50
268.5444299968660857
 51
290.5583673561421278
  0
ARC
  5
34F7
  8
0
 10
185.8270643511133073
 20
18.9989571125596513
 30
0.0
 40
0.0789540181132617
 50
248.1443298575904066
 51
270.7255891643355881
  0
ARC
  5
34F8
  8
0
 10
185.8034293800091064
 20
18.9395285933256901
 30
0.0
 40
0.0149995327582063
 50
199.2313060986566029
 51
247.4290619425867135
  0
ARC
  5
34F9
  8
0
 10
185.7957671075481869
 20
18.9365845394042793
 30
0.0
 40
0.0067999400423349
 50
172.8996436890739972
 51
197.0742124388208936
  0
ARC
  5
34FA
  8
0
 10
185.7978868012201872
 20
18.9346171012545916
 30
0.0
 40
0.0093014496152564
 50
113.0960066312290024
 51
162.4291788911434082
  0
ARC
  5
34FB
  8
0
 10
185.8211345988177072
 20
18.8885690151468815
 30
0.0
 40
0.0608688780028308
 50
90.3590201289016477
 51
116.2236480086255028
  0
ARC
  5
34FC
  8
0
 10
185.82902104830751
 20
18.8530730810745517
 30
0.0
 40
0.0967176517104322
 50
72.3923319264044807
 51
94.9038839173045972
  0
ARC
  5
34FD
  8
0
 10
185.8540450832718136
 20
18.9291887515870698
 30
0.0
 40
0.0166188618267029
 50
34.3350388911980104
 51
75.2442455861839505
  0
ARC
  5
34FE
  8
0
 10
185.8529790251122904
 20
18.9401145261928612
 30
0.0
 40
0.0159284105299986
 50
289.4307709757944735
 51
340.1224893391976138
  0
ARC
  5
34FF
  8
0
 10
185.8624755758825984
 20
18.9363651609699488
 30
0.0
 40
0.005730529740538
 50
343.0939054526721179
 51
22.5451073905661303
  0
ARC
  5
3500
  8
0
 10
185.8302479822312137
 20
18.9638998022674912
 30
0.0
 40
0.0390654347978623
 50
269.0791122415539007
 51
292.9709806787282105
  0
ARC
  5
3501
  8
0
 10
185.8284250612668984
 20
18.9731215237698017
 30
0.0
 40
0.0482968983602113
 50
251.2372562909501141
 51
271.4178826670848821
  0
ARC
  5
3502
  8
0
 10
185.8145288479472015
 20
18.933200093855131
 30
0.0
 40
0.0060355620845221
 50
203.5395234959815127
 51
254.2481073320197993
  0
ARC
  5
3503
  8
0
 10
185.8116148976006912
 20
18.9311870459415985
 30
0.0
 40
0.0026493423880896
 50
130.3037034410207866
 51
188.6278672861849941
  0
ARC
  5
3504
  8
0
 10
185.8181123289191987
 20
18.9237177613440686
 30
0.0
 40
0.0125490189578123
 50
103.4067481561187947
 51
130.8684434118069078
  0
ARC
  5
3505
  8
0
 10
185.8283832659004986
 20
18.8871889452925714
 30
0.0
 40
0.0504867455881449
 50
85.0322806344983064
 51
105.1335720653787007
  0
ARC
  5
3506
  8
0
 10
185.8317194083496133
 20
18.9062589672899186
 30
0.0
 40
0.0312442490727071
 50
60.5189167053895503
 51
88.1003268703678231
  0
ARC
  5
3507
  8
0
 10
185.8435489218026078
 20
18.9326636401048987
 30
0.0
 40
0.0051156334220679
 50
292.345623494422
 51
334.7521052920836837
  0
ARC
  5
3508
  8
0
 10
185.8461060834077045
 20
18.9312512173312797
 30
0.0
 40
0.002208219957242
 50
339.6040758175806218
 51
34.5221627079963014
  0
ARC
  5
3509
  8
0
 10
185.8440595905831003
 20
18.9299821535229214
 30
0.0
 40
0.0046149633355786
 50
33.1041006338783106
 51
48.8591214482244283
  0
ARC
  5
350A
  8
0
 10
185.825230813476395
 20
18.905548726034251
 30
0.0
 40
0.0953160564133728
 50
93.8420583883465866
 51
107.3615841402228028
  0
ARC
  5
350B
  8
0
 10
166.4070326780284859
 20
20.0604289929526516
 30
0.0
 40
19.4936169167136484
 50
356.6929399969354222
 51
356.7612660186999278
  0
ARC
  5
350C
  8
0
 10
185.8481681883502858
 20
19.9710456648687007
 30
0.0
 40
1.169670755486711
 50
262.1121021244391045
 51
263.6604041037037973
  0
ARC
  5
350D
  8
0
 10
185.7584773908072009
 20
18.8670263445956614
 30
0.0
 40
0.07486969332515
 50
268.3963767393811963
 51
289.9089798623227807
  0
ARC
  5
350E
  8
0
 10
185.777748467580011
 20
18.8143712140227493
 30
0.0
 40
0.0188001369989911
 50
289.3334346196182878
 51
321.3297405025065814
  0
ARC
  5
350F
  8
0
 10
185.7829745164281121
 20
18.8091858434409502
 30
0.0
 40
0.0115065369006915
 50
325.2319944206965943
 51
349.2978123538100022
  0
ARC
  5
3510
  8
0
 10
185.7902164533838061
 20
18.8079750741541005
 30
0.0
 40
0.0041686116504551
 50
347.1648658325216275
 51
23.2864162325124511
  0
ARC
  5
3511
  8
0
 10
185.7801120744071
 20
18.7998407676335404
 30
0.0
 40
0.0170244816418115
 50
35.0716544192275208
 51
78.9836748420794521
  0
ARC
  5
3512
  8
0
 10
185.7585951264098014
 20
18.7321893043211993
 30
0.0
 40
0.0879235210259323
 50
73.6368965466769794
 51
89.6069544340504649
  0
ARC
  5
3513
  8
0
 10
185.7561328132264862
 20
18.7132862741576496
 30
0.0
 40
0.1068684568900269
 50
88.3562789996309306
 51
100.6988076875607021
  0
ARC
  5
3514
  8
0
 10
185.7398176193898109
 20
18.7892086736929294
 30
0.0
 40
0.0293010755222952
 50
96.9086412387134146
 51
133.6485218962851889
  0
ARC
  5
3515
  8
0
 10
185.7227392443280962
 20
18.8084080625456984
 30
0.0
 40
0.0037294085562375
 50
147.5237525225971922
 51
178.1634672270456008
  0
ARC
  5
3516
  8
0
 10
185.7284158793430038
 20
18.8082625174076803
 30
0.0
 40
0.0094078626692332
 50
178.3854844978897916
 51
217.8919113230257096
  0
ARC
  5
3517
  8
0
 10
185.7408107547265956
 20
18.8210175051149804
 30
0.0
 40
0.0271344439953677
 50
223.0791717507325131
 51
263.7526886492004223
  0
ARC
  5
3518
  8
0
 10
185.7563027682467975
 20
18.8846550598967511
 30
0.0
 40
0.0924691198050862
 50
258.4940482849714272
 51
270.0492011634694904
  0
ARC
  5
3519
  8
0
 10
185.7569847992621987
 20
18.8349111502373994
 30
0.0
 40
0.0394345985990411
 50
268.7208575763821159
 51
292.7664378435050025
  0
ARC
  5
351A
  8
0
 10
185.7553654394577052
 20
18.8485510038663513
 30
0.0
 40
0.0530697714044261
 50
256.0696941090373002
 51
270.7979226593043904
  0
ARC
  5
351B
  8
0
 10
185.7453777507438133
 20
18.8097295875259185
 30
0.0
 40
0.012990332793351
 50
225.2764687086473998
 51
257.6048680671017905
  0
ARC
  5
351C
  8
0
 10
185.738091388661303
 20
18.801885711358949
 30
0.0
 40
0.0023153474467434
 50
159.8013141882898935
 51
216.7673818905064991
  0
ARC
  5
351D
  8
0
 10
185.7414591855541062
 20
18.7996429181314291
 30
0.0
 40
0.0063210043012182
 50
107.603593220268607
 51
151.230389357966601
  0
ARC
  5
351E
  8
0
 10
185.7526528870465086
 20
18.7721722286763999
 30
0.0
 40
0.0359682061687323
 50
94.8549821529398116
 51
111.3681758796780059
  0
ARC
  5
351F
  8
0
 10
185.7552996506252896
 20
18.7545821072448611
 30
0.0
 40
0.0537314991939891
 50
75.202870638263434
 51
96.0798080156048542
  0
ARC
  5
3520
  8
0
 10
185.7678336957200997
 20
18.7982588715822914
 30
0.0
 40
0.0083577772690786
 50
30.2942273631378214
 51
81.8223376199846228
  0
ARC
  5
3521
  8
0
 10
185.7705024692965878
 20
18.8030495335082684
 30
0.0
 40
0.0048261975015686
 50
291.165402710913213
 51
342.967607924532274
  0
ARC
  5
3522
  8
0
 10
185.7729869400548921
 20
18.8018884484389908
 30
0.0
 40
0.0021449680706071
 50
353.2377990428054204
 51
15.8664463883670699
  0
ARC
  5
3523
  8
0
 10
185.8584729546566905
 20
20.5092209602953801
 30
0.0
 40
1.6868119403791091
 50
267.8657019320477843
 51
268.6659844148763909
  0
ARC
  5
3524
  8
0
 10
6.6625327960650793
 20
33.3697061203437428
 30
0.0
 40
179.7227434365871943
 50
355.3526121236004087
 51
355.3605744897679983
  0
ARC
  5
3525
  8
0
 10
185.65134249007221
 20
18.8354692142133509
 30
0.0
 40
0.0217692331527697
 50
221.5926021783747046
 51
255.1874373655097088
  0
ARC
  5
3526
  8
0
 10
185.6708307157936986
 20
18.90044736440937
 30
0.0
 40
0.0895980193205214
 50
253.7622734564411076
 51
280.8184441592518965
  0
ARC
  5
3527
  8
0
 10
185.6781113215193955
 20
18.864896970906841
 30
0.0
 40
0.0533150628182352
 50
280.3042254051810005
 51
292.4231528085254013
  0
ARC
  5
3528
  8
0
 10
185.6926961471621951
 20
18.8314464236238912
 30
0.0
 40
0.0168458565102428
 50
289.9647508623503995
 51
331.0869371884452903
  0
ARC
  5
3529
  8
0
 10
185.6969382776298119
 20
18.8277910989034005
 30
0.0
 40
0.0114231097617596
 50
336.8583699164075824
 51
358.7818943018135087
  0
ARC
  5
352A
  8
0
 10
184.6713402595034097
 20
18.9408209784682917
 30
0.0
 40
1.0431865479749109
 50
353.7663402157197083
 51
355.632704854879421
  0
ARC
  5
352B
  8
0
 10
185.6726260096532997
 20
18.7568095097796714
 30
0.0
 40
0.0821536302086449
 50
70.6389248801746987
 51
91.1989961134687093
  0
ARC
  5
352C
  8
0
 10
185.6922726781126869
 20
18.8141690649683184
 30
0.0
 40
0.0215299549816769
 50
48.7880550984887407
 51
69.3607912287414052
  0
ARC
  5
352D
  8
0
 10
185.7025809490390031
 20
18.8261771964567686
 30
0.0
 40
0.0057070960574313
 50
2.6871660683713738
 51
47.2133579315413172
  0
ARC
  5
352E
  8
0
 10
185.6684181479753022
 20
18.7537876645094705
 30
0.0
 40
0.0851938489931077
 50
88.3259553013287331
 51
109.3952185840838069
  0
ARC
  5
352F
  8
0
 10
185.6425365942635892
 20
18.8243993437979817
 30
0.0
 40
0.0100409189510399
 50
103.8865701270157018
 51
165.6002522486483883
  0
ARC
  5
3530
  8
0
 10
185.643546566780401
 20
18.8276365854517991
 30
0.0
 40
0.0107609370023146
 50
183.9443029252296924
 51
217.9550095422225979
  0
ARC
  5
3531
  8
0
 10
190.8560817803387124
 20
18.9959059361063396
 30
0.0
 40
5.2260042710306651
 50
181.7140454112195869
 51
181.8532750374538125
  0
ARC
  5
3532
  8
0
 10
185.6672447731037892
 20
18.782890911366291
 30
0.0
 40
0.0443710571897783
 50
89.4807561609980269
 51
108.2748744479729055
  0
ARC
  5
3533
  8
0
 10
185.6695877903950986
 20
18.8554695644688692
 30
0.0
 40
0.0410471865076184
 50
268.0585237860311167
 51
291.3403008787381054
  0
ARC
  5
3534
  8
0
 10
185.6675971159548055
 20
18.8599440160090097
 30
0.0
 40
0.0455020317443085
 50
250.7214954237664983
 51
270.7556004073463782
  0
ARC
  5
3535
  8
0
 10
185.6550147273439109
 20
18.8240648022361583
 30
0.0
 40
0.0074806080210069
 50
214.3551634328181024
 51
250.958458929231
  0
ARC
  5
3536
  8
0
 10
185.6508008401241057
 20
18.8208558868901186
 30
0.0
 40
0.002207667140129
 50
149.9266372715713089
 51
207.3001273669451052
  0
ARC
  5
3537
  8
0
 10
185.6557559688710057
 20
18.8167559441660792
 30
0.0
 40
0.0086163425009736
 50
106.3455749054349013
 51
142.8267897859057882
  0
ARC
  5
3538
  8
0
 10
185.6695744168769977
 20
18.7884100231285309
 30
0.0
 40
0.0388979109965556
 50
65.2694497136590286
 51
92.8403818917075938
  0
ARC
  5
3539
  8
0
 10
185.6841850561457932
 20
18.8203639660591797
 30
0.0
 40
0.0037634936538023
 50
3.1345512542505301
 51
63.7872213425852692
  0
ARC
  5
353A
  8
0
 10
185.6828935333134893
 20
18.8224674768673204
 30
0.0
 40
0.0054792808068572
 50
287.3240270129526266
 51
333.2808911377293839
  0
ARC
  5
353B
  8
0
 10
185.6856710294430002
 20
18.8208885691767911
 30
0.0
 40
0.0022941498961828
 50
337.3177748713474102
 51
352.0119103107415981
  0
ARC
  5
353C
  8
0
 10
185.6369850992234092
 20
18.0273477826684392
 30
0.0
 40
0.80512557675326
 50
84.2124395282530855
 51
84.9006394044479151
  0
ARC
  5
353D
  8
0
 10
185.9913836960585058
 20
18.8299633791909002
 30
0.0
 40
0.2732141459431558
 50
180.3342895479675008
 51
184.4999287996174928
  0
ARC
  5
353E
  8
0
 10
188.4217579473464923
 20
18.9791358997618609
 30
0.0
 40
2.7077842666663421
 50
182.4908287461616112
 51
183.1918190941464957
  0
ARC
  5
353F
  8
0
 10
185.7212397557412942
 20
18.8598118618729096
 30
0.0
 40
0.0065516632533141
 50
179.0059020702323096
 51
227.5984800720721069
  0
ARC
  5
3540
  8
0
 10
185.7201520013973948
 20
18.8591898874880499
 30
0.0
 40
0.0055122313573833
 50
156.4025656994778899
 51
172.3306365432783025
  0
ARC
  5
3541
  8
0
 10
185.8582778919517864
 20
18.0346194041849586
 30
0.0
 40
1.132369741396932
 50
89.9999999999967457
 51
92.4410019986026441
  0
ARC
  5
3542
  8
0
 10
185.8094979546658863
 20
19.1755342396769386
 30
0.0
 40
0.0095884768949039
 50
215.3281353178053052
 51
273.2978419243510189
  0
ARC
  5
3543
  8
0
 10
185.8089008564267886
 20
19.17482412987437
 30
0.0
 40
0.0086938567058252
 50
180.1402090093141908
 51
213.7853482404528052
  0
LINE
  5
3544
  8
0
 10
185.8002070257518881
 20
19.1748028550819214
 30
0.0
 11
185.8002070257518881
 21
19.1832477702818913
 31
0.0
  0
ARC
  5
3545
  8
0
 10
184.4910666331188054
 20
46.6920429681050209
 30
0.0
 40
27.5399285003320387
 50
272.6913344106176851
 51
272.745144201603523
  0
ARC
  5
3546
  8
0
 10
185.8437998847659003
 20
18.0946065905783691
 30
0.0
 40
1.089515334684642
 50
93.1350696911672031
 51
100.7329977390396039
  0
ARC
  5
3547
  8
0
 10
185.7789694989974123
 20
18.4400171916917515
 30
0.0
 40
0.7380741937370102
 50
100.7819389875489975
 51
104.484665611071307
  0
LINE
  5
3548
  8
0
 10
185.4880303555518992
 20
18.9790927828818887
 30
0.0
 11
185.4881991517518998
 21
19.0465032806818897
 31
0.0
  0
ARC
  5
3549
  8
0
 10
185.528044882591189
 20
19.0464773449824492
 30
0.0
 40
0.0398457392801607
 50
168.3761282094856995
 51
179.9627060195483068
  0
ARC
  5
354A
  8
0
 10
185.532566189782699
 20
19.0454811667515891
 30
0.0
 40
0.0444750838948913
 50
157.9123435487327924
 51
168.2926900464530888
  0
ARC
  5
354B
  8
0
 10
185.450796701008187
 20
19.0731728279156805
 30
0.0
 40
0.0420152726234548
 50
344.8678422786975943
 51
2.1043221970189121
  0
ARC
  5
354C
  8
0
 10
185.824591607522791
 20
19.0821606188318817
 30
0.0
 40
0.3318914822449965
 50
178.7146266259966012
 51
181.2853733739999029
  0
ARC
  5
354D
  8
0
 10
185.5857509050555052
 20
19.0330156176316407
 30
0.0
 40
0.1088363168249622
 50
118.2064885293187046
 51
148.6707408928114091
  0
ARC
  5
354E
  8
0
 10
185.7611146227961001
 20
19.7697934003629712
 30
0.0
 40
0.679815845361232
 50
249.716470323631313
 51
253.0413591312982931
  0
ARC
  5
354F
  8
0
 10
185.5631047123077053
 20
19.12353158698334
 30
0.0
 40
0.0040024011062214
 50
265.9931504423017259
 51
293.8293832194128186
  0
ARC
  5
3550
  8
0
 10
185.7440223562352912
 20
18.684989597505119
 30
0.0
 40
0.4703934587487443
 50
103.6609276199436067
 51
112.4062716620087059
  0
ARC
  5
3551
  8
0
 10
185.629597758666506
 20
19.1528820391602892
 30
0.0
 40
0.0113074224306516
 50
287.1229302961440908
 51
2.215210282779573
  0
LINE
  5
3552
  8
0
 10
185.6408967309531874
 20
19.1650616221821402
 30
0.0
 11
185.6408967309519085
 21
19.1533191058818986
 31
0.0
  0
LINE
  5
3553
  8
0
 10
185.6408967309519085
 20
19.1533191058818808
 30
0.0
 11
185.6188694418488012
 21
19.160518050234991
 31
0.0
  0
LINE
  5
3554
  8
0
 10
185.5943617289518954
 20
19.154631413981889
 30
0.0
 11
185.6329269218302045
 21
19.1420758152889583
 31
0.0
  0
LINE
  5
3555
  8
0
 10
185.5394607561518967
 20
19.1376111671818911
 30
0.0
 11
185.5784351456518948
 21
19.1502999871818886
 31
0.0
  0
LINE
  5
3556
  8
0
 10
185.5784351456518948
 20
19.1502999871818886
 30
0.0
 11
185.6035480015518999
 21
19.1421240410818889
 31
0.0
  0
LINE
  5
3557
  8
0
 10
185.6035480015518999
 20
19.1421240410818889
 30
0.0
 11
185.5645736120519018
 21
19.1294352209818896
 31
0.0
  0
LINE
  5
3558
  8
0
 10
185.5645736120519018
 20
19.1294352209818896
 30
0.0
 11
185.5394607561518967
 21
19.1376111671818911
 31
0.0
  0
LINE
  5
3559
  8
0
 10
185.5645736120519018
 20
19.1294352209818896
 30
0.0
 11
185.5645736120519018
 21
19.1457871132913517
 31
0.0
  0
ARC
  5
355A
  8
0
 10
185.5035494540734931
 20
18.9630806507700207
 30
0.0
 40
0.0240032842947377
 50
244.1440732816143111
 51
256.1118779588730945
  0
ARC
  5
355B
  8
0
 10
185.5856630793142017
 20
19.1921061419078995
 30
0.0
 40
0.2671791656908411
 50
228.2076448351945999
 51
249.7256722884272904
  0
ARC
  5
355C
  8
0
 10
185.452928135063388
 20
19.0424944806009186
 30
0.0
 40
0.0671791275010306
 50
182.9319719254482095
 51
227.5734051872485963
  0
ARC
  5
355D
  8
0
 10
185.4629506653996884
 20
19.0320461614591885
 30
0.0
 40
0.0774318731488881
 50
123.756038503149199
 51
174.8042792183912866
  0
ARC
  5
355E
  8
0
 10
185.6532308212574094
 20
18.7631378448354695
 30
0.0
 40
0.4068306383846772
 50
100.4563300132982988
 51
124.992661966442995
  0
ARC
  5
355F
  8
0
 10
185.8393751411819892
 20
18.0147005573294905
 30
0.0
 40
1.177568833415608
 50
92.5917196334325894
 51
102.7545887907820941
  0
ARC
  5
3560
  8
0
 10
185.8582388830305092
 20
17.7515793116427787
 30
0.0
 40
1.4412906684442619
 50
89.9984492742482445
 51
92.8678643611753216
  0
ARC
  5
3561
  8
0
 10
185.5377594993233004
 20
19.0795635822056404
 30
0.0
 40
0.1121042784955295
 50
205.7833379176080939
 51
243.6663772524956073
  0
LINE
  5
3562
  8
0
 10
185.4368157284064864
 20
19.0308016670455089
 30
0.0
 11
185.4881598348383136
 21
19.0308016670455089
 31
0.0
  0
ARC
  5
3563
  8
0
 10
185.8582277129114004
 20
17.8293737535604393
 30
0.0
 40
1.3623852094991691
 50
89.9978896957908745
 51
91.5161222194304145
  0
ARC
  5
3564
  8
0
 10
185.8571468800971047
 20
17.8596471983923202
 30
0.0
 40
1.332093795193811
 50
91.5041015982255743
 51
93.7160339912796587
  0
ARC
  5
3565
  8
0
 10
185.8517145785046978
 20
17.9404541972971892
 30
0.0
 40
1.251104628873835
 50
93.7076234381824662
 51
96.0181467018768871
  0
ARC
  5
3566
  8
0
 10
185.8353616855386008
 20
18.0885076061680614
 30
0.0
 40
1.102152935995885
 50
95.9796599441396978
 51
99.5994738040662639
  0
ARC
  5
3567
  8
0
 10
185.7996072751458883
 20
18.2995278140517605
 30
0.0
 40
0.8881251319626059
 50
99.5953387055121055
 51
103.7000830384461949
  0
ARC
  5
3568
  8
0
 10
185.7030973425088121
 20
18.6699039180525794
 30
0.0
 40
0.5054654527408581
 50
103.0149192675904004
 51
116.4050138733480964
  0
ARC
  5
3569
  8
0
 10
185.5416390256563943
 20
18.987378866567461
 30
0.0
 40
0.1493484149904497
 50
115.0896265316813043
 51
143.6660791686886114
  0
ARC
  5
356A
  8
0
 10
185.4638626213948953
 20
19.0464906370586498
 30
0.0
 40
0.0516932024264371
 50
145.3703151329216894
 51
188.3885543255568962
  0
ARC
  5
356B
  8
0
 10
185.507326041495503
 20
19.0668151548365188
 30
0.0
 40
0.0986222121396045
 50
196.4125136139620906
 51
243.0078393569253024
  0
ARC
  5
356C
  8
0
 10
185.6819811307136092
 20
19.3626936944832515
 30
0.0
 40
0.4420561298116025
 50
240.2408831415891939
 51
244.1221708931323064
  0
ARC
  5
356D
  8
0
 10
185.8582778919517864
 20
17.9805818620869289
 30
0.0
 40
1.192495736994958
 50
89.9999999999967457
 51
91.3242463564572233
  0
LINE
  5
356E
  8
0
 10
185.8307188368343077
 20
19.1727591061375691
 30
0.0
 11
185.8307188368343077
 21
19.1843216401029117
 31
0.0
  0
ARC
  5
356F
  8
0
 10
185.8590126020540083
 20
17.8137589518771016
 30
0.0
 40
1.3708547039888881
 50
90.030707696379892
 51
91.182640615453991
  0
LINE
  5
3570
  8
0
 10
185.8100495454519034
 20
19.1837179394818911
 30
0.0
 11
185.8100495454519034
 21
19.1659616414523697
 31
0.0
  0
ARC
  5
3571
  8
0
 10
185.5129664372977913
 20
19.0314749539788615
 30
0.0
 40
0.0821173532273102
 50
127.4288650152716968
 51
158.0238993211787033
  0
ARC
  5
3572
  8
0
 10
185.6156134282688868
 20
18.9008188416235399
 30
0.0
 40
0.2482677709611471
 50
111.2961093144587039
 51
127.9142529203501937
  0
LINE
  5
3573
  8
0
 10
185.4368157284519043
 20
19.0622048944818907
 30
0.0
 11
185.4913551473514985
 21
19.0622048944818907
 31
0.0
  0
ARC
  5
3574
  8
0
 10
185.5990832456409976
 20
19.0157044816139695
 30
0.0
 40
0.1377617898172306
 50
122.3119807043524929
 51
147.5582647769431901
  0
LINE
  5
3575
  8
0
 10
185.4828209194519104
 20
19.0896056471994093
 30
0.0
 11
185.4927836396853138
 21
19.0896056470503908
 31
0.0
  0
LINE
  5
3576
  8
0
 10
185.4828209194519104
 20
19.0896056469818909
 30
0.0
 11
185.4828209194519104
 21
19.1105878471989712
 31
0.0
  0
ARC
  5
3577
  8
0
 10
185.6537178853440935
 20
19.006239718810491
 30
0.0
 40
0.1690809262294628
 50
261.7568418149322724
 51
262.7733839532700131
  0
LINE
  5
3578
  8
0
 10
185.4431539306181094
 20
19.0747123638475102
 30
0.0
 11
185.4927837580941059
 21
19.0747123638475102
 31
0.0
  0
ARC
  5
3579
  8
0
 10
185.7040542183476077
 20
19.3926408990093684
 30
0.0
 40
0.5280558801515167
 50
251.7888573364409979
 51
253.7536006705506963
  0
ARC
  5
357A
  8
0
 10
185.7648325401513887
 20
19.5907209253250301
 30
0.0
 40
0.7352205793737809
 50
246.014018004385207
 51
252.1138186916961956
  0
ARC
  5
357B
  8
0
 10
185.950566333932187
 20
19.974543608731981
 30
0.0
 40
1.161481854752056
 50
238.587431969796512
 51
245.3398707502927039
  0
ARC
  5
357C
  8
0
 10
185.4101764667207988
 20
19.0767934109331101
 30
0.0
 40
0.1138578353148451
 50
201.368005431867914
 51
235.2057579997110111
  0
ARC
  5
357D
  8
0
 10
185.361654649404187
 20
19.0539682796534393
 30
0.0
 40
0.0604608399969064
 50
157.1394301325209142
 51
197.9764063967905088
  0
ARC
  5
357E
  8
0
 10
185.3653306001170051
 20
19.045561655379359
 30
0.0
 40
0.0674106941473054
 50
119.2730180023250028
 51
151.7613431290438086
  0
ARC
  5
357F
  8
0
 10
185.5265762860875043
 20
18.7712974112712701
 30
0.0
 40
0.3855514676772835
 50
101.9106150883012987
 51
120.2460111249339008
  0
ARC
  5
3580
  8
0
 10
185.8208102846614054
 20
17.5925811337119917
 30
0.0
 40
1.6002389693330259
 50
95.5789624328975265
 51
103.5087582662666961
  0
ARC
  5
3581
  8
0
 10
185.8689183461158905
 20
17.3044277760199705
 30
0.0
 40
1.891808652214922
 50
90.322261096233234
 51
96.180659433700626
  0
ARC
  5
3582
  8
0
 10
177.873665542500305
 20
34.591093950034761
 30
0.0
 40
17.1983372264354486
 50
295.9756098210007167
 51
296.1065773771600789
  0
ARC
  5
3583
  8
0
 10
185.4920419138416037
 20
18.95263768945577
 30
0.0
 40
0.1970936245510836
 50
115.7745477997832069
 51
138.6554753154036064
  0
ARC
  5
3584
  8
0
 10
185.4098891120555095
 20
19.0289102534548107
 30
0.0
 40
0.085085441935165
 50
140.6711982626135864
 51
158.509712940794202
  0
LINE
  5
3585
  8
0
 10
185.3307188368519007
 20
18.9952453164232011
 30
0.0
 11
185.3307188368519007
 21
19.1034082415283883
 31
0.0
  0
LINE
  5
3586
  8
0
 10
185.3307188368519007
 20
19.0493267789758001
 30
0.0
 11
185.3711059770519114
 21
19.049312367681889
 31
0.0
  0
LINE
  5
3587
  8
0
 10
185.37110597698981
 20
19.0288041374818917
 30
0.0
 11
185.371105976989611
 21
19.028736075112981
 31
0.0
  0
LINE
  5
3588
  8
0
 10
185.371105976989611
 20
19.028736075112981
 30
0.0
 11
185.3307188368519007
 21
19.028736075112981
 31
0.0
  0
ARC
  5
3589
  8
0
 10
185.4217849596095959
 20
19.0390242212441514
 30
0.0
 40
0.0517127182635651
 50
168.524547156121514
 51
191.4754524972805996
  0
ARC
  5
358A
  8
0
 10
185.4902638583000112
 20
19.0659311839738699
 30
0.0
 40
0.0868685420947158
 50
199.0920198091218936
 51
233.4602565234025064
  0
ARC
  5
358B
  8
0
 10
185.466094736690394
 20
19.0553894590835888
 30
0.0
 40
0.0606156968042497
 50
132.8342187010836994
 51
197.1477965082198125
  0
LINE
  5
358C
  8
0
 10
185.4349614297524056
 20
19.0555356003140517
 30
0.0
 11
185.4704763711519035
 21
19.0555356003140517
 31
0.0
  0
LINE
  5
358D
  8
0
 10
185.4704763711519035
 20
19.0375309299818909
 30
0.0
 11
185.4349614297659912
 21
19.0375309299818909
 31
0.0
  0
ARC
  5
358E
  8
0
 10
185.4797293285724891
 20
19.0465332651817789
 30
0.0
 40
0.0456640646745408
 50
168.6300809716287006
 51
191.3699191149044054
  0
ARC
  5
358F
  8
0
 10
185.5114191553871024
 20
19.0465332651479713
 30
0.0
 40
0.041920801750201
 50
167.5993589486307087
 51
192.4006410513667902
  0
ARC
  5
3590
  8
0
 10
186.4514120271828119
 20
18.9725629999349188
 30
0.0
 40
0.6634277538242178
 50
181.2214142806820973
 51
183.1219563266961075
  0
ARC
  5
3591
  8
0
 10
-64.182318008952592
 20
39.6179305626911926
 30
0.0
 40
250.8282203606642895
 50
355.2775220136658163
 51
355.2899154662002275
  0
ARC
  5
3592
  8
0
 10
185.7528502225532065
 20
18.912674273703999
 30
0.0
 40
0.0677528540098956
 50
86.9555307607775205
 51
116.4476615815015066
  0
ARC
  5
3593
  8
0
 10
185.7592376169241959
 20
18.9093628030558598
 30
0.0
 40
0.0710234794679802
 50
63.2726731264579101
 51
92.2504868407892928
  0
ARC
  5
3594
  8
0
 10
185.7594952069005956
 20
19.0174431783574285
 30
0.0
 40
0.0656034956839314
 50
268.1745292508081775
 51
295.884546520110689
  0
ARC
  5
3595
  8
0
 10
185.7553711352522043
 20
19.0254176312861496
 30
0.0
 40
0.07357278353501
 50
246.7544567072039001
 51
271.5844140704692791
  0
ARC
  5
3596
  8
0
 10
185.7313131059322018
 20
18.9692466386666716
 30
0.0
 40
0.0124667695769555
 50
187.0087356082877932
 51
246.4598812040190978
  0
ARC
  5
3597
  8
0
 10
185.7254520966345126
 20
18.9674386884713684
 30
0.0
 40
0.0065189126800501
 50
115.2197262034103034
 51
177.4789241633114898
  0
ARC
  5
3598
  8
0
 10
185.7820330111543115
 20
18.9693357880004605
 30
0.0
 40
0.012504403638698
 50
299.2084403658320753
 51
350.9509717273040792
  0
ARC
  5
3599
  8
0
 10
185.7875803299650102
 20
18.9670163929754416
 30
0.0
 40
0.0068105956470966
 50
2.9685666632636201
 51
58.0924246512958504
  0
ARC
  5
359A
  8
0
 10
185.7633715915301025
 20
18.9666749003086217
 30
0.0
 40
0.0652499155954003
 50
57.0695490484955172
 51
95.0172338820893003
  0
ARC
  5
359B
  8
0
 10
185.7952711796041001
 20
19.0176417199221213
 30
0.0
 40
0.0052146246316665
 50
358.2000006519717772
 51
46.7705356089893627
  0
ARC
  5
359C
  8
0
 10
185.7939655955570117
 20
19.0182385095847799
 30
0.0
 40
0.006561864289348
 50
309.7695013110641185
 51
353.3438915281511186
  0
ARC
  5
359D
  8
0
 10
185.7569962716912926
 20
18.917577318291471
 30
0.0
 40
0.1140994489838105
 50
89.6641239086264505
 51
103.1284561040057071
  0
ARC
  5
359E
  8
0
 10
185.7366927612293068
 20
18.9992839551065593
 30
0.0
 40
0.029941355615215
 50
100.803931569520401
 51
135.1500036713422048
  0
ARC
  5
359F
  8
0
 10
185.7195312464556025
 20
19.0177227556065809
 30
0.0
 40
0.0048680148072182
 50
146.6326259140487878
 51
201.7090385565273039
  0
ARC
  5
35A0
  8
0
 10
185.7220933218434027
 20
19.0189361059922284
 30
0.0
 40
0.0076992782289175
 50
203.0456755792527872
 51
227.0225980568845046
  0
ARC
  5
35A1
  8
0
 10
216.4545860701682045
 20
20.4027856699060806
 30
0.0
 40
30.7691301203046983
 50
182.573216901896501
 51
182.6732225762521864
  0
ARC
  5
35A2
  8
0
 10
185.7567990501545125
 20
18.9961636519629202
 30
0.0
 40
0.0390654347978623
 50
269.0791122415539007
 51
292.9709806787282105
  0
ARC
  5
35A3
  8
0
 10
185.754976129190112
 20
19.0053853734652307
 30
0.0
 40
0.0482968983602113
 50
251.2372562909501141
 51
271.4178826670848821
  0
ARC
  5
35A4
  8
0
 10
185.7410799158703867
 20
18.9654639435505601
 30
0.0
 40
0.0060355620845221
 50
203.5395234959815127
 51
254.2481073320197993
  0
ARC
  5
35A5
  8
0
 10
185.7381659655239048
 20
18.9634508956370382
 30
0.0
 40
0.0026493423880896
 50
130.3037034410207866
 51
188.6278672861849088
  0
ARC
  5
35A6
  8
0
 10
185.7446633968424123
 20
18.9559816110395012
 30
0.0
 40
0.0125490189578123
 50
103.4067481561187947
 51
130.8684434118069078
  0
ARC
  5
35A7
  8
0
 10
185.7549343338237122
 20
18.9194527949880005
 30
0.0
 40
0.0504867455881449
 50
85.0322806344983064
 51
105.1335720653787007
  0
ARC
  5
35A8
  8
0
 10
185.7582704762727985
 20
18.9385228169853512
 30
0.0
 40
0.0312442490727071
 50
60.5189167053895503
 51
88.1003268703678231
  0
ARC
  5
35A9
  8
0
 10
185.770099989725793
 20
18.9649274898003313
 30
0.0
 40
0.0051156334220679
 50
292.345623494422
 51
334.7521052920836837
  0
ARC
  5
35AA
  8
0
 10
185.7726571513308897
 20
18.9635150670267087
 30
0.0
 40
0.002208219957242
 50
339.6040758175806218
 51
34.5221627079963014
  0
ARC
  5
35AB
  8
0
 10
185.7706106585063139
 20
18.9622460032183504
 30
0.0
 40
0.0046149633355786
 50
33.1041006338783106
 51
48.8591214482244283
  0
ARC
  5
35AC
  8
0
 10
185.775059899130099
 20
18.874204341950751
 30
0.0
 40
0.0390654347978623
 50
269.0791122415539007
 51
292.9709806787282105
  0
ARC
  5
35AD
  8
0
 10
185.7732369781656985
 20
18.8834260634530509
 30
0.0
 40
0.0482968983602113
 50
251.2372562909501141
 51
271.4178826670848821
  0
ARC
  5
35AE
  8
0
 10
185.7593407648460015
 20
18.8435046335383802
 30
0.0
 40
0.0060355620845221
 50
203.5395234959815127
 51
254.2481073320197993
  0
ARC
  5
35AF
  8
0
 10
185.7564268144994912
 20
18.8414915856248584
 30
0.0
 40
0.0026493423880896
 50
130.3037034410207866
 51
188.6278672861849088
  0
ARC
  5
35B0
  8
0
 10
185.7629242458179988
 20
18.8340223010273213
 30
0.0
 40
0.0125490189578123
 50
103.4067481561187947
 51
130.8684434118069078
  0
ARC
  5
35B1
  8
0
 10
185.7731951827992987
 20
18.7974934849758313
 30
0.0
 40
0.0504867455881449
 50
85.0322806344983064
 51
105.1335720653787007
  0
ARC
  5
35B2
  8
0
 10
185.7765313252484134
 20
18.8165635069731714
 30
0.0
 40
0.0312442490727071
 50
60.5189167053895503
 51
88.1003268703678231
  0
ARC
  5
35B3
  8
0
 10
185.7883608387014078
 20
18.8429681797881514
 30
0.0
 40
0.0051156334220679
 50
292.345623494422
 51
334.7521052920836837
  0
ARC
  5
35B4
  8
0
 10
185.7909180003065046
 20
18.8415557570145289
 30
0.0
 40
0.002208219957242
 50
339.6040758175806218
 51
34.5221627079963014
  0
ARC
  5
35B5
  8
0
 10
185.7888715074819004
 20
18.8402866932061706
 30
0.0
 40
0.0046149633355786
 50
33.1041006338783106
 51
48.8591214482244283
  0
ARC
  5
35B6
  8
0
 10
-64.2672744354025838
 20
39.5991235582911969
 30
0.0
 40
250.8282203606642895
 50
355.2775220136658163
 51
355.2899154662002275
  0
ARC
  5
35B7
  8
0
 10
185.6678937961031863
 20
18.8938672693039891
 30
0.0
 40
0.0677528540098956
 50
86.9555307607775205
 51
116.4476615815015066
  0
ARC
  5
35B8
  8
0
 10
185.6742811904742041
 20
18.8905557986558712
 30
0.0
 40
0.0710234794679802
 50
63.2726731264579101
 51
92.2504868407892928
  0
ARC
  5
35B9
  8
0
 10
185.6745387804506038
 20
18.9986361739574292
 30
0.0
 40
0.0656034956839314
 50
268.1745292508081775
 51
295.884546520110689
  0
ARC
  5
35BA
  8
0
 10
185.6704147088020989
 20
19.0066106268861503
 30
0.0
 40
0.07357278353501
 50
246.7544567072039001
 51
271.5844140704692791
  0
ARC
  5
35BB
  8
0
 10
185.64635667948221
 20
18.9504396342666688
 30
0.0
 40
0.0124667695769555
 50
187.0087356082877079
 51
246.4598812040190978
  0
ARC
  5
35BC
  8
0
 10
185.6404956701844924
 20
18.9486316840713691
 30
0.0
 40
0.0065189126800501
 50
115.2197262034103034
 51
177.4789241633114898
  0
ARC
  5
35BD
  8
0
 10
185.6970765847042912
 20
18.9505287836004506
 30
0.0
 40
0.012504403638698
 50
299.2084403658320753
 51
350.9509717273040792
  0
ARC
  5
35BE
  8
0
 10
185.7026239035151036
 20
18.9482093885754388
 30
0.0
 40
0.0068105956470966
 50
2.9685666632636201
 51
58.0924246512958504
  0
ARC
  5
35BF
  8
0
 10
185.6784151650801107
 20
18.9478678959086189
 30
0.0
 40
0.0652499155954003
 50
57.0695490484955172
 51
95.0172338820893003
  0
ARC
  5
35C0
  8
0
 10
185.7103147531541083
 20
18.9988347155221184
 30
0.0
 40
0.0052146246316665
 50
358.2000006519717772
 51
46.7705356089893627
  0
ARC
  5
35C1
  8
0
 10
185.7090091691069915
 20
18.9994315051847806
 30
0.0
 40
0.006561864289348
 50
309.7695013110641185
 51
353.3438915281511186
  0
ARC
  5
35C2
  8
0
 10
185.672039845241386
 20
18.8987703138914718
 30
0.0
 40
0.1140994489838105
 50
89.6641239086264505
 51
103.1284561040057071
  0
ARC
  5
35C3
  8
0
 10
185.6517363347792866
 20
18.98047695070656
 30
0.0
 40
0.029941355615215
 50
100.803931569520401
 51
135.1500036713422048
  0
ARC
  5
35C4
  8
0
 10
185.6345748200056107
 20
18.9989157512065816
 30
0.0
 40
0.0048680148072182
 50
146.6326259140487878
 51
201.7090385565273039
  0
ARC
  5
35C5
  8
0
 10
185.6371368953934109
 20
19.0001291015922291
 30
0.0
 40
0.0076992782289175
 50
203.0456755792527019
 51
227.0225980568845046
  0
ARC
  5
35C6
  8
0
 10
216.369629643718298
 20
20.3839786655060813
 30
0.0
 40
30.7691301203046983
 50
182.5732169018963873
 51
182.6732225762521864
  0
ARC
  5
35C7
  8
0
 10
185.6718426237044071
 20
18.9773566475629316
 30
0.0
 40
0.0390654347978623
 50
269.0791122415539007
 51
292.9709806787282105
  0
ARC
  5
35C8
  8
0
 10
185.6700197027400918
 20
18.9865783690652314
 30
0.0
 40
0.0482968983602113
 50
251.2372562909501141
 51
271.4178826670848821
  0
ARC
  5
35C9
  8
0
 10
185.6561234894203949
 20
18.9466569391505608
 30
0.0
 40
0.0060355620845221
 50
203.5395234959815127
 51
254.2481073320197993
  0
ARC
  5
35CA
  8
0
 10
185.653209539073913
 20
18.9446438912370283
 30
0.0
 40
0.0026493423880896
 50
130.3037034410207866
 51
188.6278672861849088
  0
ARC
  5
35CB
  8
0
 10
185.6597069703923921
 20
18.9371746066394984
 30
0.0
 40
0.0125490189578123
 50
103.4067481561187947
 51
130.8684434118069078
  0
ARC
  5
35CC
  8
0
 10
185.669977907373692
 20
18.9006457905880012
 30
0.0
 40
0.0504867455881449
 50
85.0322806344983064
 51
105.1335720653787007
  0
ARC
  5
35CD
  8
0
 10
185.6733140498228067
 20
18.9197158125853484
 30
0.0
 40
0.0312442490727071
 50
60.5189167053895503
 51
88.1003268703678231
  0
ARC
  5
35CE
  8
0
 10
185.6851435632758012
 20
18.9461204854003284
 30
0.0
 40
0.0051156334220679
 50
292.345623494422
 51
334.7521052920836837
  0
ARC
  5
35CF
  8
0
 10
185.687700724880898
 20
18.9447080626267095
 30
0.0
 40
0.002208219957242
 50
339.6040758175806218
 51
34.5221627079963014
  0
ARC
  5
35D0
  8
0
 10
185.6856542320562937
 20
18.9434389988183511
 30
0.0
 40
0.0046149633355786
 50
33.1041006338783106
 51
48.8591214482244283
  0
ARC
  5
35D1
  8
0
 10
-64.3260491454025782
 20
39.5710820945911905
 30
0.0
 40
250.8282203606642895
 50
355.2775220136658163
 51
355.2809348762045261
  0
ARC
  5
35D2
  8
0
 10
185.6091190861031919
 20
18.8658258056040005
 30
0.0
 40
0.0677528540098956
 50
86.9555307607775205
 51
116.4476615815015066
  0
ARC
  5
35D3
  8
0
 10
185.6155064804742096
 20
18.8625143349558613
 30
0.0
 40
0.0710234794679802
 50
63.2726731264579101
 51
92.2504868407892928
  0
ARC
  5
35D4
  8
0
 10
185.6157640704506093
 20
18.9705947102574299
 30
0.0
 40
0.0656034956839314
 50
268.1745292508081775
 51
295.884546520110689
  0
ARC
  5
35D5
  8
0
 10
185.6116399988021044
 20
18.9785691631861511
 30
0.0
 40
0.07357278353501
 50
246.7544567072039001
 51
271.5844140704692791
  0
ARC
  5
35D6
  8
0
 10
185.5875819694821871
 20
18.9223981705666695
 30
0.0
 40
0.0124667695769555
 50
187.0087356082877079
 51
246.4598812040190978
  0
ARC
  5
35D7
  8
0
 10
185.5817209601844979
 20
18.9205902203713698
 30
0.0
 40
0.0065189126800501
 50
115.2197262034103034
 51
177.4789241633114898
  0
ARC
  5
35D8
  8
0
 10
185.6383018747042968
 20
18.9224873199004584
 30
0.0
 40
0.012504403638698
 50
299.2084403658320753
 51
350.9509717273040792
  0
ARC
  5
35D9
  8
0
 10
185.6438491935151092
 20
18.9201679248754395
 30
0.0
 40
0.0068105956470966
 50
2.9685666632636201
 51
58.0924246512958504
  0
ARC
  5
35DA
  8
0
 10
185.6196404550802015
 20
18.9198264322086196
 30
0.0
 40
0.0652499155954003
 50
78.7471482610651066
 51
95.0172338820893003
  0
ARC
  5
35DB
  8
0
 10
185.6132651352413916
 20
18.870728850191469
 30
0.0
 40
0.1140994489838105
 50
89.6641239086264505
 51
103.1284561040057071
  0
ARC
  5
35DC
  8
0
 10
185.5929616247792922
 20
18.9524354870065608
 30
0.0
 40
0.029941355615215
 50
100.803931569520401
 51
135.1500036713422048
  0
ARC
  5
35DD
  8
0
 10
185.5758001100055878
 20
18.9708742875065788
 30
0.0
 40
0.0048680148072182
 50
146.6326259140487878
 51
201.7090385565273039
  0
ARC
  5
35DE
  8
0
 10
185.578362185393388
 20
18.9720876378922298
 30
0.0
 40
0.0076992782289175
 50
203.0456755792527019
 51
227.0225980568845046
  0
ARC
  5
35DF
  8
0
 10
216.3108549337183035
 20
20.3559372018060785
 30
0.0
 40
30.7691301203046983
 50
182.5732169018963873
 51
182.6732225762521864
  0
ARC
  5
35E0
  8
0
 10
185.6130679137044126
 20
18.9493151838629217
 30
0.0
 40
0.0390654347978623
 50
269.0791122415539007
 51
292.9709806787282105
  0
ARC
  5
35E1
  8
0
 10
185.6112449927400974
 20
18.9585369053652286
 30
0.0
 40
0.0482968983602113
 50
251.2372562909501141
 51
271.4178826670848821
  0
ARC
  5
35E2
  8
0
 10
185.5973487794204004
 20
18.9186154754505615
 30
0.0
 40
0.0060355620845221
 50
203.5395234959815127
 51
254.2481073320197993
  0
ARC
  5
35E3
  8
0
 10
185.5944348290738901
 20
18.916602427537029
 30
0.0
 40
0.0026493423880896
 50
130.3037034410207866
 51
188.6278672861849088
  0
ARC
  5
35E4
  8
0
 10
185.6009322603923977
 20
18.9091331429394991
 30
0.0
 40
0.0125490189578123
 50
103.4067481561187947
 51
130.8684434118069078
  0
ARC
  5
35E5
  8
0
 10
185.6112031973736975
 20
18.8726043268879984
 30
0.0
 40
0.0504867455881449
 50
85.0322806344983064
 51
105.1335720653787007
  0
ARC
  5
35E6
  8
0
 10
185.6145393398228123
 20
18.8916743488853491
 30
0.0
 40
0.0312442490727071
 50
60.5189167053895503
 51
88.1003268703678231
  0
ARC
  5
35E7
  8
0
 10
185.6263688532758067
 20
18.9180790217003292
 30
0.0
 40
0.0051156334220679
 50
292.345623494422
 51
334.7521052920836837
  0
ARC
  5
35E8
  8
0
 10
185.6289260148809035
 20
18.9166665989267102
 30
0.0
 40
0.002208219957242
 50
339.6040758175806218
 51
34.5221627079963014
  0
ARC
  5
35E9
  8
0
 10
185.6268795220562993
 20
18.9153975351183483
 30
0.0
 40
0.0046149633355786
 50
33.1041006338783106
 51
48.8591214482244283
  0
ARC
  5
35EA
  8
0
 10
-64.3453958716525847
 20
39.5380249697412012
 30
0.0
 40
250.8282203606642895
 50
355.2775220136658163
 51
355.2820639394070099
  0
ARC
  5
35EB
  8
0
 10
185.5897723598532139
 20
18.8327686807540005
 30
0.0
 40
0.0677528540098956
 50
86.9555307607775205
 51
116.4476615815015066
  0
ARC
  5
35EC
  8
0
 10
185.5961597542242032
 20
18.8294572101058613
 30
0.0
 40
0.0710234794679802
 50
63.2726731264579101
 51
92.2504868407892928
  0
ARC
  5
35ED
  8
0
 10
185.5964173442006029
 20
18.9375375854074299
 30
0.0
 40
0.0656034956839314
 50
268.1745292508081775
 51
295.884546520110689
  0
ARC
  5
35EE
  8
0
 10
185.592293272552098
 20
18.9455120383361511
 30
0.0
 40
0.07357278353501
 50
246.7544567072039001
 51
271.5844140704692791
  0
ARC
  5
35EF
  8
0
 10
185.5682352432322091
 20
18.8893410457166695
 30
0.0
 40
0.0124667695769555
 50
187.0087356082877079
 51
246.4598812040190978
  0
ARC
  5
35F0
  8
0
 10
185.5623742339344915
 20
18.8875330955213698
 30
0.0
 40
0.0065189126800501
 50
115.2197262034103034
 51
177.4789241633114898
  0
ARC
  5
35F1
  8
0
 10
185.6189551484542903
 20
18.8894301950504584
 30
0.0
 40
0.012504403638698
 50
299.2084403658320753
 51
350.9509717273040792
  0
ARC
  5
35F2
  8
0
 10
185.624502467264989
 20
18.8871108000254395
 30
0.0
 40
0.0068105956470966
 50
2.9685666632636201
 51
58.0924246512958504
  0
ARC
  5
35F3
  8
0
 10
185.5939184089914136
 20
18.8376717253414689
 30
0.0
 40
0.1140994489838105
 50
100.123719928959801
 51
103.1284561040057071
  0
ARC
  5
35F4
  8
0
 10
185.5736148985293141
 20
18.9193783621565608
 30
0.0
 40
0.029941355615215
 50
100.803931569520401
 51
135.1500036713422048
  0
ARC
  5
35F5
  8
0
 10
185.5564533837556098
 20
18.9378171626565788
 30
0.0
 40
0.0048680148072182
 50
146.6326259140487878
 51
201.7090385565273039
  0
ARC
  5
35F6
  8
0
 10
185.55901545914341
 20
18.9390305130422298
 30
0.0
 40
0.0076992782289175
 50
203.0456755792527019
 51
227.0225980568845046
  0
ARC
  5
35F7
  8
0
 10
216.2915082074682118
 20
20.3228800769560785
 30
0.0
 40
30.7691301203046983
 50
182.5732169018963873
 51
182.6732225762521864
  0
ARC
  5
35F8
  8
0
 10
185.5937211874544914
 20
18.9162580590129217
 30
0.0
 40
0.0390654347978623
 50
269.0791122415539007
 51
292.9709806787282105
  0
ARC
  5
35F9
  8
0
 10
185.5918982664900909
 20
18.9254797805152286
 30
0.0
 40
0.0482968983602113
 50
251.2372562909501141
 51
271.4178826670848821
  0
ARC
  5
35FA
  8
0
 10
185.578002053170394
 20
18.8855583506005615
 30
0.0
 40
0.0060355620845221
 50
203.5395234959815127
 51
254.2481073320197993
  0
ARC
  5
35FB
  8
0
 10
185.5750881028239121
 20
18.883545302687029
 30
0.0
 40
0.0026493423880896
 50
130.3037034410207866
 51
188.6278672861849088
  0
ARC
  5
35FC
  8
0
 10
185.5815855341423912
 20
18.8760760180894991
 30
0.0
 40
0.0125490189578123
 50
103.4067481561187947
 51
130.8684434118069078
  0
ARC
  5
35FD
  8
0
 10
185.5918564711236911
 20
18.8395472020379984
 30
0.0
 40
0.0504867455881449
 50
85.0322806344983064
 51
105.1335720653787007
  0
ARC
  5
35FE
  8
0
 10
185.5951926135728058
 20
18.8586172240353491
 30
0.0
 40
0.0312442490727071
 50
60.5189167053895503
 51
88.1003268703678231
  0
ARC
  5
35FF
  8
0
 10
185.6070221270258003
 20
18.8850218968503292
 30
0.0
 40
0.0051156334220679
 50
292.345623494422
 51
334.7521052920836837
  0
ARC
  5
3600
  8
0
 10
185.6095792886308971
 20
18.8836094740767102
 30
0.0
 40
0.002208219957242
 50
339.6040758175806218
 51
34.5221627079963014
  0
ARC
  5
3601
  8
0
 10
185.6075327958062928
 20
18.8823404102683483
 30
0.0
 40
0.0046149633355786
 50
33.1041006338783106
 51
48.8591214482244283
  0
ARC
  5
3602
  8
0
 10
-64.2072830379910613
 20
39.5637993403148869
 30
0.0
 40
250.8282203606642895
 50
355.2775220136658163
 51
355.2866780489068788
  0
ARC
  5
3603
  8
0
 10
185.7278851935147941
 20
18.8585430513277004
 30
0.0
 40
0.0677528540098956
 50
86.9555307607775205
 51
116.4476615815015066
  0
ARC
  5
3604
  8
0
 10
185.7342725878856982
 20
18.8552315806795612
 30
0.0
 40
0.0710234794679802
 50
63.2726731264579101
 51
92.2504868407892928
  0
ARC
  5
3605
  8
0
 10
185.7345301778622115
 20
18.9633119559811298
 30
0.0
 40
0.0656034956839314
 50
268.1745292508081775
 51
295.884546520110689
  0
ARC
  5
3606
  8
0
 10
185.7304061062135929
 20
18.971286408909851
 30
0.0
 40
0.07357278353501
 50
246.7544567072039001
 51
271.5844140704692791
  0
ARC
  5
3607
  8
0
 10
185.706348076893704
 20
18.9151154162903694
 30
0.0
 40
0.0124667695769555
 50
187.0087356082877079
 51
246.4598812040190978
  0
ARC
  5
3608
  8
0
 10
185.7004870675959864
 20
18.9133074660950697
 30
0.0
 40
0.0065189126800501
 50
115.2197262034103034
 51
177.4789241633114898
  0
ARC
  5
3609
  8
0
 10
185.7570679821158137
 20
18.9152045656241583
 30
0.0
 40
0.012504403638698
 50
299.2084403658320753
 51
350.9509717273040792
  0
ARC
  5
360A
  8
0
 10
185.7626153009265977
 20
18.9128851705991394
 30
0.0
 40
0.0068105956470966
 50
2.9685666632636201
 51
58.0924246512958504
  0
ARC
  5
360B
  8
0
 10
185.7320312426529085
 20
18.8634460959151689
 30
0.0
 40
0.1140994489838105
 50
96.8008176273537657
 51
100.2811954988552969
  0
ARC
  5
360C
  8
0
 10
216.4296210411297068
 20
20.3486544475297713
 30
0.0
 40
30.7691301203046983
 50
182.6320713906274875
 51
182.6732225762521864
  0
ARC
  5
360D
  8
0
 10
185.7318340211159864
 20
18.9420324295866216
 30
0.0
 40
0.0390654347978623
 50
269.0791122415539007
 51
292.9709806787282105
  0
ARC
  5
360E
  8
0
 10
185.7300111001515859
 20
18.9512541510889285
 30
0.0
 40
0.0482968983602113
 50
251.2372562909501141
 51
271.4178826670848821
  0
ARC
  5
360F
  8
0
 10
185.716114886831889
 20
18.9113327211742508
 30
0.0
 40
0.0060355620845221
 50
203.5395234959815127
 51
254.2481073320197993
  0
ARC
  5
3610
  8
0
 10
185.7132009364854071
 20
18.9093196732607289
 30
0.0
 40
0.0026493423880896
 50
130.3037034410207866
 51
188.6278672861849088
  0
ARC
  5
3611
  8
0
 10
185.7196983678038862
 20
18.901850388663199
 30
0.0
 40
0.0125490189578123
 50
103.4067481561187947
 51
130.8684434118069078
  0
ARC
  5
3612
  8
0
 10
185.7299693047851861
 20
18.8653215726116983
 30
0.0
 40
0.0504867455881449
 50
85.0322806344983064
 51
105.1335720653787007
  0
ARC
  5
3613
  8
0
 10
185.7333054472343861
 20
18.884391594609049
 30
0.0
 40
0.0312442490727071
 50
60.5189167053895503
 51
88.1003268703678231
  0
ARC
  5
3614
  8
0
 10
185.7451349606872952
 20
18.9107962674240291
 30
0.0
 40
0.0051156334220679
 50
292.345623494422
 51
334.7521052920836837
  0
ARC
  5
3615
  8
0
 10
185.747692122292392
 20
18.9093838446504101
 30
0.0
 40
0.002208219957242
 50
339.6040758175806218
 51
34.5221627079963014
  0
ARC
  5
3616
  8
0
 10
185.7456456294677878
 20
18.9081147808420518
 30
0.0
 40
0.0046149633355786
 50
33.1041006338783106
 51
48.8591214482244283
  0
ARC
  5
3617
  8
0
 10
-64.2287695335498086
 20
39.5274551006868222
 30
0.0
 40
250.8282203606642895
 50
355.2775220136658163
 51
355.2827056999440174
  0
ARC
  5
3618
  8
0
 10
185.70639869795599
 20
18.8221988116996286
 30
0.0
 40
0.0677528540098956
 50
86.9555307607775205
 51
116.4476615815015066
  0
ARC
  5
3619
  8
0
 10
185.712786092326894
 20
18.8188873410515001
 30
0.0
 40
0.0710234794679802
 50
63.2726731264579101
 51
92.2504868407892928
  0
ARC
  5
361A
  8
0
 10
185.7130436823034074
 20
18.9269677163530616
 30
0.0
 40
0.0656034956839314
 50
268.1745292508081775
 51
295.884546520110689
  0
ARC
  5
361B
  8
0
 10
185.7089196106549025
 20
18.9349421692817792
 30
0.0
 40
0.07357278353501
 50
246.7544567072039001
 51
271.5844140704692791
  0
ARC
  5
361C
  8
0
 10
185.6848615813350136
 20
18.8787711766623012
 30
0.0
 40
0.0124667695769555
 50
187.0087356082877079
 51
246.4598812040190978
  0
ARC
  5
361D
  8
0
 10
185.679000572037296
 20
18.8769632264670015
 30
0.0
 40
0.0065189126800501
 50
115.2197262034103034
 51
177.4789241633114898
  0
ARC
  5
361E
  8
0
 10
185.7355814865570949
 20
18.8788603259960901
 30
0.0
 40
0.012504403638698
 50
299.2084403658320753
 51
350.9509717273040792
  0
ARC
  5
361F
  8
0
 10
185.7411288053677936
 20
18.8765409309710712
 30
0.0
 40
0.0068105956470966
 50
2.9685666632636201
 51
58.0924246512958504
  0
ARC
  5
3620
  8
0
 10
185.7103475255572107
 20
18.9056881899585605
 30
0.0
 40
0.0390654347978623
 50
269.0791122415539007
 51
292.9709806787282105
  0
ARC
  5
3621
  8
0
 10
185.7085246045928955
 20
18.9149099114608603
 30
0.0
 40
0.0482968983602113
 50
251.2372562909501141
 51
271.4178826670848821
  0
ARC
  5
3622
  8
0
 10
185.6946283912731985
 20
18.8749884815461897
 30
0.0
 40
0.0060355620845221
 50
203.5395234959815127
 51
254.2481073320197993
  0
ARC
  5
3623
  8
0
 10
185.6917144409266882
 20
18.8729754336326714
 30
0.0
 40
0.0026493423880896
 50
130.3037034410207866
 51
188.6278672861849088
  0
ARC
  5
3624
  8
0
 10
185.6982118722451958
 20
18.8655061490351308
 30
0.0
 40
0.0125490189578123
 50
103.4067481561187947
 51
130.8684434118069078
  0
ARC
  5
3625
  8
0
 10
185.7084828092264956
 20
18.8289773329836301
 30
0.0
 40
0.0504867455881449
 50
85.0322806344983064
 51
105.1335720653787007
  0
ARC
  5
3626
  8
0
 10
185.7118189516756104
 20
18.8480473549809808
 30
0.0
 40
0.0312442490727071
 50
60.5189167053895503
 51
88.1003268703678231
  0
ARC
  5
3627
  8
0
 10
185.7236484651286048
 20
18.8744520277959609
 30
0.0
 40
0.0051156334220679
 50
292.345623494422
 51
334.7521052920836837
  0
ARC
  5
3628
  8
0
 10
185.7262056267337016
 20
18.8730396050223383
 30
0.0
 40
0.002208219957242
 50
339.6040758175806218
 51
34.5221627079963014
  0
ARC
  5
3629
  8
0
 10
185.7241591339090974
 20
18.87177054121398
 30
0.0
 40
0.0046149633355786
 50
33.1041006338783106
 51
48.8591214482244283
  0
ARC
  5
362A
  8
0
 10
-64.325726663100852
 20
39.5036156259369307
 30
0.0
 40
250.8282203606642895
 50
355.2775220136658163
 51
355.2899154662002275
  0
ARC
  5
362B
  8
0
 10
185.6094415684050034
 20
18.7983593369497299
 30
0.0
 40
0.0677528540098956
 50
86.9555307607775205
 51
116.4476615815015066
  0
ARC
  5
362C
  8
0
 10
185.6158289627759075
 20
18.7950478663016014
 30
0.0
 40
0.0710234794679802
 50
63.2726731264579101
 51
92.2504868407892928
  0
ARC
  5
362D
  8
0
 10
185.6160865527523924
 20
18.9031282416031701
 30
0.0
 40
0.0656034956839314
 50
268.1745292508081775
 51
295.884546520110689
  0
ARC
  5
362E
  8
0
 10
185.6119624811038875
 20
18.9111026945318912
 30
0.0
 40
0.07357278353501
 50
246.7544567072039001
 51
271.5844140704692791
  0
ARC
  5
362F
  8
0
 10
185.5879044517839134
 20
18.854931701912399
 30
0.0
 40
0.0124667695769555
 50
187.0087356082877079
 51
246.4598812040190978
  0
ARC
  5
3630
  8
0
 10
185.5820434424861958
 20
18.85312375171711
 30
0.0
 40
0.0065189126800501
 50
115.2197262034103034
 51
177.4789241633114898
  0
ARC
  5
3631
  8
0
 10
185.6386243570059946
 20
18.8550208512461914
 30
0.0
 40
0.012504403638698
 50
299.2084403658320753
 51
350.9509717273040792
  0
ARC
  5
3632
  8
0
 10
185.644171675816807
 20
18.8527014562211797
 30
0.0
 40
0.0068105956470966
 50
2.9685666632636201
 51
58.0924246512958504
  0
ARC
  5
3633
  8
0
 10
185.6199629373818993
 20
18.8523599635543597
 30
0.0
 40
0.0652499155954003
 50
57.0695490484955172
 51
66.8406466010472258
  0
ARC
  5
3634
  8
0
 10
185.6518625254558117
 20
18.9033267831678486
 30
0.0
 40
0.0052146246316665
 50
358.2000006519717772
 51
46.7705356089893627
  0
ARC
  5
3635
  8
0
 10
185.6505569414086949
 20
18.9039235728305108
 30
0.0
 40
0.006561864289348
 50
309.7695013110641185
 51
353.3438915281511186
  0
ARC
  5
3636
  8
0
 10
185.6133903960061957
 20
18.8818487152086583
 30
0.0
 40
0.0390654347978623
 50
269.0791122415539007
 51
292.9709806787282105
  0
ARC
  5
3637
  8
0
 10
185.6115674750419089
 20
18.8910704367109687
 30
0.0
 40
0.0482968983602113
 50
251.2372562909501141
 51
271.4178826670848821
  0
ARC
  5
3638
  8
0
 10
185.597671261722212
 20
18.851149006796291
 30
0.0
 40
0.0060355620845221
 50
203.5395234959815127
 51
254.2481073320197993
  0
ARC
  5
3639
  8
0
 10
185.594757311375588
 20
18.8491359588827692
 30
0.0
 40
0.0026493423880896
 50
130.3037034410207866
 51
188.6278672861849088
  0
ARC
  5
363A
  8
0
 10
185.6012547426940955
 20
18.8416666742852286
 30
0.0
 40
0.0125490189578123
 50
103.4067481561187947
 51
130.8684434118069078
  0
ARC
  5
363B
  8
0
 10
185.6115256796755091
 20
18.8051378582337385
 30
0.0
 40
0.0504867455881449
 50
85.0322806344983064
 51
105.1335720653787007
  0
ARC
  5
363C
  8
0
 10
185.6148618221245954
 20
18.8242078802310893
 30
0.0
 40
0.0312442490727071
 50
60.5189167053895503
 51
88.1003268703678231
  0
ARC
  5
363D
  8
0
 10
185.6266913355775898
 20
18.8506125530460693
 30
0.0
 40
0.0051156334220679
 50
292.345623494422
 51
334.7521052920836837
  0
ARC
  5
363E
  8
0
 10
185.6292484971826866
 20
18.8492001302724503
 30
0.0
 40
0.002208219957242
 50
339.6040758175806218
 51
34.5221627079963014
  0
ARC
  5
363F
  8
0
 10
185.6272020043579971
 20
18.8479310664640884
 30
0.0
 40
0.0046149633355786
 50
33.1041006338783106
 51
48.8591214482244283
  0
ARC
  5
3640
  8
0
 10
185.8675970258275072
 20
18.871557823333621
 30
0.0
 40
0.2926294288978087
 50
179.5206731045807089
 51
183.5554617693952935
  0
ARC
  5
3641
  8
0
 10
185.9689695368608966
 20
18.9282587616124083
 30
0.0
 40
0.3008375252789326
 50
179.08324431052759
 51
189.7620013173668951
  0
ARC
  5
3642
  8
0
 10
185.6718791171834937
 20
18.928994048898339
 30
0.0
 40
0.0055121701205982
 50
132.2836691482148979
 51
227.4418371199639068
  0
ARC
  5
3643
  8
0
 10
185.6671605095692996
 20
18.80759989794349
 30
0.0
 40
0.0840952244767437
 50
87.8129493792223599
 51
98.9498469469934463
  0
ARC
  5
3644
  8
0
 10
185.7751459886619898
 20
18.9153046347338183
 30
0.0
 40
0.0851331318508534
 50
267.5896779719935239
 51
284.4620124742199891
  0
ARC
  5
3645
  8
0
 10
185.7892200326745922
 20
18.8639102183596705
 30
0.0
 40
0.0318622721030945
 50
283.0359674005771922
 51
313.0498358303702275
  0
ARC
  5
3646
  8
0
 10
185.8034151841577
 20
18.8470350992127216
 30
0.0
 40
0.0099070478868072
 50
319.6940499994084917
 51
1.436391059886285
  0
ARC
  5
3647
  8
0
 10
231.5941066347558035
 20
15.6518100582949096
 30
0.0
 40
45.8921731420832586
 50
175.9394359026057089
 51
176.0072623646607894
  0
ARC
  5
3648
  8
0
 10
185.7762870397004065
 20
18.8148363136762207
 30
0.0
 40
0.0974581893080365
 50
69.6621598459360314
 51
94.1915537753185248
  0
ARC
  5
3649
  8
0
 10
185.8032669083349049
 20
18.8885826205689291
 30
0.0
 40
0.0189351962908614
 50
42.9167565470923407
 51
68.6545957845663395
  0
ARC
  5
364A
  8
0
 10
185.8125402752307025
 20
18.8979905127709493
 30
0.0
 40
0.0061074347200194
 50
311.1714603809439836
 51
357.767635100018083
  0
ARC
  5
364B
  8
0
 10
185.812787686799112
 20
18.8975472035765399
 30
0.0
 40
0.0058589899169506
 50
2.009149137682734
 51
42.1136233253910532
  0
ARC
  5
364C
  8
0
 10
185.7715500622938123
 20
18.9079984029584196
 30
0.0
 40
0.077751581790976
 50
249.3965380203190989
 51
270.0114937845372083
  0
ARC
  5
364D
  8
0
 10
185.7499207719097001
 20
18.8510979252610795
 30
0.0
 40
0.0168807169347133
 50
206.0406242059401904
 51
250.1523282860889026
  0
ARC
  5
364E
  8
0
 10
185.7587364498702129
 20
18.8505711792563986
 30
0.0
 40
0.0249511619664356
 50
175.1268491214866003
 51
196.0156634334207126
  0
ARC
  5
364F
  8
0
 10
186.6543816029966081
 20
18.8878192281213586
 30
0.0
 40
0.9211761657727631
 50
181.442227728836798
 51
182.185466775770692
  0
ARC
  5
3650
  8
0
 10
185.7422840058559927
 20
18.8447924747115607
 30
0.0
 40
0.0087301715212487
 50
139.3602670525575036
 51
162.0751060868697948
  0
ARC
  5
3651
  8
0
 10
185.7502555446905035
 20
18.8354008148510097
 30
0.0
 40
0.0209853011347101
 50
103.5758406460479932
 51
134.0704529891204118
  0
ARC
  5
3652
  8
0
 10
185.7713322267933052
 20
18.7672744255417285
 30
0.0
 40
0.0922652452713294
 50
91.9203945097662398
 51
106.3691284385132008
  0
ARC
  5
3653
  8
0
 10
185.7736841266628005
 20
18.7502296547468212
 30
0.0
 40
0.1093937299570036
 50
77.6748179983339355
 51
92.8524058036120152
  0
ARC
  5
3654
  8
0
 10
185.7933609149627898
 20
18.8306241866276309
 30
0.0
 40
0.0267316085222627
 50
43.8202071009330822
 51
82.0994371096185489
  0
ARC
  5
3655
  8
0
 10
185.8022414049968063
 20
18.8436323055070289
 30
0.0
 40
0.0117711521473932
 50
19.4859450246710892
 51
27.8598665287359495
  0
ARC
  5
3656
  8
0
 10
185.8443272415134118
 20
17.2155095823610793
 30
0.0
 40
1.9830202570484321
 50
83.460438513005883
 51
88.7865541842241441
  0
ARC
  5
3657
  8
0
 10
185.8752869086364115
 20
17.4046292768637905
 30
0.0
 40
1.791628827425308
 50
78.743315294398144
 51
83.7552777869373557
  0
ARC
  5
3658
  8
0
 10
186.0981801366644106
 20
18.4743797041283386
 30
0.0
 40
0.6990163831511244
 50
67.609034624273761
 51
79.545378248734707
  0
ARC
  5
3659
  8
0
 10
186.3073992561836008
 20
18.9800550531876695
 30
0.0
 40
0.1517713800963352
 50
43.3211054084058205
 51
67.9190140319734041
  0
ARC
  5
365A
  8
0
 10
186.3834490075165888
 20
19.055544002000719
 30
0.0
 40
0.0447358935648238
 50
358.2317858364933727
 51
39.80575112160777
  0
ARC
  5
365B
  8
0
 10
186.3343627260074129
 20
19.0640951275803197
 30
0.0
 40
0.0943251752139944
 50
305.0523681426852818
 51
353.9561187758380925
  0
ARC
  5
365C
  8
0
 10
186.0548810771333876
 20
19.3777630985859517
 30
0.0
 40
0.5139229733619443
 50
289.6446872397211223
 51
310.4836798303107912
  0
ARC
  5
365D
  8
0
 10
184.9849891282999863
 20
22.3972016891565104
 30
0.0
 40
3.7173071934053139
 50
288.1264529388247979
 51
289.5294858788714123
  0
ARC
  5
365E
  8
0
 10
186.5198543788280006
 20
16.933706693481561
 30
0.0
 40
1.9516395727954541
 50
99.5719036638097066
 51
101.2569343722558983
  0
ARC
  5
365F
  8
0
 10
186.0044060103546997
 20
19.3425208674843887
 30
0.0
 40
0.5271694831575703
 50
278.4085283961271102
 51
291.5360764438522096
  0
LINE
  5
3660
  8
0
 10
186.1979230712518927
 20
18.8521548703818915
 30
0.0
 11
186.1979281991517894
 21
18.8580081172124387
 31
0.0
  0
ARC
  5
3661
  8
0
 10
186.1963796455009117
 20
18.8542345886987199
 30
0.0
 40
0.0040789136212059
 50
67.6880837380002447
 51
104.9764779002668007
  0
ARC
  5
3662
  8
0
 10
185.866746785195204
 20
18.2230310072427812
 30
0.0
 40
0.8732708157621866
 50
70.4111432534423471
 51
89.4443425366987839
  0
ARC
  5
3663
  8
0
 10
186.1581117803775953
 20
18.962970003383731
 30
0.0
 40
0.0722359040906474
 50
12.8968310387634197
 51
50.358816512144351
  0
ARC
  5
3664
  8
0
 10
186.0791344128512037
 20
18.86324520279776
 30
0.0
 40
0.1994349995516756
 50
51.1647757686450717
 51
66.2278235582637365
  0
ARC
  5
3665
  8
0
 10
186.1323242102600091
 20
18.9788945455906202
 30
0.0
 40
0.0962014223407799
 50
347.4807607819399209
 51
0.1180665305553191
  0
ARC
  5
3666
  8
0
 10
186.1132449345371072
 20
18.9936044869925595
 30
0.0
 40
0.1184577656783998
 50
296.0043970045476271
 51
342.5292404541360725
  0
ARC
  5
3667
  8
0
 10
185.8598141484409894
 20
18.1090287931674787
 30
0.0
 40
0.9371912692537476
 50
79.9203265551787894
 51
90.0939200517347132
  0
ARC
  5
3668
  8
0
 10
185.9460636116330932
 20
18.5784211718643988
 30
0.0
 40
0.4599569643151606
 50
66.7756340647281945
 51
80.2649296412359661
  0
ARC
  5
3669
  8
0
 10
186.0850294914550886
 20
18.8896377439539904
 30
0.0
 40
0.119264293836221
 50
32.3063619024341335
 51
69.1698647468118679
  0
ARC
  5
366A
  8
0
 10
186.1525326819447059
 20
18.9385797351651384
 30
0.0
 40
0.0364394564443292
 50
339.053915853258502
 51
23.9605834753235705
  0
ARC
  5
366B
  8
0
 10
186.1182673473167029
 20
18.9572118997749506
 30
0.0
 40
0.0752777100515877
 50
304.6255644686473261
 51
335.1299801449949882
  0
ARC
  5
366C
  8
0
 10
185.8592327832587898
 20
19.0394858439774204
 30
0.0
 40
0.0810165244987045
 50
269.324674701436777
 51
288.3171695818418812
  0
ARC
  5
366D
  8
0
 10
185.8801642974893014
 20
18.9790448455698311
 30
0.0
 40
0.0170821600971201
 50
285.3785703668701217
 51
329.6740503137719998
  0
ARC
  5
366E
  8
0
 10
185.8843617867212004
 20
18.9755082807968307
 30
0.0
 40
0.0117105950291815
 50
334.244984512796691
 51
354.1600661598830015
  0
ARC
  5
366F
  8
0
 10
185.8906027512483945
 20
18.9741680116251388
 30
0.0
 40
0.005410897090865
 50
1.574987140725522
 51
45.8625511250777009
  0
ARC
  5
3670
  8
0
 10
185.8782834595693032
 20
18.9602953373371008
 30
0.0
 40
0.0239598684556627
 50
47.8225721229876086
 51
75.8863814034338731
  0
ARC
  5
3671
  8
0
 10
185.8591664937920029
 20
18.8937682788735799
 30
0.0
 40
0.0931691626199361
 50
74.4610057548651696
 51
90.5464345267006507
  0
ARC
  5
3672
  8
0
 10
185.8585093487239135
 20
19.0156383224367005
 30
0.0
 40
0.0518545801196372
 50
269.744255180865423
 51
284.241660237411395
  0
ARC
  5
3673
  8
0
 10
185.8691013457797965
 20
18.9764287684187387
 30
0.0
 40
0.0112614077595597
 50
281.0833809948869089
 51
319.8305144832668248
  0
ARC
  5
3674
  8
0
 10
185.8757594230372092
 20
18.9701883323025307
 30
0.0
 40
0.0021999280980069
 50
332.2669006423013798
 51
20.4055028377645193
  0
ARC
  5
3675
  8
0
 10
185.8740515290778035
 20
18.969337587591621
 30
0.0
 40
0.0041022421194389
 50
23.2263077804564517
 51
56.8124866327748279
  0
ARC
  5
3676
  8
0
 10
185.8652969016987981
 20
18.9558421766460405
 30
0.0
 40
0.0201885366822612
 50
56.9842596584487566
 51
85.8946335248802626
  0
ARC
  5
3677
  8
0
 10
185.8582703822937106
 20
18.9186877583619406
 30
0.0
 40
0.057914144806837
 50
81.5884386595992339
 51
89.9925705244697411
  0
ARC
  5
3678
  8
0
 10
185.8587346437531949
 20
18.9218235593362607
 30
0.0
 40
0.1163737562821757
 50
77.7945233707465746
 51
90.2248790322516356
  0
ARC
  5
3679
  8
0
 10
185.8773445289139943
 20
19.0014956576642113
 30
0.0
 40
0.0345942815277707
 50
50.2178608381372626
 51
80.0228485210284646
  0
ARC
  5
367A
  8
0
 10
185.8954323016045009
 20
19.0239920099185085
 30
0.0
 40
0.0057536881735497
 50
359.7812748991036074
 51
45.2865159801163983
  0
ARC
  5
367B
  8
0
 10
185.8946393818119986
 20
19.0247641557034584
 30
0.0
 40
0.0065945536676979
 50
310.7575435127220089
 51
353.0837087980950173
  0
ARC
  5
367C
  8
0
 10
-136.0358264314774885
 20
39.7718585772638775
 30
0.0
 40
322.6029232474897981
 50
356.3036964463445884
 51
356.3132650440009002
  0
ARC
  5
367D
  8
0
 10
185.8585191379731896
 20
18.8813324803768587
 30
0.0
 40
0.0957378242919022
 50
269.8556224399619055
 51
276.6558219497654818
  0
ARC
  5
367E
  8
0
 10
185.86247560685851
 20
18.8536020227133605
 30
0.0
 40
0.0677394680630944
 50
276.0504472103366993
 51
286.9460357239256041
  0
ARC
  5
367F
  8
0
 10
185.8770411962821925
 20
18.8101302008053004
 30
0.0
 40
0.0219460975949591
 50
283.6484639136257897
 51
323.5189270686720988
  0
ARC
  5
3680
  8
0
 10
185.8855006545358037
 20
18.8022439012188904
 30
0.0
 40
0.0105373049135615
 50
330.6679539878250011
 51
356.019892721791507
  0
ARC
  5
3681
  8
0
 10
185.8901419675044906
 20
18.8009609762569099
 30
0.0
 40
0.0058964288053258
 50
5.3670731406247789
 51
53.1620889404547867
  0
ARC
  5
3682
  8
0
 10
185.8777028267253968
 20
18.7849733277086912
 30
0.0
 40
0.0261524465978825
 50
52.3513850543366672
 51
77.3277956580372035
  0
ARC
  5
3683
  8
0
 10
185.8591568065600939
 20
18.715951728879169
 30
0.0
 40
0.097605922945774
 50
75.5942104253477822
 51
90.5159744032071956
  0
ARC
  5
3684
  8
0
 10
57.2857150073087098
 20
26.8871810321770717
 30
0.0
 40
128.8642179521856121
 50
356.4025761771023895
 51
356.412300643541073
  0
ARC
  5
3685
  8
0
 10
185.8583123948949094
 20
18.8301581898924191
 30
0.0
 40
0.0416142067206085
 50
269.952495231771195
 51
295.4607350700787833
  0
ARC
  5
3686
  8
0
 10
185.8745724559138068
 20
18.7955718699119814
 30
0.0
 40
0.0034020006891781
 50
298.6203802437441936
 51
354.6738264998336945
  0
ARC
  5
3687
  8
0
 10
185.8745995725400064
 20
18.794885578008401
 30
0.0
 40
0.0033805597690109
 50
6.2920932477918878
 51
59.7653008362966176
  0
ARC
  5
3688
  8
0
 10
185.8661668538962886
 20
18.7822972210126515
 30
0.0
 40
0.0185269714943502
 50
56.8358847989992029
 51
81.1516288256607936
  0
ARC
  5
3689
  8
0
 10
185.8584471736562023
 20
18.7472908537360006
 30
0.0
 40
0.0543504736716037
 50
78.7862747107948138
 51
90.1784555355813069
  0
ARC
  5
368A
  8
0
 10
185.8593371910517078
 20
20.0852179855008508
 30
0.0
 40
1.284229278893982
 50
271.6364903097374963
 51
272.8919095606623273
  0
ARC
  5
368B
  8
0
 10
185.8683875955534006
 20
19.9710456648687007
 30
0.0
 40
1.169670755486711
 50
276.3395958962962027
 51
277.8878978755608955
  0
ARC
  5
368C
  8
0
 10
185.9580783930965993
 20
18.8670263445956614
 30
0.0
 40
0.07486969332515
 50
250.0910201376771056
 51
271.6036232606188037
  0
ARC
  5
368D
  8
0
 10
185.9388073163237891
 20
18.8143712140227493
 30
0.0
 40
0.0188001369989911
 50
218.6702594974933049
 51
250.6665653803817122
  0
ARC
  5
368E
  8
0
 10
185.933581267475688
 20
18.8091858434409502
 30
0.0
 40
0.0115065369006915
 50
190.7021876461897989
 51
214.7680055793032921
  0
ARC
  5
368F
  8
0
 10
185.9263393305199088
 20
18.8079750741541005
 30
0.0
 40
0.0041686116504551
 50
156.7135837674875063
 51
192.8351341674782873
  0
ARC
  5
3690
  8
0
 10
185.9364437094965865
 20
18.7998407676335404
 30
0.0
 40
0.0170244816418115
 50
101.0163251579205053
 51
144.9283455807724863
  0
ARC
  5
3691
  8
0
 10
185.9579606574939987
 20
18.7321893043211993
 30
0.0
 40
0.0879235210259323
 50
90.3930455659495351
 51
106.3631034533230064
  0
ARC
  5
3692
  8
0
 10
185.960422970677314
 20
18.7132862741576496
 30
0.0
 40
0.1068684568900269
 50
79.3011923124392553
 51
91.6437210003690552
  0
ARC
  5
3693
  8
0
 10
185.9767381645139892
 20
18.7892086736929294
 30
0.0
 40
0.0293010755222952
 50
46.3514781037147685
 51
83.0913587612849653
  0
ARC
  5
3694
  8
0
 10
185.9938165395755902
 20
18.8084080625456984
 30
0.0
 40
0.0037294085562375
 50
1.836532772954375
 51
32.4762474774027581
  0
ARC
  5
3695
  8
0
 10
185.9881399045607964
 20
18.8082625174076803
 30
0.0
 40
0.0094078626692332
 50
322.1080886769743188
 51
1.614515502110182
  0
ARC
  5
3696
  8
0
 10
185.9757450291772045
 20
18.8210175051149804
 30
0.0
 40
0.0271344439953677
 50
276.2473113507995777
 51
316.9208282492674016
  0
ARC
  5
3697
  8
0
 10
185.9602530156568889
 20
18.8846550598967511
 30
0.0
 40
0.0924691198050862
 50
269.9507988365306232
 51
281.5059517150285728
  0
ARC
  5
3698
  8
0
 10
185.9595709846416014
 20
18.8349111502373994
 30
0.0
 40
0.0394345985990411
 50
247.2335621564949122
 51
271.2791424236178841
  0
ARC
  5
3699
  8
0
 10
185.961190344446095
 20
18.8485510038663513
 30
0.0
 40
0.0530697714044261
 50
269.2020773406956096
 51
283.9303058909626998
  0
ARC
  5
369A
  8
0
 10
185.9711780331599869
 20
18.8097295875259185
 30
0.0
 40
0.012990332793351
 50
282.3951319328982095
 51
314.7235312913525718
  0
ARC
  5
369B
  8
0
 10
185.9784643952424972
 20
18.801885711358949
 30
0.0
 40
0.0023153474467434
 50
323.2326181094935009
 51
20.1986858117100816
  0
ARC
  5
369C
  8
0
 10
185.975096598349694
 20
18.7996429181314291
 30
0.0
 40
0.0063210043012182
 50
28.7696106420334203
 51
72.3964067797313362
  0
ARC
  5
369D
  8
0
 10
185.9639028968572916
 20
18.7721722286763999
 30
0.0
 40
0.0359682061687323
 50
68.6318241203220083
 51
85.1450178470601742
  0
ARC
  5
369E
  8
0
 10
185.9612561332783969
 20
18.7545821072448611
 30
0.0
 40
0.0537314991939891
 50
83.9201919843951742
 51
104.797129361736495
  0
ARC
  5
369F
  8
0
 10
185.9487220881837004
 20
18.7982588715822914
 30
0.0
 40
0.0083577772690786
 50
98.1776623800153914
 51
149.7057726368620933
  0
ARC
  5
36A0
  8
0
 10
185.9460533146070986
 20
18.8030495335082684
 30
0.0
 40
0.0048261975015686
 50
197.0323920754676976
 51
248.834597289086787
  0
ARC
  5
36A1
  8
0
 10
185.9435688438487944
 20
18.8018884484389908
 30
0.0
 40
0.0021449680706071
 50
164.133553611632891
 51
186.7622009571944943
  0
ARC
  5
36A2
  8
0
 10
185.8580828292471097
 20
20.5092209602953801
 30
0.0
 40
1.6868119403791091
 50
271.3340155851236091
 51
272.134298067952102
  0
ARC
  5
36A3
  8
0
 10
365.0540229878387208
 20
33.3697061203437428
 30
0.0
 40
179.7227434365871943
 50
184.6402165673256093
 51
184.6473878763995913
  0
ARC
  5
36A4
  8
0
 10
186.0652132938315049
 20
18.8354692142133509
 30
0.0
 40
0.0217692331527697
 50
284.8125626344904049
 51
318.4073978216252954
  0
ARC
  5
36A5
  8
0
 10
186.0457250681101016
 20
18.90044736440937
 30
0.0
 40
0.0895980193205214
 50
259.1815558407481035
 51
286.2377265435587788
  0
ARC
  5
36A6
  8
0
 10
186.0384444623844047
 20
18.864896970906841
 30
0.0
 40
0.0533150628182352
 50
247.5768471914730071
 51
259.6957745948189995
  0
ARC
  5
36A7
  8
0
 10
186.0238596367414914
 20
18.8314464236238912
 30
0.0
 40
0.0168458565102428
 50
208.913062811554596
 51
250.0352491376497142
  0
ARC
  5
36A8
  8
0
 10
186.019617506273903
 20
18.8277910989034005
 30
0.0
 40
0.0114231097617596
 50
181.2181056981862923
 51
203.1416300835923892
  0
ARC
  5
36A9
  8
0
 10
187.0452155244003904
 20
18.9408209784682917
 30
0.0
 40
1.0431865479749109
 50
185.2016943432587937
 51
186.2336597842800927
  0
ARC
  5
36AA
  8
0
 10
186.0439297742503868
 20
18.7568095097796714
 30
0.0
 40
0.0821536302086449
 50
88.8010038865312907
 51
109.3610751198253013
  0
ARC
  5
36AB
  8
0
 10
186.0242831057911133
 20
18.8141690649683184
 30
0.0
 40
0.0215299549816769
 50
110.6392087712585948
 51
131.2119449015112025
  0
ARC
  5
36AC
  8
0
 10
186.0139748348647117
 20
18.8261771964567686
 30
0.0
 40
0.0057070960574313
 50
132.7866420684586899
 51
177.3128339316286031
  0
ARC
  5
36AD
  8
0
 10
186.048137635928498
 20
18.7537876645094705
 30
0.0
 40
0.0851938489931077
 50
70.6047814159162215
 51
91.6740446986712669
  0
ARC
  5
36AE
  8
0
 10
186.0740191896402109
 20
18.8243993437979817
 30
0.0
 40
0.0100409189510399
 50
14.3997477513516206
 51
76.113429872984284
  0
ARC
  5
36AF
  8
0
 10
186.0730092171233991
 20
18.8276365854517991
 30
0.0
 40
0.0107609370023146
 50
322.0449904577773736
 51
356.0556970747703076
  0
ARC
  5
36B0
  8
0
 10
180.8604740035650025
 20
18.9959059361063396
 30
0.0
 40
5.2260042710306651
 50
358.1467249625462159
 51
358.2859545887803847
  0
ARC
  5
36B1
  8
0
 10
186.049311010800011
 20
18.782890911366291
 30
0.0
 40
0.0443710571897783
 50
71.725125552026995
 51
90.5192438390019731
  0
ARC
  5
36B2
  8
0
 10
186.0469679935085878
 20
18.8554695644688692
 30
0.0
 40
0.0410471865076184
 50
248.6596991212618946
 51
271.9414762139688264
  0
ARC
  5
36B3
  8
0
 10
186.0489586679489946
 20
18.8599440160090097
 30
0.0
 40
0.0455020317443085
 50
269.2443995926536218
 51
289.278504576233388
  0
ARC
  5
36B4
  8
0
 10
186.0615410565598893
 20
18.8240648022361583
 30
0.0
 40
0.0074806080210069
 50
289.0415410707689716
 51
325.6448365671819261
  0
ARC
  5
36B5
  8
0
 10
186.0657549437796945
 20
18.8208558868901186
 30
0.0
 40
0.002207667140129
 50
332.6998726330547811
 51
30.0733627284287195
  0
ARC
  5
36B6
  8
0
 10
186.0607998150327091
 20
18.8167559441660792
 30
0.0
 40
0.0086163425009736
 50
37.1732102140941834
 51
73.654425094565056
  0
ARC
  5
36B7
  8
0
 10
186.0469813670266888
 20
18.7884100231285309
 30
0.0
 40
0.0388979109965556
 50
87.1596181082924062
 51
114.7305502863409998
  0
ARC
  5
36B8
  8
0
 10
186.0323707277578933
 20
18.8203639660591797
 30
0.0
 40
0.0037634936538023
 50
116.2127786574147024
 51
176.8654487457494042
  0
ARC
  5
36B9
  8
0
 10
186.0336622505901971
 20
18.8224674768673204
 30
0.0
 40
0.0054792808068572
 50
206.7191088622705877
 51
252.6759729870474871
  0
ARC
  5
36BA
  8
0
 10
186.0308847544608
 20
18.8208885691767911
 30
0.0
 40
0.0022941498961828
 50
187.9880896892584019
 51
202.6822251286525898
  0
ARC
  5
36BB
  8
0
 10
186.0795706846803057
 20
18.0273477826684392
 30
0.0
 40
0.80512557675326
 50
95.0993605955520849
 51
95.7875604717469145
  0
ARC
  5
36BC
  8
0
 10
185.725172087845209
 20
18.8299633791909002
 30
0.0
 40
0.2732141459431558
 50
355.5000712003824788
 51
359.6657104520322719
  0
ARC
  5
36BD
  8
0
 10
183.2947978365571942
 20
18.9791358997618609
 30
0.0
 40
2.7077842666663421
 50
356.8081809058534191
 51
357.1581346803052952
  0
ARC
  5
36BE
  8
0
 10
185.8582778919519001
 20
18.0346194041849586
 30
0.0
 40
1.132369741396932
 50
87.5589980013973701
 51
90.0000000000032543
  0
ARC
  5
36BF
  8
0
 10
185.9070578292378002
 20
19.1755342396769386
 30
0.0
 40
0.0095884768949039
 50
266.7021580756489811
 51
324.6718646821946095
  0
ARC
  5
36C0
  8
0
 10
185.9076549274768979
 20
19.17482412987437
 30
0.0
 40
0.0086938567058252
 50
326.2146517595469959
 51
359.859790990685724
  0
LINE
  5
36C1
  8
0
 10
185.9163487581519121
 20
19.1748028550819214
 30
0.0
 11
185.9163487581519121
 21
19.1832477702818913
 31
0.0
  0
ARC
  5
36C2
  8
0
 10
187.2254891507849948
 20
46.6920429681050209
 30
0.0
 40
27.5399285003320387
 50
267.254855798396477
 51
267.3086655893822012
  0
ARC
  5
36C3
  8
0
 10
185.8727558991377862
 20
18.0946065905783691
 30
0.0
 40
1.089515334684642
 50
79.2670022609604388
 51
86.8649303088327969
  0
ARC
  5
36C4
  8
0
 10
185.9375862849063026
 20
18.4400171916917515
 30
0.0
 40
0.7380741937370102
 50
75.5153343889287214
 51
79.2180610124509457
  0
LINE
  5
36C5
  8
0
 10
186.2285254283519009
 20
18.9790927828818887
 30
0.0
 11
186.2283566321519004
 21
19.0465032806818897
 31
0.0
  0
ARC
  5
36C6
  8
0
 10
186.1885109013124975
 20
19.0464773449824492
 30
0.0
 40
0.0398457392801607
 50
0.0372939804517043
 51
11.6238717905143005
  0
ARC
  5
36C7
  8
0
 10
186.1839895941211012
 20
19.0454811667515891
 30
0.0
 40
0.0444750838948913
 50
11.7073099535468099
 51
22.0876564512671401
  0
ARC
  5
36C8
  8
0
 10
186.2657590828956131
 20
19.0731728279156805
 30
0.0
 40
0.0420152726234548
 50
177.8956778029811119
 51
195.132157721302292
  0
ARC
  5
36C9
  8
0
 10
185.8919641763810091
 20
19.0821606188318817
 30
0.0
 40
0.3318914822449965
 50
358.7146266259999834
 51
1.2853733740033499
  0
ARC
  5
36CA
  8
0
 10
186.1308048788482949
 20
19.0330156176316407
 30
0.0
 40
0.1088363168249622
 50
31.3292591071885909
 51
61.7935114706812882
  0
ARC
  5
36CB
  8
0
 10
185.9554411611075864
 20
19.7697934003629712
 30
0.0
 40
0.679815845361232
 50
286.9586408687015933
 51
290.283529676368687
  0
ARC
  5
36CC
  8
0
 10
186.1534510715960096
 20
19.12353158698334
 30
0.0
 40
0.0040024011062214
 50
246.1706167805872099
 51
274.0068495576982741
  0
ARC
  5
36CD
  8
0
 10
185.9725334276683952
 20
18.684989597505119
 30
0.0
 40
0.4703934587487443
 50
67.5937283379913083
 51
76.3390723800564217
  0
ARC
  5
36CE
  8
0
 10
186.0869580252372941
 20
19.1528820391602892
 30
0.0
 40
0.0113074224306516
 50
177.7847897172204057
 51
252.8770697038559092
  0
LINE
  5
36CF
  8
0
 10
186.0756590529506127
 20
19.1650616221821402
 30
0.0
 11
186.0756590529518917
 21
19.1533191058818986
 31
0.0
  0
LINE
  5
36D0
  8
0
 10
186.0756590529518917
 20
19.1533191058818808
 30
0.0
 11
186.0976863420549137
 21
19.160518050234991
 31
0.0
  0
LINE
  5
36D1
  8
0
 10
186.1221940549519047
 20
19.154631413981889
 30
0.0
 11
186.0836288620735957
 21
19.1420758152889583
 31
0.0
  0
LINE
  5
36D2
  8
0
 10
186.1770950277519034
 20
19.1376111671818911
 30
0.0
 11
186.1381206382519053
 21
19.1502999871818886
 31
0.0
  0
LINE
  5
36D3
  8
0
 10
186.1381206382519053
 20
19.1502999871818886
 30
0.0
 11
186.1130077823519002
 21
19.1421240410818889
 31
0.0
  0
LINE
  5
36D4
  8
0
 10
186.1130077823519002
 20
19.1421240410818889
 30
0.0
 11
186.1519821718518983
 21
19.1294352209818896
 31
0.0
  0
LINE
  5
36D5
  8
0
 10
186.1519821718518983
 20
19.1294352209818896
 30
0.0
 11
186.1770950277519034
 21
19.1376111671818911
 31
0.0
  0
LINE
  5
36D6
  8
0
 10
186.1519821718518983
 20
19.1294352209818896
 30
0.0
 11
186.1519821718518983
 21
19.1457871132913517
 31
0.0
  0
ARC
  5
36D7
  8
0
 10
186.2130063298301934
 20
18.9630806507700207
 30
0.0
 40
0.0240032842947377
 50
283.8881220411267918
 51
295.8559267183856036
  0
ARC
  5
36D8
  8
0
 10
186.1308927045895985
 20
19.1921061419078995
 30
0.0
 40
0.2671791656908411
 50
290.2743277115727096
 51
311.7923551648053717
  0
ARC
  5
36D9
  8
0
 10
186.2636276488402984
 20
19.0424944806009186
 30
0.0
 40
0.0671791275010306
 50
312.4265948127513752
 51
357.0680280745515915
  0
ARC
  5
36DA
  8
0
 10
186.253605118503998
 20
19.0320461614591885
 30
0.0
 40
0.0774318731488881
 50
5.1957207816087392
 51
56.2439614968507868
  0
ARC
  5
36DB
  8
0
 10
186.0633249626463055
 20
18.7631378448354695
 30
0.0
 40
0.4068306383846772
 50
55.0073380335569624
 51
79.5436699867016586
  0
ARC
  5
36DC
  8
0
 10
185.877180642721811
 20
18.0147005573294905
 30
0.0
 40
1.177568833415608
 50
77.2454112092178349
 51
87.4082803665673964
  0
ARC
  5
36DD
  8
0
 10
185.8583169008732057
 20
17.7515793116427787
 30
0.0
 40
1.4412906684442619
 50
87.1321356388246642
 51
90.0015507257517555
  0
ARC
  5
36DE
  8
0
 10
186.1787962845803861
 20
19.0795635822056404
 30
0.0
 40
0.1121042784955295
 50
296.3336227475044211
 51
334.2166620823919061
  0
LINE
  5
36DF
  8
0
 10
186.2797400554973137
 20
19.0308016670455089
 30
0.0
 11
186.2283959490654013
 21
19.0308016670455089
 31
0.0
  0
ARC
  5
36E0
  8
0
 10
185.8583280709923997
 20
17.8293737535604393
 30
0.0
 40
1.3623852094991691
 50
88.4838777805695855
 51
90.0021103042091255
  0
ARC
  5
36E1
  8
0
 10
185.8594089038066954
 20
17.8596471983923202
 30
0.0
 40
1.332093795193811
 50
86.2839660087203555
 51
88.4958984017744257
  0
ARC
  5
36E2
  8
0
 10
185.8648412053989887
 20
17.9404541972971892
 30
0.0
 40
1.251104628873835
 50
83.9818532981231129
 51
86.2923765618175338
  0
ARC
  5
36E3
  8
0
 10
185.8811940983651994
 20
18.0885076061680614
 30
0.0
 40
1.102152935995885
 50
80.4005261959337645
 51
84.0203400558603164
  0
ARC
  5
36E4
  8
0
 10
185.9169485087577982
 20
18.2995278140517605
 30
0.0
 40
0.8881251319626059
 50
76.2999169615537767
 51
80.4046612944878945
  0
ARC
  5
36E5
  8
0
 10
186.0134584413949881
 20
18.6699039180525794
 30
0.0
 40
0.5054654527408581
 50
63.5949861266518965
 51
76.9850807324095427
  0
ARC
  5
36E6
  8
0
 10
186.1749167582472921
 20
18.987378866567461
 30
0.0
 40
0.1493484149904497
 50
36.3339208313113318
 51
64.9103734683186815
  0
ARC
  5
36E7
  8
0
 10
186.2526931625087911
 20
19.0464906370586498
 30
0.0
 40
0.0516932024264371
 50
351.6114456744430186
 51
34.6296848670782467
  0
ARC
  5
36E8
  8
0
 10
186.2092297424082972
 20
19.0668151548365188
 30
0.0
 40
0.0986222121396045
 50
296.9921606430747261
 51
343.5874863860377104
  0
ARC
  5
36E9
  8
0
 10
186.0345746531901909
 20
19.3626936944832515
 30
0.0
 40
0.4420561298116025
 50
295.8778291068676936
 51
299.7591168584107209
  0
ARC
  5
36EA
  8
0
 10
185.8582778919519001
 20
17.9805818620869289
 30
0.0
 40
1.192495736994958
 50
88.6757536435427767
 51
90.0000000000032543
  0
LINE
  5
36EB
  8
0
 10
185.8858369470694925
 20
19.1727591061375691
 30
0.0
 11
185.8858369470694925
 21
19.1843216401029117
 31
0.0
  0
ARC
  5
36EC
  8
0
 10
185.8575431818497918
 20
17.8137589518771016
 30
0.0
 40
1.3708547039888881
 50
88.817359384546009
 51
89.969292303620108
  0
LINE
  5
36ED
  8
0
 10
185.9065062384518967
 20
19.1837179394818911
 30
0.0
 11
185.9065062384518967
 21
19.1659616414523697
 31
0.0
  0
ARC
  5
36EE
  8
0
 10
186.2035893466058951
 20
19.0314749539788615
 30
0.0
 40
0.0821173532273102
 50
21.9761006788213393
 51
52.5711349847283316
  0
ARC
  5
36EF
  8
0
 10
186.1009423556349134
 20
18.9008188416235399
 30
0.0
 40
0.2482677709611471
 50
52.0857470796497566
 51
68.7038906855412534
  0
LINE
  5
36F0
  8
0
 10
186.2797400554518958
 20
19.0622048944818907
 30
0.0
 11
186.2252006365521879
 21
19.0622048944818907
 31
0.0
  0
ARC
  5
36F1
  8
0
 10
186.1174725382626889
 20
19.0157044816139695
 30
0.0
 40
0.1377617898172306
 50
32.4417352230568312
 51
57.6880192956474787
  0
LINE
  5
36F2
  8
0
 10
186.2337348644518897
 20
19.0896056471994093
 30
0.0
 11
186.2237721442184011
 21
19.0896056470503908
 31
0.0
  0
LINE
  5
36F3
  8
0
 10
186.2337348644518897
 20
19.0896056469818909
 30
0.0
 11
186.2337348644518897
 21
19.1105878471989712
 31
0.0
  0
ARC
  5
36F4
  8
0
 10
186.0628378985597067
 20
19.006239718810491
 30
0.0
 40
0.1690809262294628
 50
277.2266160467299869
 51
278.2431581850677276
  0
LINE
  5
36F5
  8
0
 10
186.2734018532856908
 20
19.0747123638475102
 30
0.0
 11
186.223772025809609
 21
19.0747123638475102
 31
0.0
  0
ARC
  5
36F6
  8
0
 10
186.0125015655561924
 20
19.3926408990093684
 30
0.0
 40
0.5280558801515167
 50
286.2463993294492752
 51
288.2111426635589737
  0
ARC
  5
36F7
  8
0
 10
185.9517232437522978
 20
19.5907209253250301
 30
0.0
 40
0.7352205793737809
 50
287.8861813083037759
 51
293.9859819956146794
  0
ARC
  5
36F8
  8
0
 10
185.7659894499716131
 20
19.974543608731981
 30
0.0
 40
1.161481854752056
 50
294.6601292497073246
 51
301.412568030203488
  0
ARC
  5
36F9
  8
0
 10
186.3063793171830014
 20
19.0767934109331101
 30
0.0
 40
0.1138578353148451
 50
304.7942420002888753
 51
338.6319945681319723
  0
ARC
  5
36FA
  8
0
 10
186.3549011344994994
 20
19.0539682796534393
 30
0.0
 40
0.0604608399969064
 50
342.0235936032095196
 51
22.8605698674790894
  0
ARC
  5
36FB
  8
0
 10
186.3512251837867097
 20
19.045561655379359
 30
0.0
 40
0.0674106941473054
 50
28.2386568709561914
 51
60.7269819976749687
  0
ARC
  5
36FC
  8
0
 10
186.1899794978162106
 20
18.7712974112712701
 30
0.0
 40
0.3855514676772835
 50
59.7539888750660921
 51
78.0893849116987013
  0
ARC
  5
36FD
  8
0
 10
185.8957454992423948
 20
17.5925811337119917
 30
0.0
 40
1.6002389693330259
 50
76.4912417337332755
 51
84.4210375671024877
  0
ARC
  5
36FE
  8
0
 10
185.8476374377879097
 20
17.3044277760199705
 30
0.0
 40
1.891808652214922
 50
83.8193405662994024
 51
89.6777389037667803
  0
ARC
  5
36FF
  8
0
 10
193.8428902414034951
 20
34.591093950034761
 30
0.0
 40
17.1983372264354486
 50
243.8934226228398927
 51
244.0243901789993117
  0
ARC
  5
3700
  8
0
 10
186.2245138700621965
 20
18.95263768945577
 30
0.0
 40
0.1970936245510836
 50
41.3445246845962586
 51
64.2254522002168073
  0
ARC
  5
3701
  8
0
 10
186.3066666718482907
 20
19.0289102534548107
 30
0.0
 40
0.085085441935165
 50
21.4902870592057091
 51
39.3288017373863212
  0
LINE
  5
3702
  8
0
 10
186.3858369470518994
 20
18.9952453164232011
 30
0.0
 11
186.3858369470518994
 21
19.1034082415283883
 31
0.0
  0
LINE
  5
3703
  8
0
 10
186.3858369470518994
 20
19.0493267789758001
 30
0.0
 11
186.3454498068518035
 21
19.049312367681889
 31
0.0
  0
LINE
  5
3704
  8
0
 10
186.3454498069139049
 20
19.0288041374818917
 30
0.0
 11
186.3454498069141039
 21
19.028736075112981
 31
0.0
  0
LINE
  5
3705
  8
0
 10
186.3454498069141039
 20
19.028736075112981
 30
0.0
 11
186.3858369470518994
 21
19.028736075112981
 31
0.0
  0
ARC
  5
3706
  8
0
 10
186.2947708242942042
 20
19.0390242212441514
 30
0.0
 40
0.0517127182635651
 50
348.5245475027193152
 51
11.4754528438784398
  0
ARC
  5
3707
  8
0
 10
186.226291925603789
 20
19.0659311839738699
 30
0.0
 40
0.0868685420947158
 50
306.5397434765973799
 51
340.9079801908779928
  0
ARC
  5
3708
  8
0
 10
186.2504610472132924
 20
19.0553894590835888
 30
0.0
 40
0.0606156968042497
 50
342.8522034917800738
 51
47.1657812989162935
  0
LINE
  5
3709
  8
0
 10
186.2815943541513093
 20
19.0555356003140517
 30
0.0
 11
186.2460794127518966
 21
19.0555356003140517
 31
0.0
  0
LINE
  5
370A
  8
0
 10
186.2460794127518966
 20
19.0375309299818909
 30
0.0
 11
186.2815943541376953
 21
19.0375309299818909
 31
0.0
  0
ARC
  5
370B
  8
0
 10
186.2368264553311974
 20
19.0465332651817789
 30
0.0
 40
0.0456640646745408
 50
348.630080885095424
 51
11.3699190283712799
  0
ARC
  5
370C
  8
0
 10
186.2051366285166125
 20
19.0465332651479713
 30
0.0
 40
0.041920801750201
 50
347.5993589486330961
 51
12.4006410513692806
  0
ARC
  5
370D
  8
0
 10
435.8988737928561932
 20
39.6179305626911926
 30
0.0
 40
250.8282203606642895
 50
184.7100845337996873
 51
184.7224779863340984
  0
ARC
  5
370E
  8
0
 10
185.9637055613505936
 20
18.912674273703999
 30
0.0
 40
0.0677528540098956
 50
63.5523384184984295
 51
93.0444692392224653
  0
ARC
  5
370F
  8
0
 10
185.9573181669796043
 20
18.9093628030558598
 30
0.0
 40
0.0710234794679802
 50
87.7495131592106929
 51
116.727326873542097
  0
ARC
  5
3710
  8
0
 10
185.9570605770030909
 20
19.0174431783574285
 30
0.0
 40
0.0656034956839314
 50
244.115453479889311
 51
271.8254707491918225
  0
ARC
  5
3711
  8
0
 10
185.9611846486515958
 20
19.0254176312861496
 30
0.0
 40
0.07357278353501
 50
268.4155859295307209
 51
293.2455432927961283
  0
ARC
  5
3712
  8
0
 10
185.9852426779715131
 20
18.9692466386666716
 30
0.0
 40
0.0124667695769555
 50
293.5401187959809022
 51
352.9912643917122068
  0
ARC
  5
3713
  8
0
 10
185.9911036872692875
 20
18.9674386884713684
 30
0.0
 40
0.0065189126800501
 50
2.5210758366884551
 51
64.7802737965896398
  0
ARC
  5
3714
  8
0
 10
185.9345227727494887
 20
18.9693357880004605
 30
0.0
 40
0.012504403638698
 50
189.0490282726958924
 51
240.7915596341678963
  0
ARC
  5
3715
  8
0
 10
185.9289754539387047
 20
18.9670163929754416
 30
0.0
 40
0.0068105956470966
 50
121.9075753487040998
 51
177.0314333367363986
  0
ARC
  5
3716
  8
0
 10
185.9531841923736124
 20
18.9666749003086217
 30
0.0
 40
0.0652499155954003
 50
84.9827661179107139
 51
122.930450951504497
  0
ARC
  5
3717
  8
0
 10
185.9212846042997
 20
19.0176417199221213
 30
0.0
 40
0.0052146246316665
 50
133.2294643910105947
 51
181.7999993480281944
  0
ARC
  5
3718
  8
0
 10
185.9225901883467031
 20
19.0182385095847799
 30
0.0
 40
0.006561864289348
 50
186.6561084718489099
 51
230.23049868893591
  0
ARC
  5
3719
  8
0
 10
185.9595595122123939
 20
18.917577318291471
 30
0.0
 40
0.1140994489838105
 50
76.8715438959942645
 51
90.3358760913735352
  0
ARC
  5
371A
  8
0
 10
185.9798630226744081
 20
18.9992839551065593
 30
0.0
 40
0.029941355615215
 50
44.8499963286578023
 51
79.1960684304795706
  0
ARC
  5
371B
  8
0
 10
185.9970245374481976
 20
19.0177227556065809
 30
0.0
 40
0.0048680148072182
 50
338.2909614434727246
 51
33.3673740859512193
  0
ARC
  5
371C
  8
0
 10
185.9944624620603122
 20
19.0189361059922284
 30
0.0
 40
0.0076992782289175
 50
312.9774019431155239
 51
336.9543244207471844
  0
ARC
  5
371D
  8
0
 10
155.2619697137355104
 20
20.4027856699060806
 30
0.0
 40
30.7691301203046983
 50
357.3267774237477283
 51
357.4267830981033853
  0
ARC
  5
371E
  8
0
 10
185.9597567337492876
 20
18.9961636519629202
 30
0.0
 40
0.0390654347978623
 50
247.0290193212717895
 51
270.9208877584460993
  0
ARC
  5
371F
  8
0
 10
185.9615796547136881
 20
19.0053853734652307
 30
0.0
 40
0.0482968983602113
 50
268.5821173329151179
 51
288.7627437090499143
  0
ARC
  5
3720
  8
0
 10
185.9754758680334135
 20
18.9654639435505601
 30
0.0
 40
0.0060355620845221
 50
285.7518926679802007
 51
336.460476504018402
  0
ARC
  5
3721
  8
0
 10
185.9783898183798101
 20
18.9634508956370382
 30
0.0
 40
0.0026493423880896
 50
351.3721327138150059
 51
49.6962965589791779
  0
ARC
  5
3722
  8
0
 10
185.9718923870613878
 20
18.9559816110395012
 30
0.0
 40
0.0125490189578123
 50
49.1315565881930922
 51
76.5932518438811343
  0
ARC
  5
3723
  8
0
 10
185.9616214500800027
 20
18.9194527949880005
 30
0.0
 40
0.0504867455881449
 50
74.8664279346212567
 51
94.9677193655017078
  0
ARC
  5
3724
  8
0
 10
185.9582853076308879
 20
18.9385228169853512
 30
0.0
 40
0.0312442490727071
 50
91.8996731296321769
 51
119.4810832946104
  0
ARC
  5
3725
  8
0
 10
185.9464557941780072
 20
18.9649274898003313
 30
0.0
 40
0.0051156334220679
 50
205.2478947079162879
 51
247.6543765055778863
  0
ARC
  5
3726
  8
0
 10
185.9438986325727967
 20
18.9635150670267087
 30
0.0
 40
0.002208219957242
 50
145.4778372920036986
 51
200.3959241824192929
  0
ARC
  5
3727
  8
0
 10
185.9459451253974862
 20
18.9622460032183504
 30
0.0
 40
0.0046149633355786
 50
131.1408785517755859
 51
146.8958993661217107
  0
ARC
  5
3728
  8
0
 10
435.9838302193062987
 20
39.5991235582911969
 30
0.0
 40
250.8282203606642895
 50
184.7100845337996873
 51
184.7224779863340984
  0
ARC
  5
3729
  8
0
 10
186.0486619878005001
 20
18.8938672693039891
 30
0.0
 40
0.0677528540098956
 50
63.5523384184984295
 51
93.0444692392224653
  0
ARC
  5
372A
  8
0
 10
186.0422745934295961
 20
18.8905557986558712
 30
0.0
 40
0.0710234794679802
 50
87.7495131592106929
 51
116.727326873542097
  0
ARC
  5
372B
  8
0
 10
186.0420170034531111
 20
18.9986361739574292
 30
0.0
 40
0.0656034956839314
 50
244.115453479889311
 51
271.8254707491918225
  0
ARC
  5
372C
  8
0
 10
186.0461410751015876
 20
19.0066106268861503
 30
0.0
 40
0.07357278353501
 50
268.4155859295307209
 51
293.2455432927961283
  0
ARC
  5
372D
  8
0
 10
186.0701991044215902
 20
18.9504396342666688
 30
0.0
 40
0.0124667695769555
 50
293.5401187959809022
 51
352.9912643917122068
  0
ARC
  5
372E
  8
0
 10
186.0760601137193078
 20
18.9486316840713691
 30
0.0
 40
0.0065189126800501
 50
2.5210758366884551
 51
64.7802737965896398
  0
ARC
  5
372F
  8
0
 10
186.0194791991995089
 20
18.9505287836004506
 30
0.0
 40
0.012504403638698
 50
189.0490282726958924
 51
240.7915596341678963
  0
ARC
  5
3730
  8
0
 10
186.0139318803886965
 20
18.9482093885754388
 30
0.0
 40
0.0068105956470966
 50
121.9075753487040998
 51
177.0314333367363986
  0
ARC
  5
3731
  8
0
 10
186.0381406188236042
 20
18.9478678959086189
 30
0.0
 40
0.0652499155954003
 50
84.9827661179107139
 51
122.930450951504497
  0
ARC
  5
3732
  8
0
 10
186.0062410307496918
 20
18.9988347155221184
 30
0.0
 40
0.0052146246316665
 50
133.2294643910105947
 51
181.7999993480281944
  0
ARC
  5
3733
  8
0
 10
186.0075466147968086
 20
18.9994315051847806
 30
0.0
 40
0.006561864289348
 50
186.6561084718489099
 51
230.23049868893591
  0
ARC
  5
3734
  8
0
 10
186.0445159386624141
 20
18.8987703138914718
 30
0.0
 40
0.1140994489838105
 50
76.8715438959942645
 51
90.3358760913735352
  0
ARC
  5
3735
  8
0
 10
186.0648194491243999
 20
18.98047695070656
 30
0.0
 40
0.029941355615215
 50
44.8499963286578023
 51
79.1960684304795706
  0
ARC
  5
3736
  8
0
 10
186.0819809638981894
 20
18.9989157512065816
 30
0.0
 40
0.0048680148072182
 50
338.2909614434727246
 51
33.3673740859512193
  0
ARC
  5
3737
  8
0
 10
186.079418888510304
 20
19.0001291015922291
 30
0.0
 40
0.0076992782289175
 50
312.9774019431155239
 51
336.9543244207471844
  0
ARC
  5
3738
  8
0
 10
155.3469261401855022
 20
20.3839786655060813
 30
0.0
 40
30.7691301203046983
 50
357.3267774237477852
 51
357.4267830981033853
  0
ARC
  5
3739
  8
0
 10
186.0447131601993078
 20
18.9773566475629316
 30
0.0
 40
0.0390654347978623
 50
247.0290193212717895
 51
270.9208877584460993
  0
ARC
  5
373A
  8
0
 10
186.0465360811635946
 20
18.9865783690652314
 30
0.0
 40
0.0482968983602113
 50
268.5821173329151179
 51
288.7627437090499143
  0
ARC
  5
373B
  8
0
 10
186.0604322944834053
 20
18.9466569391505608
 30
0.0
 40
0.0060355620845221
 50
285.7518926679802007
 51
336.460476504018402
  0
ARC
  5
373C
  8
0
 10
186.0633462448298872
 20
18.9446438912370283
 30
0.0
 40
0.0026493423880896
 50
351.3721327138150059
 51
49.6962965589791779
  0
ARC
  5
373D
  8
0
 10
186.056848813511408
 20
18.9371746066394984
 30
0.0
 40
0.0125490189578123
 50
49.1315565881930922
 51
76.5932518438811343
  0
ARC
  5
373E
  8
0
 10
186.0465778765299945
 20
18.9006457905880012
 30
0.0
 40
0.0504867455881449
 50
74.8664279346212567
 51
94.9677193655017078
  0
ARC
  5
373F
  8
0
 10
186.0432417340809934
 20
18.9197158125853484
 30
0.0
 40
0.0312442490727071
 50
91.8996731296321769
 51
119.4810832946104
  0
ARC
  5
3740
  8
0
 10
186.0314122206279137
 20
18.9461204854003284
 30
0.0
 40
0.0051156334220679
 50
205.2478947079162879
 51
247.6543765055778863
  0
ARC
  5
3741
  8
0
 10
186.0288550590227885
 20
18.9447080626267095
 30
0.0
 40
0.002208219957242
 50
145.4778372920036986
 51
200.3959241824192929
  0
ARC
  5
3742
  8
0
 10
186.0309015518475064
 20
18.9434389988183511
 30
0.0
 40
0.0046149633355786
 50
131.1408785517755859
 51
146.8958993661217107
  0
ARC
  5
3743
  8
0
 10
436.0426049293063215
 20
39.5710820945911905
 30
0.0
 40
250.8282203606642895
 50
184.7190651237953034
 51
184.7224779863340984
  0
ARC
  5
3744
  8
0
 10
186.1074366978004946
 20
18.8658258056040005
 30
0.0
 40
0.0677528540098956
 50
63.5523384184984295
 51
93.0444692392224653
  0
ARC
  5
3745
  8
0
 10
186.1010493034295905
 20
18.8625143349558613
 30
0.0
 40
0.0710234794679802
 50
87.7495131592106929
 51
116.727326873542097
  0
ARC
  5
3746
  8
0
 10
186.1007917134531056
 20
18.9705947102574299
 30
0.0
 40
0.0656034956839314
 50
244.115453479889311
 51
271.8254707491918225
  0
ARC
  5
3747
  8
0
 10
186.1049157851016105
 20
18.9785691631861511
 30
0.0
 40
0.07357278353501
 50
268.4155859295307209
 51
293.2455432927961283
  0
ARC
  5
3748
  8
0
 10
186.128973814421613
 20
18.9223981705666695
 30
0.0
 40
0.0124667695769555
 50
293.5401187959809022
 51
352.9912643917123205
  0
ARC
  5
3749
  8
0
 10
186.1348348237193022
 20
18.9205902203713698
 30
0.0
 40
0.0065189126800501
 50
2.5210758366884551
 51
64.7802737965896398
  0
ARC
  5
374A
  8
0
 10
186.0782539091995034
 20
18.9224873199004584
 30
0.0
 40
0.012504403638698
 50
189.0490282726958924
 51
240.7915596341678963
  0
ARC
  5
374B
  8
0
 10
186.072706590388691
 20
18.9201679248754395
 30
0.0
 40
0.0068105956470966
 50
121.9075753487040998
 51
177.0314333367363986
  0
ARC
  5
374C
  8
0
 10
186.0969153288235987
 20
18.9198264322086196
 30
0.0
 40
0.0652499155954003
 50
84.9827661179107139
 51
101.2528517389348934
  0
ARC
  5
374D
  8
0
 10
186.1032906486624086
 20
18.870728850191469
 30
0.0
 40
0.1140994489838105
 50
76.8715438959942645
 51
90.3358760913735352
  0
ARC
  5
374E
  8
0
 10
186.1235941591243943
 20
18.9524354870065608
 30
0.0
 40
0.029941355615215
 50
44.8499963286578023
 51
79.1960684304795706
  0
ARC
  5
374F
  8
0
 10
186.1407556738982123
 20
18.9708742875065788
 30
0.0
 40
0.0048680148072182
 50
338.2909614434727246
 51
33.3673740859512193
  0
ARC
  5
3750
  8
0
 10
186.1381935985102984
 20
18.9720876378922298
 30
0.0
 40
0.0076992782289175
 50
312.9774019431155239
 51
336.9543244207472981
  0
ARC
  5
3751
  8
0
 10
155.4057008501854966
 20
20.3559372018060785
 30
0.0
 40
30.7691301203046983
 50
357.3267774237477852
 51
357.4267830981036127
  0
ARC
  5
3752
  8
0
 10
186.1034878701993023
 20
18.9493151838629217
 30
0.0
 40
0.0390654347978623
 50
247.0290193212717895
 51
270.9208877584460993
  0
ARC
  5
3753
  8
0
 10
186.1053107911635891
 20
18.9585369053652286
 30
0.0
 40
0.0482968983602113
 50
268.5821173329151179
 51
288.7627437090499143
  0
ARC
  5
3754
  8
0
 10
186.119207004483286
 20
18.9186154754505615
 30
0.0
 40
0.0060355620845221
 50
285.7518926679802007
 51
336.4604765040185157
  0
ARC
  5
3755
  8
0
 10
186.12212095482991
 20
18.916602427537029
 30
0.0
 40
0.0026493423880896
 50
351.3721327138150059
 51
49.6962965589791779
  0
ARC
  5
3756
  8
0
 10
186.1156235235114025
 20
18.9091331429394991
 30
0.0
 40
0.0125490189578123
 50
49.1315565881930922
 51
76.5932518438811343
  0
ARC
  5
3757
  8
0
 10
186.1053525865299889
 20
18.8726043268879984
 30
0.0
 40
0.0504867455881449
 50
74.8664279346212567
 51
94.9677193655017078
  0
ARC
  5
3758
  8
0
 10
186.1020164440809026
 20
18.8916743488853491
 30
0.0
 40
0.0312442490727071
 50
91.8996731296321769
 51
119.4810832946104
  0
ARC
  5
3759
  8
0
 10
186.0901869306279934
 20
18.9180790217003292
 30
0.0
 40
0.0051156334220679
 50
205.2478947079162879
 51
247.6543765055778863
  0
ARC
  5
375A
  8
0
 10
186.0876297690228114
 20
18.9166665989267102
 30
0.0
 40
0.002208219957242
 50
145.4778372920036986
 51
200.3959241824192929
  0
ARC
  5
375B
  8
0
 10
186.0896762618475009
 20
18.9153975351183483
 30
0.0
 40
0.0046149633355786
 50
131.1408785517755859
 51
146.8958993661217107
  0
ARC
  5
375C
  8
0
 10
436.0619516555562996
 20
39.5380249697412012
 30
0.0
 40
250.8282203606642895
 50
184.7179360605929048
 51
184.7224779863340984
  0
ARC
  5
375D
  8
0
 10
186.126783424050501
 20
18.8327686807540005
 30
0.0
 40
0.0677528540098956
 50
63.5523384184984295
 51
93.0444692392224653
  0
ARC
  5
375E
  8
0
 10
186.1203960296795969
 20
18.8294572101058613
 30
0.0
 40
0.0710234794679802
 50
87.7495131592106929
 51
116.727326873542097
  0
ARC
  5
375F
  8
0
 10
186.120138439703112
 20
18.9375375854074299
 30
0.0
 40
0.0656034956839314
 50
244.115453479889311
 51
271.8254707491918225
  0
ARC
  5
3760
  8
0
 10
186.1242625113515885
 20
18.9455120383361511
 30
0.0
 40
0.07357278353501
 50
268.4155859295307209
 51
293.2455432927961283
  0
ARC
  5
3761
  8
0
 10
186.1483205406715058
 20
18.8893410457166695
 30
0.0
 40
0.0124667695769555
 50
293.5401187959809022
 51
352.9912643917123205
  0
ARC
  5
3762
  8
0
 10
186.1541815499693087
 20
18.8875330955213698
 30
0.0
 40
0.0065189126800501
 50
2.5210758366884551
 51
64.7802737965896398
  0
ARC
  5
3763
  8
0
 10
186.0976006354495098
 20
18.8894301950504584
 30
0.0
 40
0.012504403638698
 50
189.0490282726958924
 51
240.7915596341678963
  0
ARC
  5
3764
  8
0
 10
186.0920533166386974
 20
18.8871108000254395
 30
0.0
 40
0.0068105956470966
 50
121.9075753487040998
 51
177.0314333367363986
  0
ARC
  5
3765
  8
0
 10
186.1226373749123866
 20
18.8376717253414689
 30
0.0
 40
0.1140994489838105
 50
76.8715438959942645
 51
79.8762800710401422
  0
ARC
  5
3766
  8
0
 10
186.1429408853744008
 20
18.9193783621565608
 30
0.0
 40
0.029941355615215
 50
44.8499963286578023
 51
79.1960684304795706
  0
ARC
  5
3767
  8
0
 10
186.1601024001481903
 20
18.9378171626565788
 30
0.0
 40
0.0048680148072182
 50
338.2909614434727246
 51
33.3673740859512193
  0
ARC
  5
3768
  8
0
 10
186.1575403247603901
 20
18.9390305130422298
 30
0.0
 40
0.0076992782289175
 50
312.9774019431155239
 51
336.9543244207472981
  0
ARC
  5
3769
  8
0
 10
155.4250475764355031
 20
20.3228800769560785
 30
0.0
 40
30.7691301203046983
 50
357.3267774237477852
 51
357.4267830981036127
  0
ARC
  5
376A
  8
0
 10
186.1228345964493087
 20
18.9162580590129217
 30
0.0
 40
0.0390654347978623
 50
247.0290193212717895
 51
270.9208877584460993
  0
ARC
  5
376B
  8
0
 10
186.1246575174135955
 20
18.9254797805152286
 30
0.0
 40
0.0482968983602113
 50
268.5821173329151179
 51
288.7627437090499143
  0
ARC
  5
376C
  8
0
 10
186.1385537307334062
 20
18.8855583506005615
 30
0.0
 40
0.0060355620845221
 50
285.7518926679802007
 51
336.4604765040185157
  0
ARC
  5
376D
  8
0
 10
186.1414676810798881
 20
18.883545302687029
 30
0.0
 40
0.0026493423880896
 50
351.3721327138150059
 51
49.6962965589791779
  0
ARC
  5
376E
  8
0
 10
186.1349702497614089
 20
18.8760760180894991
 30
0.0
 40
0.0125490189578123
 50
49.1315565881930922
 51
76.5932518438811343
  0
ARC
  5
376F
  8
0
 10
186.1246993127799954
 20
18.8395472020379984
 30
0.0
 40
0.0504867455881449
 50
74.8664279346212567
 51
94.9677193655017078
  0
ARC
  5
3770
  8
0
 10
186.121363170330909
 20
18.8586172240353491
 30
0.0
 40
0.0312442490727071
 50
91.8996731296321769
 51
119.4810832946104
  0
ARC
  5
3771
  8
0
 10
186.1095336568778862
 20
18.8850218968503292
 30
0.0
 40
0.0051156334220679
 50
205.2478947079162879
 51
247.6543765055778863
  0
ARC
  5
3772
  8
0
 10
186.1069764952727894
 20
18.8836094740767102
 30
0.0
 40
0.002208219957242
 50
145.4778372920036986
 51
200.3959241824192929
  0
ARC
  5
3773
  8
0
 10
186.1090229880975073
 20
18.8823404102683483
 30
0.0
 40
0.0046149633355786
 50
131.1408785517755859
 51
146.8958993661217107
  0
ARC
  5
3774
  8
0
 10
185.9845245412508916
 20
18.8634460959151689
 30
0.0
 40
0.1140994489838105
 50
79.7188045011447315
 51
83.1991823726462485
  0
ARC
  5
3775
  8
0
 10
435.9450277201867152
 20
39.5482172463435333
 30
0.0
 40
250.8282203606642895
 50
184.7183598048264059
 51
184.7224779863340984
  0
ARC
  5
3776
  8
0
 10
186.0098594886808883
 20
18.842960957356329
 30
0.0
 40
0.0677528540098956
 50
63.5523384184984295
 51
93.0444692392224653
  0
ARC
  5
3777
  8
0
 10
186.0034720943098989
 20
18.8396494867082005
 30
0.0
 40
0.0710234794679802
 50
87.7495131592106929
 51
116.727326873542097
  0
ARC
  5
3778
  8
0
 10
186.0032145043334992
 20
18.9477298620097692
 30
0.0
 40
0.0656034956839314
 50
244.115453479889311
 51
271.8254707491918225
  0
ARC
  5
3779
  8
0
 10
186.0073385759820042
 20
18.9557043149384903
 30
0.0
 40
0.07357278353501
 50
268.4155859295307209
 51
293.2455432927961283
  0
ARC
  5
377A
  8
0
 10
186.031396605301893
 20
18.8995333223190087
 30
0.0
 40
0.0124667695769555
 50
293.5401187959809022
 51
352.9912643917122068
  0
ARC
  5
377B
  8
0
 10
186.0372576145996959
 20
18.8977253721237091
 30
0.0
 40
0.0065189126800501
 50
2.5210758366884551
 51
64.7802737965896398
  0
ARC
  5
377C
  8
0
 10
185.9806767000798118
 20
18.8996224716528012
 30
0.0
 40
0.012504403638698
 50
189.0490282726958071
 51
240.7915596341678963
  0
ARC
  5
377D
  8
0
 10
185.9751293812691131
 20
18.8973030766277788
 30
0.0
 40
0.0068105956470966
 50
121.9075753487040998
 51
177.0314333367363986
  0
ARC
  5
377E
  8
0
 10
186.005910661079696
 20
18.9264503356152609
 30
0.0
 40
0.0390654347978623
 50
247.0290193212717895
 51
270.9208877584460993
  0
ARC
  5
377F
  8
0
 10
186.0077335820440112
 20
18.9356720571175714
 30
0.0
 40
0.0482968983602113
 50
268.5821173329151179
 51
288.7627437090499143
  0
ARC
  5
3780
  8
0
 10
186.0216297953637081
 20
18.8957506272029008
 30
0.0
 40
0.0060355620845221
 50
285.7518926679802007
 51
336.460476504018402
  0
ARC
  5
3781
  8
0
 10
186.02454374571019
 20
18.8937375792893683
 30
0.0
 40
0.0026493423880896
 50
351.3721327138150059
 51
49.6962965589791779
  0
ARC
  5
3782
  8
0
 10
186.0180463143917109
 20
18.8862682946918383
 30
0.0
 40
0.0125490189578123
 50
49.1315565881930922
 51
76.5932518438811343
  0
ARC
  5
3783
  8
0
 10
186.007775377410411
 20
18.8497394786403412
 30
0.0
 40
0.0504867455881449
 50
74.8664279346212567
 51
94.9677193655017078
  0
ARC
  5
3784
  8
0
 10
186.0044392349612963
 20
18.8688095006376884
 30
0.0
 40
0.0312442490727071
 50
91.8996731296321769
 51
119.4810832946104
  0
ARC
  5
3785
  8
0
 10
185.9926097215083018
 20
18.8952141734526684
 30
0.0
 40
0.0051156334220679
 50
205.2478947079162879
 51
247.6543765055778863
  0
ARC
  5
3786
  8
0
 10
185.9900525599032051
 20
18.8938017506790494
 30
0.0
 40
0.002208219957242
 50
145.4778372920036986
 51
200.3959241824192929
  0
ARC
  5
3787
  8
0
 10
185.9920990527278946
 20
18.8925326868706911
 30
0.0
 40
0.0046149633355786
 50
131.1408785517755859
 51
146.8958993661217107
  0
ARC
  5
3788
  8
0
 10
436.0422824470044816
 20
39.5036156259369307
 30
0.0
 40
250.8282203606642895
 50
184.7100845337996873
 51
184.7224779863340984
  0
ARC
  5
3789
  8
0
 10
186.1071142154987967
 20
18.7983593369497299
 30
0.0
 40
0.0677528540098956
 50
63.5523384184984295
 51
93.0444692392224653
  0
ARC
  5
378A
  8
0
 10
186.1007268211278074
 20
18.7950478663016014
 30
0.0
 40
0.0710234794679802
 50
87.7495131592106929
 51
116.727326873542097
  0
ARC
  5
378B
  8
0
 10
186.1004692311514077
 20
18.9031282416031701
 30
0.0
 40
0.0656034956839314
 50
244.115453479889311
 51
271.8254707491918225
  0
ARC
  5
378C
  8
0
 10
186.1045933027999126
 20
18.9111026945318912
 30
0.0
 40
0.07357278353501
 50
268.4155859295307209
 51
293.2455432927961283
  0
ARC
  5
378D
  8
0
 10
186.1286513321198015
 20
18.854931701912399
 30
0.0
 40
0.0124667695769555
 50
293.5401187959809022
 51
352.9912643917122068
  0
ARC
  5
378E
  8
0
 10
186.1345123414174907
 20
18.85312375171711
 30
0.0
 40
0.0065189126800501
 50
2.5210758366884551
 51
64.7802737965896398
  0
ARC
  5
378F
  8
0
 10
186.0779314268976918
 20
18.8550208512461914
 30
0.0
 40
0.012504403638698
 50
189.0490282726958924
 51
240.7915596341678963
  0
ARC
  5
3790
  8
0
 10
186.0723841080869079
 20
18.8527014562211797
 30
0.0
 40
0.0068105956470966
 50
121.9075753487040998
 51
177.0314333367363986
  0
ARC
  5
3791
  8
0
 10
186.0965928465217871
 20
18.8523599635543597
 30
0.0
 40
0.0652499155954003
 50
113.1593533989528026
 51
122.930450951504497
  0
ARC
  5
3792
  8
0
 10
186.0646932584479885
 20
18.9033267831678486
 30
0.0
 40
0.0052146246316665
 50
133.2294643910105947
 51
181.7999993480281944
  0
ARC
  5
3793
  8
0
 10
186.0659988424949915
 20
18.9039235728305108
 30
0.0
 40
0.006561864289348
 50
186.6561084718489099
 51
230.23049868893591
  0
ARC
  5
3794
  8
0
 10
186.1031653878976044
 20
18.8818487152086583
 30
0.0
 40
0.0390654347978623
 50
247.0290193212717895
 51
270.9208877584460993
  0
ARC
  5
3795
  8
0
 10
186.104988308861806
 20
18.8910704367109687
 30
0.0
 40
0.0482968983602113
 50
268.5821173329151179
 51
288.7627437090499143
  0
ARC
  5
3796
  8
0
 10
186.1188845221815882
 20
18.851149006796291
 30
0.0
 40
0.0060355620845221
 50
285.7518926679802007
 51
336.460476504018402
  0
ARC
  5
3797
  8
0
 10
186.1217984725280985
 20
18.8491359588827692
 30
0.0
 40
0.0026493423880896
 50
351.3721327138150059
 51
49.6962965589791779
  0
ARC
  5
3798
  8
0
 10
186.1153010412095909
 20
18.8416666742852286
 30
0.0
 40
0.0125490189578123
 50
49.1315565881930922
 51
76.5932518438811343
  0
ARC
  5
3799
  8
0
 10
186.1050301042282911
 20
18.8051378582337385
 30
0.0
 40
0.0504867455881449
 50
74.8664279346212567
 51
94.9677193655017078
  0
ARC
  5
379A
  8
0
 10
186.1016939617792048
 20
18.8242078802310893
 30
0.0
 40
0.0312442490727071
 50
91.8996731296321769
 51
119.4810832946104
  0
ARC
  5
379B
  8
0
 10
186.0898644483262103
 20
18.8506125530460693
 30
0.0
 40
0.0051156334220679
 50
205.2478947079162879
 51
247.6543765055778863
  0
ARC
  5
379C
  8
0
 10
186.0873072867211135
 20
18.8492001302724503
 30
0.0
 40
0.002208219957242
 50
145.4778372920036986
 51
200.3959241824192929
  0
ARC
  5
379D
  8
0
 10
186.0893537795456893
 20
18.8479310664640884
 30
0.0
 40
0.0046149633355786
 50
131.1408785517755859
 51
146.8958993661217107
  0
ARC
  5
379E
  8
0
 10
185.848958758076293
 20
18.871557823333621
 30
0.0
 40
0.2926294288978087
 50
356.4445382306046213
 51
0.4793268954193082
  0
ARC
  5
379F
  8
0
 10
185.8198028162535991
 20
18.9453273368677806
 30
0.0
 40
0.22891073974311
 50
348.0711280580267157
 51
356.9310725792278163
  0
ARC
  5
37A0
  8
0
 10
186.0307779155178878
 20
18.6352611848796492
 30
0.0
 40
0.2573697652307205
 50
82.9249556826234198
 51
87.5850479546096352
  0
ARC
  5
37A1
  8
0
 10
185.9420718933448882
 20
18.9936201092306405
 30
0.0
 40
0.0810165244987045
 50
251.6828304181580904
 51
270.675325298563223
  0
ARC
  5
37A2
  8
0
 10
185.9211403791144903
 20
18.9331791108230583
 30
0.0
 40
0.0170821600971201
 50
210.3259496862278866
 51
254.6214296331299067
  0
ARC
  5
37A3
  8
0
 10
185.9169428898825061
 20
18.9296425460500508
 30
0.0
 40
0.0117105950291815
 50
185.8399338401169132
 51
205.755015487203309
  0
ARC
  5
37A4
  8
0
 10
185.9107019253553972
 20
18.9283022768783695
 30
0.0
 40
0.005410897090865
 50
134.1374488749223133
 51
178.4250128592744034
  0
ARC
  5
37A5
  8
0
 10
185.9230212170344032
 20
18.9144296025903209
 30
0.0
 40
0.0239598684556627
 50
104.1136185965660985
 51
132.1774278770124056
  0
ARC
  5
37A6
  8
0
 10
185.9421381828117887
 20
18.8479025441268
 30
0.0
 40
0.0931691626199361
 50
89.4535654732993777
 51
105.538994245134802
  0
ARC
  5
37A7
  8
0
 10
185.9427953278797929
 20
18.9697725876899312
 30
0.0
 40
0.0518545801196372
 50
255.758339762588605
 51
270.2557448191328717
  0
ARC
  5
37A8
  8
0
 10
185.9322033308239099
 20
18.9305630336719695
 30
0.0
 40
0.0112614077595597
 50
220.1694855167320952
 51
258.9166190051130911
  0
ARC
  5
37A9
  8
0
 10
185.9255452535664972
 20
18.9243225975557614
 30
0.0
 40
0.0021999280980069
 50
159.5944971622355126
 51
207.7330993576985918
  0
ARC
  5
37AA
  8
0
 10
185.9272531475259882
 20
18.9234718528448482
 30
0.0
 40
0.0041022421194389
 50
123.1875133672250939
 51
156.7736922195435056
  0
ARC
  5
37AB
  8
0
 10
185.9360077749049935
 20
18.9099764418992713
 30
0.0
 40
0.0201885366822612
 50
94.1053664751197232
 51
123.0157403415511936
  0
ARC
  5
37AC
  8
0
 10
185.9430342943101095
 20
18.8728220236151607
 30
0.0
 40
0.057914144806837
 50
90.0074294755302731
 51
98.4115613404007661
  0
ARC
  5
37AD
  8
0
 10
185.9425700328505968
 20
18.8759578245894915
 30
0.0
 40
0.1163737562821757
 50
101.0371953385978969
 51
102.2054766292533969
  0
ARC
  5
37AE
  8
0
 10
185.9239601476897974
 20
18.9556299229174385
 30
0.0
 40
0.0345942815277707
 50
99.9771514789715496
 51
129.7821391618626876
  0
ARC
  5
37AF
  8
0
 10
185.9058723749992907
 20
18.9781262751717286
 30
0.0
 40
0.0057536881735497
 50
134.7134840198835946
 51
180.2187251008961937
  0
ARC
  5
37B0
  8
0
 10
185.906665294791793
 20
18.9788984209566891
 30
0.0
 40
0.0065945536676979
 50
186.9162912019048974
 51
229.2424564872779911
  0
ARC
  5
37B1
  8
0
 10
507.8371311080813939
 20
39.7259928425171225
 30
0.0
 40
322.6029232474897981
 50
183.6867349559990998
 51
183.6963035536552127
  0
ARC
  5
37B2
  8
0
 10
185.9439816759588098
 20
18.9936201092306405
 30
0.0
 40
0.0810165244987045
 50
269.324674701436777
 51
288.3171695818418812
  0
ARC
  5
37B3
  8
0
 10
185.9649131901892929
 20
18.9331791108230583
 30
0.0
 40
0.0170821600971201
 50
285.3785703668701217
 51
329.6740503137719998
  0
ARC
  5
37B4
  8
0
 10
185.9691106794211919
 20
18.9296425460500508
 30
0.0
 40
0.0117105950291815
 50
334.244984512796691
 51
354.1600661598830015
  0
ARC
  5
37B5
  8
0
 10
185.9753516439483008
 20
18.9283022768783695
 30
0.0
 40
0.005410897090865
 50
1.574987140725522
 51
45.8625511250777009
  0
ARC
  5
37B6
  8
0
 10
185.9630323522692947
 20
18.9144296025903209
 30
0.0
 40
0.0239598684556627
 50
47.8225721229876086
 51
75.8863814034338731
  0
ARC
  5
37B7
  8
0
 10
185.9439153864919092
 20
18.8479025441268
 30
0.0
 40
0.0931691626199361
 50
74.4610057548651696
 51
90.5464345267006507
  0
ARC
  5
37B8
  8
0
 10
185.943258241423905
 20
18.9697725876899312
 30
0.0
 40
0.0518545801196372
 50
269.744255180865423
 51
284.241660237411395
  0
ARC
  5
37B9
  8
0
 10
185.953850238479788
 20
18.9305630336719695
 30
0.0
 40
0.0112614077595597
 50
281.0833809948869089
 51
319.8305144832668248
  0
ARC
  5
37BA
  8
0
 10
185.9605083157372007
 20
18.9243225975557614
 30
0.0
 40
0.0021999280980069
 50
332.2669006423013798
 51
20.4055028377645193
  0
ARC
  5
37BB
  8
0
 10
185.958800421777795
 20
18.9234718528448482
 30
0.0
 40
0.0041022421194389
 50
23.2263077804564517
 51
56.8124866327748279
  0
ARC
  5
37BC
  8
0
 10
185.9500457943987897
 20
18.9099764418992713
 30
0.0
 40
0.0201885366822612
 50
56.9842596584487566
 51
85.8946335248802626
  0
ARC
  5
37BD
  8
0
 10
185.9430192749937021
 20
18.8728220236151607
 30
0.0
 40
0.057914144806837
 50
81.5884386595992339
 51
89.9925705244697411
  0
ARC
  5
37BE
  8
0
 10
-135.951077538777497
 20
39.7259928425171225
 30
0.0
 40
322.6029232474897981
 50
356.3036964463445884
 51
356.3084201324738274
  0
ARC
  5
37BF
  8
0
 10
185.8864454837448932
 20
18.9038528375274204
 30
0.0
 40
0.0810165244987045
 50
251.6828304181580904
 51
270.675325298563223
  0
ARC
  5
37C0
  8
0
 10
185.8655139695144953
 20
18.8434118391198311
 30
0.0
 40
0.0170821600971201
 50
210.3259496862278866
 51
254.6214296331299067
  0
ARC
  5
37C1
  8
0
 10
185.8613164802825111
 20
18.8398752743468307
 30
0.0
 40
0.0117105950291815
 50
185.8399338401169132
 51
205.755015487203309
  0
ARC
  5
37C2
  8
0
 10
185.8550755157554022
 20
18.8385350051751388
 30
0.0
 40
0.005410897090865
 50
134.1374488749223133
 51
178.4250128592744034
  0
ARC
  5
37C3
  8
0
 10
185.8673948074344082
 20
18.8246623308871008
 30
0.0
 40
0.0239598684556627
 50
104.1136185965660985
 51
132.1774278770124056
  0
ARC
  5
37C4
  8
0
 10
185.8865117732117938
 20
18.7581352724235799
 30
0.0
 40
0.0931691626199361
 50
89.4535654732993777
 51
105.538994245134802
  0
ARC
  5
37C5
  8
0
 10
185.8871689182797979
 20
18.8800053159867005
 30
0.0
 40
0.0518545801196372
 50
255.758339762588605
 51
270.2557448191328717
  0
ARC
  5
37C6
  8
0
 10
185.8765769212238865
 20
18.8407957619687387
 30
0.0
 40
0.0112614077595597
 50
220.1694855167320952
 51
258.9166190051130911
  0
ARC
  5
37C7
  8
0
 10
185.8699188439665022
 20
18.8345553258525307
 30
0.0
 40
0.0021999280980069
 50
159.5944971622355126
 51
207.7330993576985918
  0
ARC
  5
37C8
  8
0
 10
185.8716267379259932
 20
18.833704581141621
 30
0.0
 40
0.0041022421194389
 50
123.1875133672250939
 51
156.7736922195435056
  0
ARC
  5
37C9
  8
0
 10
185.8803813653049133
 20
18.8202091701960406
 30
0.0
 40
0.0201885366822612
 50
94.1053664751197232
 51
123.0157403415511936
  0
ARC
  5
37CA
  8
0
 10
185.8874078847100861
 20
18.7830547519119406
 30
0.0
 40
0.057914144806837
 50
90.0074294755302731
 51
98.4115613404007661
  0
ARC
  5
37CB
  8
0
 10
185.8869436232504881
 20
18.7861905528862607
 30
0.0
 40
0.1163737562821757
 50
89.7751209677483644
 51
102.2054766292533969
  0
ARC
  5
37CC
  8
0
 10
185.8683337380898024
 20
18.8658626512142114
 30
0.0
 40
0.0345942815277707
 50
99.9771514789715496
 51
129.7821391618626876
  0
ARC
  5
37CD
  8
0
 10
185.8502459653992958
 20
18.8883590034685085
 30
0.0
 40
0.0057536881735497
 50
134.7134840198835946
 51
180.2187251008961937
  0
ARC
  5
37CE
  8
0
 10
185.851038885191798
 20
18.8891311492534584
 30
0.0
 40
0.0065945536676979
 50
186.9162912019048974
 51
229.2424564872779911
  0
ARC
  5
37CF
  8
0
 10
507.7815046984813989
 20
39.6362255708138917
 30
0.0
 40
322.6029232474897981
 50
183.6867349559990998
 51
183.6963035536552127
  0
ARC
  5
37D0
  8
0
 10
185.8883552663587864
 20
18.9038528375274204
 30
0.0
 40
0.0810165244987045
 50
269.324674701436777
 51
288.3171695818418812
  0
ARC
  5
37D1
  8
0
 10
185.9092867805892979
 20
18.8434118391198311
 30
0.0
 40
0.0170821600971201
 50
285.3785703668701217
 51
329.6740503137719998
  0
ARC
  5
37D2
  8
0
 10
185.9134842698211969
 20
18.8398752743468307
 30
0.0
 40
0.0117105950291815
 50
334.244984512796691
 51
354.1600661598830015
  0
ARC
  5
37D3
  8
0
 10
185.9197252343483058
 20
18.8385350051751388
 30
0.0
 40
0.005410897090865
 50
1.574987140725522
 51
45.8625511250777009
  0
ARC
  5
37D4
  8
0
 10
185.9074059426692997
 20
18.8246623308871008
 30
0.0
 40
0.0239598684556627
 50
47.8225721229876086
 51
75.8863814034338731
  0
ARC
  5
37D5
  8
0
 10
185.8882889768919995
 20
18.7581352724235799
 30
0.0
 40
0.0931691626199361
 50
74.4610057548651696
 51
90.5464345267006507
  0
ARC
  5
37D6
  8
0
 10
185.88763183182391
 20
18.8800053159867005
 30
0.0
 40
0.0518545801196372
 50
269.744255180865423
 51
284.241660237411395
  0
ARC
  5
37D7
  8
0
 10
185.898223828879793
 20
18.8407957619687387
 30
0.0
 40
0.0112614077595597
 50
281.0833809948869089
 51
319.8305144832668248
  0
ARC
  5
37D8
  8
0
 10
185.9048819061372058
 20
18.8345553258525307
 30
0.0
 40
0.0021999280980069
 50
332.2669006423013798
 51
20.4055028377645193
  0
ARC
  5
37D9
  8
0
 10
185.9031740121778
 20
18.833704581141621
 30
0.0
 40
0.0041022421194389
 50
23.2263077804564517
 51
56.8124866327748279
  0
ARC
  5
37DA
  8
0
 10
185.8944193847987947
 20
18.8202091701960406
 30
0.0
 40
0.0201885366822612
 50
56.9842596584487566
 51
85.8946335248802626
  0
ARC
  5
37DB
  8
0
 10
185.8873928653937071
 20
18.7830547519119406
 30
0.0
 40
0.057914144806837
 50
81.5884386595992339
 51
89.9925705244697411
  0
ARC
  5
37DC
  8
0
 10
185.8878571268531914
 20
18.7861905528862607
 30
0.0
 40
0.1163737562821757
 50
77.7945233707465746
 51
90.2248790322516356
  0
ARC
  5
37DD
  8
0
 10
185.9064670120139908
 20
18.8658626512142114
 30
0.0
 40
0.0345942815277707
 50
50.2178608381372626
 51
80.0228485210284646
  0
ARC
  5
37DE
  8
0
 10
185.9245547847044975
 20
18.8883590034685085
 30
0.0
 40
0.0057536881735497
 50
359.7812748991036074
 51
45.2865159801163983
  0
ARC
  5
37DF
  8
0
 10
185.9237618649119952
 20
18.8891311492534584
 30
0.0
 40
0.0065945536676979
 50
310.7575435127220089
 51
353.0837087980950173
  0
ARC
  5
37E0
  8
0
 10
-136.006703948377492
 20
39.6362255708138917
 30
0.0
 40
322.6029232474897981
 50
356.3036964463445884
 51
356.3132650440009002
  0
ARC
  5
37E1
  8
0
 10
185.9835155801949043
 20
18.9249300412274089
 30
0.0
 40
0.0810165244987045
 50
251.6828304181580904
 51
270.675325298563223
  0
ARC
  5
37E2
  8
0
 10
185.9625840659645064
 20
18.8644890428198302
 30
0.0
 40
0.0170821600971201
 50
210.3259496862278866
 51
254.6214296331299067
  0
ARC
  5
37E3
  8
0
 10
185.9583865767324937
 20
18.8609524780468192
 30
0.0
 40
0.0117105950291815
 50
185.8399338401169132
 51
205.755015487203309
  0
ARC
  5
37E4
  8
0
 10
185.9521456122054133
 20
18.8596122088751414
 30
0.0
 40
0.005410897090865
 50
134.1374488749223133
 51
178.4250128592744034
  0
ARC
  5
37E5
  8
0
 10
185.9644649038843909
 20
18.8457395345870999
 30
0.0
 40
0.0239598684556627
 50
104.1136185965660985
 51
132.1774278770124056
  0
ARC
  5
37E6
  8
0
 10
185.9835818696618048
 20
18.7792124761235684
 30
0.0
 40
0.0931691626199361
 50
89.4535654732993777
 51
105.538994245134802
  0
ARC
  5
37E7
  8
0
 10
185.984239014729809
 20
18.9010825196866996
 30
0.0
 40
0.0518545801196372
 50
255.758339762588605
 51
270.2557448191328717
  0
ARC
  5
37E8
  8
0
 10
185.9736470176738976
 20
18.8618729656687414
 30
0.0
 40
0.0112614077595597
 50
220.1694855167320952
 51
258.9166190051130911
  0
ARC
  5
37E9
  8
0
 10
185.9669889404165133
 20
18.8556325295525404
 30
0.0
 40
0.0021999280980069
 50
159.5944971622355126
 51
207.7330993576985918
  0
ARC
  5
37EA
  8
0
 10
185.9686968343760043
 20
18.8547817848416202
 30
0.0
 40
0.0041022421194389
 50
123.1875133672250939
 51
156.7736922195435056
  0
ARC
  5
37EB
  8
0
 10
185.9774514617550096
 20
18.8412863738960397
 30
0.0
 40
0.0201885366822612
 50
94.1053664751197232
 51
123.0157403415511936
  0
ARC
  5
37EC
  8
0
 10
185.9844779811600972
 20
18.8041319556119397
 30
0.0
 40
0.057914144806837
 50
90.0074294755302731
 51
98.4115613404007661
  0
ARC
  5
37ED
  8
0
 10
185.9473160618493068
 20
18.9094362071685005
 30
0.0
 40
0.0057536881735497
 50
146.5846547962622139
 51
180.2187251008961937
  0
ARC
  5
37EE
  8
0
 10
185.9481089816418091
 20
18.910208352953461
 30
0.0
 40
0.0065945536676979
 50
186.9162912019048974
 51
229.2424564872779911
  0
ARC
  5
37EF
  8
0
 10
507.8785747949312963
 20
39.6573027745138873
 30
0.0
 40
322.6029232474897981
 50
183.6868984677309129
 51
183.6963035536552127
  0
ARC
  5
37F0
  8
0
 10
185.9854253628087974
 20
18.9249300412274089
 30
0.0
 40
0.0810165244987045
 50
269.324674701436777
 51
288.3171695818418812
  0
ARC
  5
37F1
  8
0
 10
186.006356877039309
 20
18.8644890428198302
 30
0.0
 40
0.0170821600971201
 50
285.3785703668701217
 51
329.6740503137719998
  0
ARC
  5
37F2
  8
0
 10
186.010554366271208
 20
18.8609524780468192
 30
0.0
 40
0.0117105950291815
 50
334.244984512796691
 51
354.1600661598830015
  0
ARC
  5
37F3
  8
0
 10
186.0167953307982884
 20
18.8596122088751414
 30
0.0
 40
0.005410897090865
 50
1.574987140725522
 51
45.8625511250777009
  0
ARC
  5
37F4
  8
0
 10
186.0044760391193108
 20
18.8457395345870999
 30
0.0
 40
0.0239598684556627
 50
47.8225721229876086
 51
75.8863814034338731
  0
ARC
  5
37F5
  8
0
 10
185.9853590733420106
 20
18.7792124761235684
 30
0.0
 40
0.0931691626199361
 50
74.4610057548651696
 51
90.5464345267006507
  0
ARC
  5
37F6
  8
0
 10
185.9847019282738927
 20
18.9010825196866996
 30
0.0
 40
0.0518545801196372
 50
269.744255180865423
 51
284.241660237411395
  0
ARC
  5
37F7
  8
0
 10
185.9952939253298041
 20
18.8618729656687414
 30
0.0
 40
0.0112614077595597
 50
281.0833809948869089
 51
319.8305144832668248
  0
ARC
  5
37F8
  8
0
 10
186.0019520025871884
 20
18.8556325295525404
 30
0.0
 40
0.0021999280980069
 50
332.2669006423013798
 51
20.4055028377645193
  0
ARC
  5
37F9
  8
0
 10
186.0002441086278111
 20
18.8547817848416202
 30
0.0
 40
0.0041022421194389
 50
23.2263077804564517
 51
56.8124866327748279
  0
ARC
  5
37FA
  8
0
 10
185.9914894812488058
 20
18.8412863738960397
 30
0.0
 40
0.0201885366822612
 50
56.9842596584487566
 51
85.8946335248802626
  0
ARC
  5
37FB
  8
0
 10
185.9844629618436898
 20
18.8041319556119397
 30
0.0
 40
0.057914144806837
 50
81.5884386595992339
 51
89.9925705244697411
  0
ARC
  5
37FC
  8
0
 10
-135.9096338519275093
 20
39.6573027745138873
 30
0.0
 40
322.6029232474897981
 50
356.3036964463445884
 51
356.3080085157444046
  0
ARC
  5
37FD
  8
0
 10
185.9485291384513062
 20
18.8179081679412405
 30
0.0
 40
0.0547288926433516
 50
92.7438243146289949
 51
113.1166842809513042
  0
LINE
  5
37FE
  8
0
 10
185.8752156784385079
 20
19.0962607567985287
 30
0.0
 11
185.841340105465207
 21
19.0962607567985287
 31
0.0
  0
LINE
  5
37FF
  8
0
 10
185.8863217439759126
 20
19.1980851298818784
 30
0.0
 11
185.8302340399278876
 21
19.1980851298818784
 31
0.0
  0
LINE
  5
3800
  8
0
 10
186.8307188368519007
 20
15.1659832143818907
 30
0.0
 11
184.8858369470518994
 21
15.1659832143818907
 31
0.0
  0
LINE
  5
3801
  8
0
 10
184.8858369470518994
 20
15.1659832143818907
 30
0.0
 11
184.8858369470518994
 21
15.2151958127818894
 31
0.0
  0
ARC
  5
3802
  8
0
 10
184.8956794667518864
 20
15.2151958127818894
 30
0.0
 40
0.0098425197000003
 50
90.0000046569964667
 51
180.0000000000009095
  0
LINE
  5
3803
  8
0
 10
184.8956794659519005
 20
15.2250383324818905
 30
0.0
 11
186.8208763171519138
 21
15.2250384889617294
 31
0.0
  0
ARC
  5
3804
  8
0
 10
186.8208763179518996
 20
15.2151959700604706
 30
0.0
 40
0.009842518901263
 50
359.9990844418269944
 51
90.0000046569948466
  0
LINE
  5
3805
  8
0
 10
186.8307188368519007
 20
15.2151958127818894
 30
0.0
 11
186.8307180504588985
 21
15.1659832143881701
 31
0.0
  0
ARC
  5
3806
  8
0
 10
186.815517995805692
 20
15.2328674200627106
 30
0.0
 40
0.0078300746589421
 50
266.9139686963684994
 51
1.75850812784988
  0
LINE
  5
3807
  8
0
 10
186.8233443828519
 20
15.2331077010818898
 30
0.0
 11
186.7880935777519085
 21
19.384665050881889
 31
0.0
  0
ARC
  5
3808
  8
0
 10
187.9650433369857012
 20
19.3873922920733683
 30
0.0
 40
1.176952919026524
 50
179.5455183098995064
 51
180.1327661857137059
  0
ARC
  5
3809
  8
0
 10
186.762140103361105
 20
19.396934163492471
 30
0.0
 40
0.0259881588217581
 50
359.5455183098993075
 51
15.0057546808244293
  0
ARC
  5
380A
  8
0
 10
186.74105490859219
 20
19.3912821327151796
 30
0.0
 40
0.0478177463200904
 50
15.0057546808240296
 51
20.6212879479197895
  0
ARC
  5
380B
  8
0
 10
185.9509915418425976
 20
19.0939817732340096
 30
0.0
 40
0.8919668014208036
 50
20.6212879479197895
 51
23.7612669246037811
  0
ARC
  5
380C
  8
0
 10
186.0997278778216923
 20
19.1594622413906208
 30
0.0
 40
0.7294546807943049
 50
23.7612669246036887
 51
42.5419538574300518
  0
ARC
  5
380D
  8
0
 10
185.8107203614495972
 20
18.0826993804789389
 30
0.0
 40
1.8720627981954341
 50
81.2198453386436938
 51
88.5435849492946403
  0
ARC
  5
380E
  8
0
 10
185.9286160316416954
 20
18.9060229228623484
 30
0.0
 40
1.0404318473376539
 50
61.5107983413765993
 51
80.7153534243304875
  0
ARC
  5
380F
  8
0
 10
186.0470874360844107
 20
19.1243182072797389
 30
0.0
 40
0.7920605428970618
 50
41.8403866202427182
 51
61.5107983413765993
  0
ARC
  5
3810
  8
0
 10
185.9282648968311094
 20
19.8271480516449508
 30
0.0
 40
1.0022294821500199
 50
283.1248282051802221
 51
291.6529452949200163
  0
ARC
  5
3811
  8
0
 10
186.0009284593232053
 20
19.6441151753970509
 30
0.0
 40
0.8053004921520287
 50
291.6529452949200163
 51
313.0663310977691935
  0
ARC
  5
3812
  8
0
 10
185.9308105041336034
 20
19.7062720971982905
 30
0.0
 40
0.8986326606955855
 50
313.6262773604506719
 51
326.5287806147838978
  0
ARC
  5
3813
  8
0
 10
185.3829411374310041
 20
20.0720787280801396
 30
0.0
 40
1.557396807773775
 50
326.419055868853718
 51
333.8078679074383217
  0
ARC
  5
3814
  8
0
 10
186.7522741567881042
 20
19.4034800520550306
 30
0.0
 40
0.0338546468027137
 50
326.2487812519049726
 51
7.882654557054245
  0
ARC
  5
3815
  8
0
 10
184.9010615368501078
 20
15.2328674200627106
 30
0.0
 40
0.0078300746589421
 50
178.2414918721501067
 51
273.0860313036315006
  0
LINE
  5
3816
  8
0
 10
184.8932351498038997
 20
15.2331077010818898
 30
0.0
 11
184.9284859549038913
 21
19.384665050881889
 31
0.0
  0
ARC
  5
3817
  8
0
 10
183.7515361956700986
 20
19.3873922920733683
 30
0.0
 40
1.176952919026524
 50
359.8672338142861804
 51
0.454481690100547
  0
ARC
  5
3818
  8
0
 10
184.9544394292946947
 20
19.396934163492471
 30
0.0
 40
0.0259881588217581
 50
164.9942453191756044
 51
180.4544816901006072
  0
ARC
  5
3819
  8
0
 10
184.9755246240636097
 20
19.3912821327151796
 30
0.0
 40
0.0478177463200904
 50
159.3787120520796066
 51
164.9942453191758887
  0
ARC
  5
381A
  8
0
 10
185.7655879908132022
 20
19.0939817732340096
 30
0.0
 40
0.8919668014208036
 50
156.2387330753961976
 51
159.3787120520796066
  0
ARC
  5
381B
  8
0
 10
185.6168516548339937
 20
19.1594622413906208
 30
0.0
 40
0.7294546807943049
 50
137.4580461425699127
 51
156.2387330753963113
  0
ARC
  5
381C
  8
0
 10
185.9058829812271085
 20
18.08238054398673
 30
0.0
 40
1.8723815329566349
 50
91.4561685804944489
 51
98.7793854468677353
  0
ARC
  5
381D
  8
0
 10
185.7879635010141044
 20
18.9060229228623484
 30
0.0
 40
1.0404318473376539
 50
99.2846465756695125
 51
118.4892016586234007
  0
ARC
  5
381E
  8
0
 10
185.6694920965713038
 20
19.1243182072797389
 30
0.0
 40
0.7920605428970618
 50
118.4892016586234007
 51
138.1596133797573032
  0
ARC
  5
381F
  8
0
 10
185.7883146358246904
 20
19.8271480516449508
 30
0.0
 40
1.0022294821500199
 50
248.3470547050800121
 51
256.8751717948197779
  0
ARC
  5
3820
  8
0
 10
185.7156510733325945
 20
19.6441151753970509
 30
0.0
 40
0.8053004921520287
 50
226.9336689022306928
 51
248.3470547050800121
  0
ARC
  5
3821
  8
0
 10
185.7857690285221963
 20
19.7062720971982905
 30
0.0
 40
0.8986326606955855
 50
213.4712193852161022
 51
226.3737226395492996
  0
ARC
  5
3822
  8
0
 10
186.3336383952247104
 20
20.0720787280801396
 30
0.0
 40
1.557396807773775
 50
206.1921320925617067
 51
213.5809441311461967
  0
ARC
  5
3823
  8
0
 10
184.9643053758676103
 20
19.4034800520550306
 30
0.0
 40
0.0338546468027137
 50
172.1173454429458047
 51
213.7512187480949137
  0
LINE
  5
3824
  8
0
 10
184.9307706207038962
 20
19.4081230366818893
 30
0.0
 11
186.7858089119519036
 21
19.4081230366818893
 31
0.0
  0
ENDSEC
  0
EOF
