  0
SECTION
  2
HEADER
  9
$ACADVER
  1
AC1009
  9
$INSBASE
 10
4341.9692922707199614
 20
190.1439625003573894
 30
0.0
  9
$EXTMIN
 10
4335.1242824695736999
 20
182.5653575861431079
 30
-0.0015258207003583
  9
$EXTMAX
 10
4348.6791860751791319
 20
190.1500887867204028
 30
0.0000000349246037
  9
$LIMMIN
 10
0.0
 20
0.0
  9
$LIMMAX
 10
11.6929133858000007
 20
8.2677165353999982
  9
$ORTHOMODE
 70
     0
  9
$REGENMODE
 70
     1
  9
$FILLMODE
 70
     1
  9
$QTEXTMODE
 70
     0
  9
$MIRRTEXT
 70
     0
  9
$DRAGMODE
 70
     2
  9
$LTSCALE
 40
0.6431102362
  9
$OSMODE
 70
     7
  9
$ATTMODE
 70
     1
  9
$TEXTSIZE
 40
0.2
  9
$TRACEWID
 40
0.05
  9
$TEXTSTYLE
  7
STANDARD
  9
$CLAYER
  8
0
  9
$CELTYPE
  6
BYLAYER
  9
$CECOLOR
 62
   256
  9
$DIMSCALE
 40
1.0
  9
$DIMASZ
 40
0.1875
  9
$DIMEXO
 40
0.0625
  9
$DIMDLI
 40
0.4443307087
  9
$DIMRND
 40
0.0
  9
$DIMDLE
 40
0.0
  9
$DIMEXE
 40
0.125
  9
$DIMTP
 40
0.01
  9
$DIMTM
 40
0.01
  9
$DIMTXT
 40
2.0
  9
$DIMCEN
 40
0.1052362205
  9
$DIMTSZ
 40
0.0
  9
$DIMTOL
 70
     1
  9
$DIMLIM
 70
     0
  9
$DIMTIH
 70
     1
  9
$DIMTOH
 70
     1
  9
$DIMSE1
 70
     0
  9
$DIMSE2
 70
     0
  9
$DIMTAD
 70
     0
  9
$DIMZIN
 70
     0
  9
$DIMBLK
  1

  9
$DIMASO
 70
     1
  9
$DIMSHO
 70
     1
  9
$DIMPOST
  1
\X
  9
$DIMAPOST
  1

  9
$DIMALT
 70
     1
  9
$DIMALTD
 70
     2
  9
$DIMALTF
 40
25.3999999999999986
  9
$DIMLFAC
 40
1.0
  9
$DIMTOFL
 70
     0
  9
$DIMTVP
 40
0.0
  9
$DIMTIX
 70
     0
  9
$DIMSOXD
 70
     0
  9
$DIMSAH
 70
     0
  9
$DIMBLK1
  1

  9
$DIMBLK2
  1

  9
$DIMSTYLE
  2
STANDARD
  9
$DIMCLRD
 70
     0
  9
$DIMCLRE
 70
     0
  9
$DIMCLRT
 70
     0
  9
$DIMTFAC
 40
1.0
  9
$DIMGAP
 40
0.09
  9
$LUNITS
 70
     2
  9
$LUPREC
 70
     4
  9
$SKETCHINC
 40
0.1
  9
$FILLETRAD
 40
0.0
  9
$AUNITS
 70
     0
  9
$AUPREC
 70
     0
  9
$MENU
  1
.
  9
$ELEVATION
 40
0.0
  9
$PELEVATION
 40
0.0
  9
$THICKNESS
 40
0.0
  9
$LIMCHECK
 70
     0
  9
$BLIPMODE
 70
     0
  9
$CHAMFERA
 40
0.0
  9
$CHAMFERB
 40
0.0
  9
$SKPOLY
 70
     0
  9
$TDCREATE
 40
2458060.468368056230247
  9
$TDUPDATE
 40
2459579.5848032408393919
  9
$TDINDWG
 40
0.4368010417
  9
$TDUSRTIMER
 40
0.4368010417
  9
$USRTIMER
 70
     1
  9
$ANGBASE
 50
0.0
  9
$ANGDIR
 70
     0
  9
$PDMODE
 70
     0
  9
$PDSIZE
 40
0.3125
  9
$PLINEWID
 40
0.0
  9
$COORDS
 70
     1
  9
$SPLFRAME
 70
     0
  9
$SPLINETYPE
 70
     6
  9
$SPLINESEGS
 70
     8
  9
$ATTDIA
 70
     1
  9
$ATTREQ
 70
     1
  9
$HANDLING
 70
     1
  9
$HANDSEED
  5
F06F
  9
$SURFTAB1
 70
     6
  9
$SURFTAB2
 70
     6
  9
$SURFTYPE
 70
     6
  9
$SURFU
 70
     6
  9
$SURFV
 70
     6
  9
$UCSNAME
  2

  9
$UCSORG
 10
0.0
 20
0.0
 30
0.0
  9
$UCSXDIR
 10
1.0
 20
0.0
 30
0.0
  9
$UCSYDIR
 10
0.0
 20
1.0
 30
0.0
  9
$PUCSNAME
  2

  9
$PUCSORG
 10
0.0
 20
0.0
 30
0.0
  9
$PUCSXDIR
 10
1.0
 20
0.0
 30
0.0
  9
$PUCSYDIR
 10
0.0
 20
1.0
 30
0.0
  9
$USERI1
 70
     0
  9
$USERI2
 70
     0
  9
$USERI3
 70
     0
  9
$USERI4
 70
     0
  9
$USERI5
 70
     0
  9
$USERR1
 40
0.0
  9
$USERR2
 40
0.0
  9
$USERR3
 40
0.0
  9
$USERR4
 40
0.0
  9
$USERR5
 40
0.0
  9
$WORLDVIEW
 70
     1
  9
$SHADEDGE
 70
     3
  9
$SHADEDIF
 70
    70
  9
$TILEMODE
 70
     1
  9
$MAXACTVP
 70
    64
  9
$PLIMCHECK
 70
     0
  9
$PEXTMIN
 10
1.0000000000000000E+20
 20
1.0000000000000000E+20
 30
1.0000000000000000E+20
  9
$PEXTMAX
 10
-1.0000000000000000E+20
 20
-1.0000000000000000E+20
 30
-1.0000000000000000E+20
  9
$PLIMMIN
 10
0.0
 20
0.0
  9
$PLIMMAX
 10
12.0
 20
9.0
  9
$UNITMODE
 70
     0
  9
$VISRETAIN
 70
     1
  9
$PLINEGEN
 70
     0
  9
$PSLTSCALE
 70
     1
  0
ENDSEC
  0
SECTION
  2
TABLES
  0
TABLE
  2
VPORT
 70
     1
  0
VPORT
  2
*ACTIVE
 70
     0
 10
0.0
 20
0.0
 11
1.0
 21
1.0
 12
538.3576668895639159
 22
60.3624609896818427
 13
0.0
 23
0.0
 14
1.0
 24
1.0
 15
0.0
 25
0.0
 16
0.0
 26
0.0
 36
17.1152628219792007
 17
3803.5440673828129547
 27
125.9952621967499056
 37
0.0
 40
7.6390371518940512
 41
2.2831541218637992
 42
50.0
 43
0.0
 44
0.0
 50
0.0
 51
0.0
 71
     0
 72
   100
 73
     1
 74
     1
 75
     0
 76
     0
 77
     0
 78
     0
  0
ENDTAB
  0
TABLE
  2
LTYPE
 70
     2
  0
LTYPE
  2
CONTINUOUS
 70
     0
  3
Solid line
 72
    65
 73
     0
 40
0.0
  0
LTYPE
  2
PHANTOM2
 70
     0
  3
___ _ _ ___ _ _ ___ _ _ ___ _ _
 72
    65
 73
     6
 40
1.25
 49
0.625
 49
-0.125
 49
0.125
 49
-0.125
 49
0.125
 49
-0.125
  0
ENDTAB
  0
TABLE
  2
LAYER
 70
     2
  0
LAYER
  2
0
 70
     0
 62
   255
  6
CONTINUOUS
  0
LAYER
  2
DEFPOINTS
 70
     0
 62
     7
  6
CONTINUOUS
  0
ENDTAB
  0
TABLE
  2
STYLE
 70
     1
  0
STYLE
  2
STANDARD
 70
     0
 40
0.0
 41
0.8
 50
0.0
 71
     0
 42
0.2
  3
txt
  4

  0
ENDTAB
  0
TABLE
  2
VIEW
 70
     0
  0
ENDTAB
  0
TABLE
  2
UCS
 70
     0
  0
ENDTAB
  0
TABLE
  2
APPID
 70
     9
  0
APPID
  2
ACAD
 70
     0
  0
APPID
  2
ACAD_MLEADERVER
 70
     0
  0
APPID
  2
ACAD_EXEMPT_FROM_CAD_STANDARDS
 70
     0
  0
APPID
  2
ACAD_NAV_VCDISPLAY
 70
     0
  0
APPID
  2
ACAECLAYERSTANDARD
 70
     0
  0
APPID
  2
ACCMTRANSPARENCY
 70
     0
  0
APPID
  2
ACAD_DSTYLE_DIMJAG
 70
     0
  0
APPID
  2
ACAD_DSTYLE_DIMTALN
 70
     0
  0
APPID
  2
ACDBATTR
 70
     0
  0
ENDTAB
  0
TABLE
  2
DIMSTYLE
 70
     1
  0
DIMSTYLE
  2
STANDARD
 70
     0
  3

  4

  5

  6

  7

 40
1.0
 41
0.1875
 42
0.0625
 43
0.38
 44
0.125
 45
0.0
 46
0.0
 47
0.01
 48
0.01
140
0.15625
141
0.09
142
0.0
143
25.3999999999999986
144
1.0
145
0.0
146
1.0
147
0.09
 71
     1
 72
     0
 73
     1
 74
     1
 75
     0
 76
     0
 77
     0
 78
     4
170
     0
171
     2
172
     0
173
     0
174
     0
175
     0
176
     0
177
     0
178
     0
  0
ENDTAB
  0
ENDSEC
  0
SECTION
  2
BLOCKS
  0
BLOCK
  8
0
  2
$MODEL_SPACE
 70
     0
 10
0.0
 20
0.0
 30
0.0
  3
$MODEL_SPACE
  1

  0
ENDBLK
  5
21
  8
0
  0
BLOCK
 67
     1
  8
0
  2
$PAPER_SPACE
 70
     0
 10
0.0
 20
0.0
 30
0.0
  3
$PAPER_SPACE
  1

  0
ENDBLK
  5
1D
 67
     1
  8
0
  0
ENDSEC
  0
SECTION
  2
ENTITIES
  0
ATTDEF
  5
3930
  8
DEFPOINTS
 10
4341.9693441202643953
 20
190.147349569467508
 30
0.0
 40
0.001
  1
P21223-LV
  3

  2
MODELNUMBER
 70
     0
1001
ACDBATTR
1070
     0
1070
     1
  0
ATTDEF
  5
3931
  8
DEFPOINTS
 10
4341.9693441202643953
 20
190.145682902800786
 30
0.0
 40
0.001
  1
CENTRAL PARK WEST
  3

  2
TRADENAME
 70
     0
1001
ACDBATTR
1070
     0
1070
     1
  0
ATTDEF
  5
3932
  8
DEFPOINTS
 10
4341.9693441202643953
 20
190.1440162361342061
 30
0.0
 40
0.001
  1
BATHROOM SINK FAUCET
  3

  2
PRODUCT
 70
     0
1001
ACDBATTR
1070
     0
1070
     1
  0
LINE
  5
ECE0
  8
0
 10
4340.9532922707212492
 20
190.1439625003573894
 30
0.0
 11
4342.985292270719583
 21
190.1439625003573894
 31
0.0
  0
LINE
  5
ECE1
  8
0
 10
4344.9532922707203397
 20
190.1439625003573894
 30
0.0
 11
4346.9852922707186735
 21
190.1439625003573894
 31
0.0
  0
LINE
  5
ECE2
  8
0
 10
4340.963292270718739
 20
189.9959625003573933
 30
0.0
 11
4342.9752922707202742
 21
189.9959625003573933
 31
0.0
  0
LINE
  5
ECE3
  8
0
 10
4344.963292270718739
 20
189.9959625003573933
 30
0.0
 11
4346.9752922707202742
 21
189.9959625003573933
 31
0.0
  0
LINE
  5
ECE4
  8
0
 10
4341.1254662303199439
 20
189.9075499583574071
 30
0.0
 11
4342.8131183111190694
 21
189.9075499583574071
 31
0.0
  0
LINE
  5
ECE5
  8
0
 10
4341.2508868035447449
 20
189.7439625003574122
 30
0.0
 11
4342.6876977378942684
 21
189.7439625003574122
 31
0.0
  0
LINE
  5
ECE6
  8
0
 10
4345.2504899967116216
 20
189.7439625003574122
 30
0.0
 11
4346.6880945447273916
 21
189.7439625003574122
 31
0.0
  0
LINE
  5
ECE7
  8
0
 10
4340.9432922707201215
 20
190.0159625003574035
 30
0.0
 11
4340.9432922707201215
 21
190.1339625003573985
 31
0.0
  0
LINE
  5
ECE8
  8
0
 10
4341.1088922707185702
 20
189.9272543296796982
 30
0.0
 11
4341.1088922707185702
 21
189.9759625003574115
 31
0.0
  0
ARC
  5
ECE9
  8
0
 10
4341.2508868035447449
 20
189.7639625004239861
 30
0.0
 40
0.020000000066625
 50
185.6161656428155879
 51
270.0000002128181222
  0
ARC
  5
ECEA
  8
0
 10
4341.0166180140704455
 20
189.7404852020586077
 30
0.0
 40
0.2154422796662883
 50
5.7327012973137936
 51
15.4973430672110393
  0
ARC
  5
ECEB
  8
0
 10
4341.0442315663985937
 20
189.7517882085014946
 30
0.0
 40
0.1858458081376806
 50
14.4139540199216896
 51
37.5301845377258587
  0
ARC
  5
ECEC
  8
0
 10
4341.0991858666684493
 20
189.7940021418903882
 30
0.0
 40
0.1165494064253301
 50
37.5301845377258587
 51
76.96848907577278
  0
ARC
  5
ECED
  8
0
 10
4341.1288922707808524
 20
189.9272543296796982
 30
0.0
 40
0.0200000000612832
 50
180.0000000640222027
 51
260.1364699773509983
  0
ARC
  5
ECEE
  8
0
 10
4341.0888922707199526
 20
189.9759625003574115
 30
0.0
 40
0.0200000000000014
 50
0.0000000000032569
 51
90.0
  0
ARC
  5
ECEF
  8
0
 10
4340.963292270718739
 20
190.0159625003574035
 30
0.0
 40
0.0199999999999996
 50
179.9999999999984084
 51
270.0
  0
ARC
  5
ECF0
  8
0
 10
4340.9532922707212492
 20
190.1339625003573985
 30
0.0
 40
0.0100000000000007
 50
90.0
 51
179.9999999999951115
  0
LINE
  5
ECF1
  8
0
 10
4342.9952922707198013
 20
190.0159625003574035
 30
0.0
 11
4342.9952922707198013
 21
190.1339625003573985
 31
0.0
  0
LINE
  5
ECF2
  8
0
 10
4342.8296922707186241
 20
189.9272543296796982
 30
0.0
 11
4342.8296922707186241
 21
189.9759625003574115
 31
0.0
  0
ARC
  5
ECF3
  8
0
 10
4342.6876977378942684
 20
189.7639625004239861
 30
0.0
 40
0.020000000066625
 50
269.9999997871818778
 51
354.3838343571844121
  0
ARC
  5
ECF4
  8
0
 10
4342.9219665273685678
 20
189.7404852020586077
 30
0.0
 40
0.2154422796662883
 50
164.5026569327889092
 51
174.2672987026861904
  0
ARC
  5
ECF5
  8
0
 10
4342.894352975041329
 20
189.7517882085014946
 30
0.0
 40
0.1858458081376806
 50
142.4698154622741129
 51
165.5860459800782962
  0
ARC
  5
ECF6
  8
0
 10
4342.839398674770564
 20
189.7940021418903882
 30
0.0
 40
0.1165494064253301
 50
103.0315109242272058
 51
142.4698154622741129
  0
ARC
  5
ECF7
  8
0
 10
4342.8096922706590703
 20
189.9272543296796982
 30
0.0
 40
0.0200000000612832
 50
279.863530022648888
 51
359.9999999359777121
  0
ARC
  5
ECF8
  8
0
 10
4342.8496922707199701
 20
189.9759625003574115
 30
0.0
 40
0.0200000000000014
 50
90.0
 51
179.9999999999967031
  0
ARC
  5
ECF9
  8
0
 10
4342.9752922707202742
 20
190.0159625003574035
 30
0.0
 40
0.0199999999999996
 50
270.0
 51
0.0000000000016284
  0
ARC
  5
ECFA
  8
0
 10
4342.985292270719583
 20
190.1339625003573985
 30
0.0
 40
0.0100000000000007
 50
0.0000000000048853
 51
90.0
  0
LINE
  5
ECFB
  8
0
 10
4344.9432922707201215
 20
190.0159625003574035
 30
0.0
 11
4344.9432922707201215
 21
190.1339625003573985
 31
0.0
  0
ARC
  5
ECFC
  8
0
 10
4344.963292270718739
 20
190.0159625003574035
 30
0.0
 40
0.0199999999999996
 50
179.9999999999984084
 51
270.0
  0
ARC
  5
ECFD
  8
0
 10
4344.9532922707203397
 20
190.1339625003573985
 30
0.0
 40
0.0100000000000007
 50
90.0
 51
179.9999999999951115
  0
LINE
  5
ECFE
  8
0
 10
4345.3192922707203252
 20
189.7119625003574015
 30
0.0
 11
4345.3192922707203252
 21
188.6672467715573873
 31
0.0
  0
LINE
  5
ECFF
  8
0
 10
4345.3192922707203252
 20
188.6106782290574131
 30
0.0
 11
4345.3192922707203252
 21
188.5189625003573894
 31
0.0
  0
ARC
  5
ED00
  8
0
 10
4345.2872922707201724
 20
189.7119625003574015
 30
0.0
 40
0.0320000000000009
 50
0.0000000000016284
 51
90.0
  0
ARC
  5
ED01
  8
0
 10
4345.2504899967116216
 20
189.7639625003376977
 30
0.0
 40
0.0199999999803207
 50
184.6476682256746926
 51
270.0000000220426273
  0
ARC
  5
ED02
  8
0
 10
4345.0321151384951008
 20
189.7462096072493125
 30
0.0
 40
0.1990952850310634
 50
4.6476682256763553
 51
32.1315122614875222
  0
ARC
  5
ED03
  8
0
 10
4345.0982075762512977
 20
189.7877199871473124
 30
0.0
 40
0.1210483634535129
 50
32.1315122614875222
 51
77.0841675819189334
  0
ARC
  5
ED04
  8
0
 10
4345.1282922707869147
 20
189.9254752095822028
 30
0.0
 40
0.0200000000669718
 50
180.0000000710570873
 51
261.2918470165819826
  0
LINE
  5
ED05
  8
0
 10
4345.1252642412200657
 20
189.9057057624573872
 30
0.0
 11
4346.813320300219857
 21
189.9057057624573872
 31
0.0
  0
LINE
  5
ED06
  8
0
 10
4345.1082922707200851
 20
189.963962500357411
 30
0.0
 11
4345.1082922707200851
 21
189.9254752095822028
 31
0.0
  0
ARC
  5
ED07
  8
0
 10
4345.0762922707199323
 20
189.963962500357411
 30
0.0
 40
0.0319999999999992
 50
0.0000000000016284
 51
90.0
  0
LINE
  5
ED08
  8
0
 10
4345.595792270720267
 20
187.2674201003574126
 30
0.0
 11
4346.3427922707196558
 21
187.2674201003574126
 31
0.0
  0
LINE
  5
ED09
  8
0
 10
4345.5807922707199396
 20
187.9969625003573981
 30
0.0
 11
4345.5807922707199396
 21
187.9349172559101078
 31
0.0
  0
LINE
  5
ED0A
  8
0
 10
4345.5807922707199396
 20
187.3469824934823862
 30
0.0
 11
4345.5807922707199396
 21
187.282420100357399
 31
0.0
  0
ARC
  5
ED0B
  8
0
 10
4345.595792270720267
 20
187.282420100357399
 30
0.0
 40
0.0149999999999988
 50
179.9999999999967031
 51
270.0
  0
LINE
  5
ED0C
  8
0
 10
4345.595792270720267
 20
188.0119625003574129
 30
0.0
 11
4346.3427922707196558
 21
188.0119625003574129
 31
0.0
  0
LINE
  5
ED0D
  8
0
 10
4345.6422922707197358
 20
188.0709625003574104
 30
0.0
 11
4346.2962922707210964
 21
188.0709625003574104
 31
0.0
  0
LINE
  5
ED0E
  8
0
 10
4345.6017922707187608
 20
188.1989625003573963
 30
0.0
 11
4346.3367922707211619
 21
188.1989625003573963
 31
0.0
  0
LINE
  5
ED0F
  8
0
 10
4345.5262781322280716
 20
188.2589625003573985
 30
0.0
 11
4346.4123064092118511
 21
188.2589625003573985
 31
0.0
  0
LINE
  5
ED10
  8
0
 10
4345.5262781322280716
 20
188.4389625003574054
 30
0.0
 11
4346.4123064092118511
 21
188.4389625003574054
 31
0.0
  0
LINE
  5
ED11
  8
0
 10
4345.6017922707187608
 20
188.4989625003574076
 30
0.0
 11
4346.3367922707211619
 21
188.4989625003574076
 31
0.0
  0
LINE
  5
ED12
  8
0
 10
4345.5917922707194521
 20
188.4489625003573963
 30
0.0
 11
4345.5917922707194521
 21
188.4889625003573883
 31
0.0
  0
LINE
  5
ED13
  8
0
 10
4345.5917922707194521
 20
188.2489625003574076
 30
0.0
 11
4345.5917922707194521
 21
188.2089625003573872
 31
0.0
  0
LINE
  5
ED14
  8
0
 10
4345.3259589374201823
 20
188.6201063194573919
 30
0.0
 11
4346.6126256040533917
 21
188.6201063195256893
 31
0.0
  0
LINE
  5
ED15
  8
0
 10
4345.3259589374201823
 20
188.6578186811574085
 30
0.0
 11
4346.6126256041188753
 21
188.6578186811574085
 31
0.0
  0
ARC
  5
ED16
  8
0
 10
4345.3292922706486934
 20
188.6106782290798947
 30
0.0
 40
0.0099999999290831
 50
109.4712201446037056
 51
180.0000001291454055
  0
ARC
  5
ED17
  8
0
 10
4345.3292922706486934
 20
188.6672467715347921
 30
0.0
 40
0.0099999999290814
 50
179.9999998708235864
 51
250.5287798553951859
  0
ARC
  5
ED18
  8
0
 10
4345.6017922707187608
 20
188.2089625003573872
 30
0.0
 40
0.009999999999998
 50
179.9999999999901945
 51
270.0
  0
ARC
  5
ED19
  8
0
 10
4345.5817922707201433
 20
188.2489625003574076
 30
0.0
 40
0.0099999999999989
 50
0.0
 51
90.0
  0
ARC
  5
ED1A
  8
0
 10
4345.5817922707201433
 20
188.4489625003573963
 30
0.0
 40
0.0100000000000016
 50
270.0
 51
0.0
  0
ARC
  5
ED1B
  8
0
 10
4345.6017922707187608
 20
188.4889625003573883
 30
0.0
 40
0.0100000000000007
 50
90.0
 51
179.9999999999951115
  0
ARC
  5
ED1C
  8
0
 10
4345.595792270720267
 20
187.9969625003573981
 30
0.0
 40
0.0149999999999997
 50
90.0
 51
179.9999999999967031
  0
LINE
  5
ED1D
  8
0
 10
4345.6907922707187026
 20
188.0809625003574013
 30
0.0
 11
4345.6907922707187026
 21
188.1889625003574054
 31
0.0
  0
LINE
  5
ED1E
  8
0
 10
4345.6322922707186081
 20
188.0219625003574038
 30
0.0
 11
4345.6322922707186081
 21
188.060962500357391
 31
0.0
  0
ARC
  5
ED1F
  8
0
 10
4345.6222922707211183
 20
188.0219625003574038
 30
0.0
 40
0.0100000000000041
 50
270.0
 51
359.9999999999852776
  0
ARC
  5
ED20
  8
0
 10
4345.6422922707197358
 20
188.060962500357391
 30
0.0
 40
0.009999999999998
 50
90.0
 51
180.0000000000098055
  0
ARC
  5
ED21
  8
0
 10
4345.6807922707203033
 20
188.0809625003574013
 30
0.0
 40
0.0099999999999985
 50
270.0
 51
0.0
  0
ARC
  5
ED22
  8
0
 10
4345.6807922707203033
 20
188.1889625003574054
 30
0.0
 40
0.0100000000000007
 50
0.0
 51
90.0
  0
LINE
  5
ED23
  8
0
 10
4345.0942922707199614
 20
187.3609468003573966
 30
0.0
 11
4345.588980064034331
 21
187.3609468003573966
 31
0.0
  0
LINE
  5
ED24
  8
0
 10
4346.3496044774046823
 20
187.3609468003573966
 30
0.0
 11
4348.5108732707185482
 21
187.3609468003573966
 31
0.0
  0
LINE
  5
ED25
  8
0
 10
4345.0942922707199614
 20
187.9209468003573988
 30
0.0
 11
4345.5889847898970402
 21
187.9209468003573988
 31
0.0
  0
LINE
  5
ED26
  8
0
 10
4346.3495997515419731
 20
187.9209468003573988
 30
0.0
 11
4348.5108732707185482
 21
187.9209468003573988
 31
0.0
  0
LINE
  5
ED27
  8
0
 10
4345.0742922707186153
 20
187.9009468003573886
 30
0.0
 11
4345.0742922707186153
 21
187.3809468003574068
 31
0.0
  0
ARC
  5
ED28
  8
0
 10
4345.0942922707199614
 20
187.9009468003573886
 30
0.0
 40
0.0200000000000014
 50
90.0
 51
180.0000011459098914
  0
ARC
  5
ED29
  8
0
 10
4345.0942922707199614
 20
187.3809468003574068
 30
0.0
 40
0.0200000000000014
 50
179.999998854086698
 51
270.0
  0
LINE
  5
ED2A
  8
0
 10
4345.0742922707186153
 20
187.3809468007574139
 30
0.0
 11
4345.0742922811214157
 21
187.9009671968113935
 31
0.0
  0
ARC
  5
ED2B
  8
0
 10
4345.4622803974825729
 20
187.6409498746963038
 30
0.0
 40
0.2586293026559252
 50
332.1797894342051904
 51
27.8202105657947385
  0
ARC
  5
ED2C
  8
0
 10
4345.1279197593812569
 20
187.4951860741101086
 30
0.0
 40
0.6229621296350384
 50
25.3242122891020394
 51
33.3823267628852918
  0
ARC
  5
ED2D
  8
0
 10
4344.4769043916394367
 20
187.0662085901782916
 30
0.0
 40
1.402604798271015
 50
33.3823267628852918
 51
37.9518156093917298
  0
ARC
  5
ED2E
  8
0
 10
4345.5907492061369339
 20
187.9349320281338009
 30
0.0
 40
0.0099569463754462
 50
180.0850046148372883
 51
217.9518156093930088
  0
ARC
  5
ED2F
  8
0
 10
4345.1279197593812569
 20
187.786713675282499
 30
0.0
 40
0.6229621296350384
 50
326.6176732371146727
 51
334.675787710898021
  0
ARC
  5
ED30
  8
0
 10
4344.4769043916394367
 20
188.2156911592142876
 30
0.0
 40
1.402604798271015
 50
322.0481843906081849
 51
326.6176732371146727
  0
ARC
  5
ED31
  8
0
 10
4345.5907492061369339
 20
187.3469677212588067
 30
0.0
 40
0.0099569463754462
 50
142.0481843906069912
 51
179.9149953859898972
  0
LINE
  5
ED32
  8
0
 10
4348.5308732707198942
 20
187.3809468003574068
 30
0.0
 11
4348.5308732707198942
 21
187.9009468003573886
 31
0.0
  0
LINE
  5
ED33
  8
0
 10
4345.6076295940229102
 20
188.2789625003572951
 30
0.0
 11
4345.6076295940229102
 21
188.4189625003573951
 31
0.0
  0
LINE
  5
ED34
  8
0
 10
4345.6455841830802456
 20
188.2789625003574088
 30
0.0
 11
4345.6455841830802456
 21
188.4189625003573951
 31
0.0
  0
LINE
  5
ED35
  8
0
 10
4345.6753030119152754
 20
188.2789625003574088
 30
0.0
 11
4345.6753030119152754
 21
188.4189625003573951
 31
0.0
  0
LINE
  5
ED36
  8
0
 10
4345.7211922707074336
 20
188.2789625003574088
 30
0.0
 11
4345.7211922707074336
 21
188.4189625003573951
 31
0.0
  0
LINE
  5
ED37
  8
0
 10
4345.7558251711307094
 20
188.2789625003574088
 30
0.0
 11
4345.7558251711307094
 21
188.4189625003573951
 31
0.0
  0
LINE
  5
ED38
  8
0
 10
4345.8076435188522737
 20
188.2789625003574088
 30
0.0
 11
4345.8076435188522737
 21
188.4189625003573099
 31
0.0
  0
LINE
  5
ED39
  8
0
 10
4345.8456768669302619
 20
188.2739330965860063
 30
0.0
 11
4345.8456768669302619
 21
188.4239919041287976
 31
0.0
  0
LINE
  5
ED3A
  8
0
 10
4345.9011595931297052
 20
188.2789625030640934
 30
0.0
 11
4345.9011595931297052
 21
188.4189624976507105
 31
0.0
  0
LINE
  5
ED3B
  8
0
 10
4345.9409311490471737
 20
188.278962495547205
 30
0.0
 11
4345.9409311490471737
 21
188.4189625051675989
 31
0.0
  0
ARC
  5
ED3C
  8
0
 10
4345.920452578297045
 20
188.2792728060940988
 30
0.0
 40
0.0204809216731077
 50
277.4007311996335829
 51
359.1318669504832997
  0
ARC
  5
ED3D
  8
0
 10
4345.9218756969612514
 20
188.2796545190107906
 30
0.0
 40
0.0207276589146577
 50
181.9132388636035103
 51
266.639567380302708
  0
ARC
  5
ED3E
  8
0
 10
4345.827649428814766
 20
188.2764477987925034
 30
0.0
 40
0.0182019848419872
 50
286.1316293480044237
 51
352.0588796961432081
  0
ARC
  5
ED3F
  8
0
 10
4345.82834035363976
 20
188.2791948371329909
 30
0.0
 40
0.0206981388197154
 50
180.6431590953419004
 51
257.8215918424646134
  0
ARC
  5
ED40
  8
0
 10
4345.803544681331914
 20
188.2793452391032076
 30
0.0
 40
0.0477210450707086
 50
180.4595362458248076
 51
190.8686005786489943
  0
ARC
  5
ED41
  8
0
 10
4345.7425120203542974
 20
188.267626884946111
 30
0.0
 40
0.0144264048376814
 50
323.0876854699332057
 51
10.86860116087467
  0
ARC
  5
ED42
  8
0
 10
4345.7435099626964075
 20
188.2808427229259962
 30
0.0
 40
0.0223967545106538
 50
184.8156870686196953
 51
257.6708851165810756
  0
ARC
  5
ED43
  8
0
 10
4345.7125181059782335
 20
188.2797755461976976
 30
0.0
 40
0.0372239743946374
 50
181.2515536225130859
 51
205.2667045239886079
  0
ARC
  5
ED44
  8
0
 10
4345.6758122717192236
 20
188.2621961204517049
 30
0.0
 40
0.0034813394778096
 50
291.7447260827722744
 51
29.0609860080736908
  0
ARC
  5
ED45
  8
0
 10
4345.6677211239757526
 20
188.2803681267477032
 30
0.0
 40
0.0221815224399663
 50
183.633224851291601
 51
254.8009001205820141
  0
ARC
  5
ED46
  8
0
 10
4345.6378531898863002
 20
188.2798957508256024
 30
0.0
 40
0.0302380009814091
 50
181.7686290107305069
 51
223.8110915431697947
  0
LINE
  5
ED47
  8
0
 10
4345.5841236922187818
 20
188.2772837512812032
 30
0.0
 11
4345.5841236922187818
 21
188.4206412494336007
 31
0.0
  0
LINE
  5
ED48
  8
0
 10
4345.5557625706196632
 20
188.2789625003576077
 30
0.0
 11
4345.5557625706196632
 21
188.4189625003571962
 31
0.0
  0
LINE
  5
ED49
  8
0
 10
4345.539496916519056
 20
188.2781172171995934
 30
0.0
 11
4345.539496916519056
 21
188.4198077835152105
 31
0.0
  0
LINE
  5
ED4A
  8
0
 10
4345.5219687794187848
 20
188.2789625003574088
 30
0.0
 11
4345.5219687794187848
 21
188.4189625003573951
 31
0.0
  0
LINE
  5
ED4B
  8
0
 10
4345.5136542601203473
 20
188.2789625003572951
 30
0.0
 11
4345.5136542601203473
 21
188.4189625003575088
 31
0.0
  0
LINE
  5
ED4C
  8
0
 10
4345.507725171220045
 20
188.2789625003553908
 30
0.0
 11
4345.507725171220045
 21
188.418962500357793
 31
0.0
  0
ARC
  5
ED4D
  8
0
 10
4345.5277728203536753
 20
188.2789543539381043
 30
0.0
 40
0.0200476507898201
 50
179.9767176983046966
 51
265.7242440972070767
  0
ARC
  5
ED4E
  8
0
 10
4345.5337778224065914
 20
188.2790482385616997
 30
0.0
 40
0.0201237449340625
 50
180.2441122232594921
 51
266.4780607912887263
  0
ARC
  5
ED4F
  8
0
 10
4345.5432830449890389
 20
188.2790967731318972
 30
0.0
 40
0.0213146885018345
 50
180.3609395543871869
 51
235.375166359572205
  0
ARC
  5
ED50
  8
0
 10
4345.5403654350011493
 20
188.2748713760396129
 30
0.0
 40
0.016179863419184
 50
235.3751663595731998
 51
259.4989424060913734
  0
ARC
  5
ED51
  8
0
 10
4345.5587028944028134
 20
188.2785398587784869
 30
0.0
 40
0.019210627588701
 50
181.2606320377591089
 51
230.4628044188208094
  0
ARC
  5
ED52
  8
0
 10
4345.5607110396967983
 20
188.2822133675200007
 30
0.0
 40
0.0233353914486624
 50
232.4023198401108061
 51
265.1218851880968828
  0
ARC
  5
ED53
  8
0
 10
4345.5790561863068433
 20
188.2791475425293868
 30
0.0
 40
0.0232943506536603
 50
180.4551424141791074
 51
240.0568308655404905
  0
ARC
  5
ED54
  8
0
 10
4345.6030522816263328
 20
188.2781231258192918
 30
0.0
 40
0.0189471909930842
 50
182.5390762741336061
 51
236.6971937693280097
  0
ARC
  5
ED55
  8
0
 10
4345.6070991759634126
 20
188.2888324293438984
 30
0.0
 40
0.0302232109665149
 50
241.4377684027753048
 51
261.2309605527099166
  0
ARC
  5
ED56
  8
0
 10
4345.920452578297045
 20
188.4186521946207051
 30
0.0
 40
0.0204809216731077
 50
0.868133049516789
 51
82.5992688003664597
  0
ARC
  5
ED57
  8
0
 10
4345.9218756969612514
 20
188.4182704817040133
 30
0.0
 40
0.0207276589146577
 50
93.3604326196973062
 51
178.0867611363964045
  0
ARC
  5
ED58
  8
0
 10
4345.827649428814766
 20
188.4214772019223005
 30
0.0
 40
0.0182019848419872
 50
7.9411203038568399
 51
73.8683706519956189
  0
ARC
  5
ED59
  8
0
 10
4345.82834035363976
 20
188.4187301635816993
 30
0.0
 40
0.0206981388197154
 50
102.1784081575354008
 51
179.3568409046580996
  0
ARC
  5
ED5A
  8
0
 10
4345.803544681331914
 20
188.4185797616115963
 30
0.0
 40
0.0477210450707086
 50
169.1313994213510057
 51
179.5404637541751924
  0
ARC
  5
ED5B
  8
0
 10
4345.7425120203542974
 20
188.4302981157686077
 30
0.0
 40
0.0144264048376814
 50
349.1313988391253247
 51
36.9123145300668511
  0
ARC
  5
ED5C
  8
0
 10
4345.7435099626964075
 20
188.417082277788694
 30
0.0
 40
0.0223967545106538
 50
102.3291148834188959
 51
175.1843129313818963
  0
ARC
  5
ED5D
  8
0
 10
4345.7125181059782335
 20
188.4181494545169926
 30
0.0
 40
0.0372239743946374
 50
154.7332954760099142
 51
178.7484463774885057
  0
ARC
  5
ED5E
  8
0
 10
4345.6758122717192236
 20
188.435728880263099
 30
0.0
 40
0.0034813394778096
 50
330.9390139919262879
 51
68.2552739172277541
  0
ARC
  5
ED5F
  8
0
 10
4345.6677211239757526
 20
188.4175568739671007
 30
0.0
 40
0.0221815224399663
 50
105.1990998794180001
 51
176.3667751487099906
  0
ARC
  5
ED60
  8
0
 10
4345.6378531898863002
 20
188.4180292498892015
 30
0.0
 40
0.0302380009814091
 50
136.1889084568302053
 51
178.2313709892694078
  0
ARC
  5
ED61
  8
0
 10
4345.5277728203536753
 20
188.4189706467765859
 30
0.0
 40
0.0200476507898201
 50
94.2757559027929375
 51
180.0232823016951897
  0
ARC
  5
ED62
  8
0
 10
4345.5337778224065914
 20
188.4188767621529905
 30
0.0
 40
0.0201237449340625
 50
93.5219392087113164
 51
179.7558877767403942
  0
ARC
  5
ED63
  8
0
 10
4345.5432830449890389
 20
188.418828227582793
 30
0.0
 40
0.0213146885018345
 50
124.6248336404276955
 51
179.6390604456128131
  0
ARC
  5
ED64
  8
0
 10
4345.5403654350011493
 20
188.423053624675191
 30
0.0
 40
0.016179863419184
 50
100.5010575939084987
 51
124.6248336404268002
  0
ARC
  5
ED65
  8
0
 10
4345.5587028944028134
 20
188.4193851419362886
 30
0.0
 40
0.019210627588701
 50
129.5371955811791054
 51
178.7393679622408058
  0
ARC
  5
ED66
  8
0
 10
4345.5607110396967983
 20
188.4157116331948032
 30
0.0
 40
0.0233353914486624
 50
94.8781148119031315
 51
127.5976801598890944
  0
ARC
  5
ED67
  8
0
 10
4345.5790561863068433
 20
188.4187774581853034
 30
0.0
 40
0.0232943506536603
 50
119.9431691344594952
 51
179.5448575858208073
  0
ARC
  5
ED68
  8
0
 10
4345.6030522816263328
 20
188.4198018748955121
 30
0.0
 40
0.0189471909930842
 50
123.302806230671905
 51
177.4609237258646885
  0
ARC
  5
ED69
  8
0
 10
4345.6070991759634126
 20
188.4090925713709055
 30
0.0
 40
0.0302232109665149
 50
98.769039447290055
 51
118.5622315972245957
  0
LINE
  5
ED6A
  8
0
 10
4346.7142609694001294
 20
187.3624333156749913
 30
0.0
 11
4348.5108732808412242
 21
187.3624333156749913
 31
0.0
  0
LINE
  5
ED6B
  8
0
 10
4346.7282783956516141
 20
187.3693748115659901
 30
0.0
 11
4348.5113842050950552
 21
187.3693748115659901
 31
0.0
  0
LINE
  5
ED6C
  8
0
 10
4346.7113067161008075
 20
187.3946604813135934
 30
0.0
 11
4348.5108732707185482
 21
187.3946604813135934
 31
0.0
  0
LINE
  5
ED6D
  8
0
 10
4346.713051943105711
 20
187.4161387546510014
 30
0.0
 11
4348.5108732707203671
 21
187.4161387546510014
 31
0.0
  0
LINE
  5
ED6E
  8
0
 10
4346.7169912115477928
 20
187.4643825064356122
 30
0.0
 11
4348.5113495288942431
 21
187.4643825064356122
 31
0.0
  0
LINE
  5
ED6F
  8
0
 10
4346.7169912065301105
 20
187.4971276848048092
 30
0.0
 11
4348.5108732707203671
 21
187.4971276848048092
 31
0.0
  0
LINE
  5
ED70
  8
0
 10
4346.7207010927977535
 20
187.5609848447479067
 30
0.0
 11
4348.5108732707185482
 21
187.5609848447479067
 31
0.0
  0
LINE
  5
ED71
  8
0
 10
4346.7207010927977535
 20
187.6000117715780107
 30
0.0
 11
4348.510873271431592
 21
187.6000117715780107
 31
0.0
  0
ARC
  5
ED72
  8
0
 10
4346.7225671228870851
 20
190.0259764497996002
 30
0.0
 40
2.663556085298008
 50
267.3826776606824751
 51
269.8213259661287111
  0
ARC
  5
ED73
  8
0
 10
4346.7295758265945551
 20
185.3860654951890865
 30
0.0
 40
1.983309740750212
 50
90.0374814488038737
 51
93.7188883136175832
  0
ARC
  5
ED74
  8
0
 10
4346.7210575269800756
 20
188.1027046212527978
 30
0.0
 40
0.7081112782711866
 50
260.2332991864025757
 51
269.2110025857415962
  0
ARC
  5
ED75
  8
0
 10
4346.7219313155073905
 20
186.7652037126485993
 30
0.0
 40
0.6509956007231722
 50
90.781520395577914
 51
100.7114068735815948
  0
ARC
  5
ED76
  8
0
 10
4346.7239322404002451
 20
187.9330928578777105
 30
0.0
 40
0.46876174271208
 50
254.7883258253133079
 51
269.1515813762695757
  0
ARC
  5
ED77
  8
0
 10
4346.7239322404002451
 20
187.0284173334370905
 30
0.0
 40
0.46876174271208
 50
90.8484192369784154
 51
105.2116741746867064
  0
ARC
  5
ED78
  8
0
 10
4346.7257871813790189
 20
187.9694917802619898
 30
0.0
 40
0.4085385962919077
 50
252.2054448747597917
 51
269.2866795433992024
  0
ARC
  5
ED79
  8
0
 10
4346.7257871814972532
 20
187.1915048355637907
 30
0.0
 40
0.4085385967934255
 50
90.7133204722350825
 51
107.7945551199866969
  0
ARC
  5
ED7A
  8
0
 10
4348.5108732707185482
 20
187.3809468003574068
 30
0.0
 40
0.0200000000000005
 50
270.0
 51
359.9999999999951115
  0
ARC
  5
ED7B
  8
0
 10
4348.510838342099305
 20
187.382475983161811
 30
0.0
 40
0.0200426979396476
 50
270.099878940737085
 51
358.4046165916944915
  0
ARC
  5
ED7C
  8
0
 10
4348.5111287375621032
 20
187.3898428315021931
 30
0.0
 40
0.0204696141577849
 50
270.7150887818710885
 51
344.7044024516234799
  0
ARC
  5
ED7D
  8
0
 10
4348.5093395392077582
 20
187.4163297136902884
 30
0.0
 40
0.0217234427323317
 50
274.0485992232960939
 51
352.4223179575525933
  0
ARC
  5
ED7E
  8
0
 10
4348.5104840783023974
 20
187.4429303024217006
 30
0.0
 40
0.0267943744597213
 50
270.8322592903451209
 51
319.5480629250463949
  0
ARC
  5
ED7F
  8
0
 10
4348.5111114007449942
 20
187.4849453696631087
 30
0.0
 40
0.0205642420021944
 50
270.6634838710145914
 51
343.941999000402177
  0
ARC
  5
ED80
  8
0
 10
4348.5092672143309755
 20
187.5491784074166901
 30
0.0
 40
0.0520754946356884
 50
271.7673350462180792
 51
288.3910339094841788
  0
ARC
  5
ED81
  8
0
 10
4348.5269415421089434
 20
187.4960196452688876
 30
0.0
 40
0.0039444648030117
 50
4.6055373991435511
 51
108.3910341094294978
  0
ARC
  5
ED82
  8
0
 10
4348.5108035586199549
 20
187.5813307487250086
 30
0.0
 40
0.0203460234055779
 50
270.1963143744599734
 51
350.5465590544598058
  0
LINE
  5
ED83
  8
0
 10
4348.510873271431592
 20
187.6000117715780107
 30
0.0
 11
4348.5223749563201636
 21
187.6003437571573897
 31
0.0
  0
ARC
  5
ED84
  8
0
 10
4348.5232501574264461
 20
187.5906784783728085
 30
0.0
 40
0.0097048230773271
 50
38.2332949077893787
 51
95.1740819594619154
  0
LINE
  5
ED85
  8
0
 10
4346.7142609694001294
 20
187.9194602850396905
 30
0.0
 11
4348.5108732808412242
 21
187.9194602850396905
 31
0.0
  0
LINE
  5
ED86
  8
0
 10
4346.7282783956516141
 20
187.9125187891488054
 30
0.0
 11
4348.5113842050950552
 21
187.9125187891488054
 31
0.0
  0
LINE
  5
ED87
  8
0
 10
4346.7113067161008075
 20
187.8872331194010883
 30
0.0
 11
4348.5108732707185482
 21
187.8872331194010883
 31
0.0
  0
LINE
  5
ED88
  8
0
 10
4346.713051943105711
 20
187.8657548460637088
 30
0.0
 11
4348.5108732707203671
 21
187.8657548460637088
 31
0.0
  0
LINE
  5
ED89
  8
0
 10
4346.7169912115477928
 20
187.817511094279098
 30
0.0
 11
4348.5113495288942431
 21
187.817511094279098
 31
0.0
  0
LINE
  5
ED8A
  8
0
 10
4346.7169912065301105
 20
187.784765915909901
 30
0.0
 11
4348.5108732707203671
 21
187.784765915909901
 31
0.0
  0
LINE
  5
ED8B
  8
0
 10
4346.7207010927977535
 20
187.7209087559668035
 30
0.0
 11
4348.5108732707185482
 21
187.7209087559668035
 31
0.0
  0
LINE
  5
ED8C
  8
0
 10
4346.7207010927977535
 20
187.6818818291368132
 30
0.0
 11
4348.510873271431592
 21
187.6818818291368132
 31
0.0
  0
ARC
  5
ED8D
  8
0
 10
4346.7225671228870851
 20
185.2559171509151099
 30
0.0
 40
2.663556085298008
 50
90.1786740338713031
 51
92.6173223393174965
  0
ARC
  5
ED8E
  8
0
 10
4346.7295758265945551
 20
189.8958281055257089
 30
0.0
 40
1.983309740750212
 50
266.2811116863824168
 51
269.9625185511961263
  0
ARC
  5
ED8F
  8
0
 10
4346.7210575269800756
 20
187.1791889794619976
 30
0.0
 40
0.7081112782711866
 50
90.7889974142584322
 51
99.7667008135974243
  0
ARC
  5
ED90
  8
0
 10
4346.7219313155073905
 20
188.5166898880661961
 30
0.0
 40
0.6509956007231722
 50
259.2885931264182773
 51
269.2184796044221002
  0
ARC
  5
ED91
  8
0
 10
4346.7239322404002451
 20
187.3488007428371134
 30
0.0
 40
0.46876174271208
 50
90.8484186237303675
 51
105.2116741746867064
  0
ARC
  5
ED92
  8
0
 10
4346.7239322404002451
 20
188.2534762672777049
 30
0.0
 40
0.46876174271208
 50
254.7883258253133079
 51
269.1515807630216273
  0
ARC
  5
ED93
  8
0
 10
4346.7257871813790189
 20
187.3124018204528056
 30
0.0
 40
0.4085385962919077
 50
90.7133204566007976
 51
107.7945551252400946
  0
ARC
  5
ED94
  8
0
 10
4346.7257871814972532
 20
188.0903887651510047
 30
0.0
 40
0.4085385967934255
 50
252.2054448800132889
 51
269.2866795277648748
  0
ARC
  5
ED95
  8
0
 10
4348.5108732707185482
 20
187.9009468003573886
 30
0.0
 40
0.0200000000000005
 50
0.0000000000048853
 51
90.0
  0
ARC
  5
ED96
  8
0
 10
4348.510838342099305
 20
187.8994176175530129
 30
0.0
 40
0.0200426979396476
 50
1.595383408305449
 51
89.9001210592628865
  0
ARC
  5
ED97
  8
0
 10
4348.5111287375621032
 20
187.8920507692126023
 30
0.0
 40
0.0204696141577849
 50
15.2955975483765396
 51
89.2849112181288405
  0
ARC
  5
ED98
  8
0
 10
4348.5093395392077582
 20
187.8655638870243934
 30
0.0
 40
0.0217234427323317
 50
7.5776820424473899
 51
85.9514007767039345
  0
ARC
  5
ED99
  8
0
 10
4348.5104840783023974
 20
187.8389632982930095
 30
0.0
 40
0.0267943744597213
 50
40.4519370749536407
 51
89.1677407096549643
  0
ARC
  5
ED9A
  8
0
 10
4348.5111114007449942
 20
187.7969482310516867
 30
0.0
 40
0.0205642420021944
 50
16.058000999597791
 51
89.3365161289854086
  0
ARC
  5
ED9B
  8
0
 10
4348.5092672143309755
 20
187.7327151932979916
 30
0.0
 40
0.0520754946356884
 50
71.6089660905158496
 51
88.2326649537819065
  0
ARC
  5
ED9C
  8
0
 10
4348.5269415421089434
 20
187.7858739554459078
 30
0.0
 40
0.0039444648030117
 50
251.608965890570488
 51
355.3944626008564001
  0
ARC
  5
ED9D
  8
0
 10
4348.5108035586199549
 20
187.7005628519897869
 30
0.0
 40
0.0203460234055779
 50
9.4534409455401391
 51
89.8036856255399272
  0
LINE
  5
ED9E
  8
0
 10
4348.510873271431592
 20
187.6818818291368132
 30
0.0
 11
4348.5223749563201636
 21
187.6815498435574057
 31
0.0
  0
ARC
  5
ED9F
  8
0
 10
4348.5232501574264461
 20
187.6912151223419869
 30
0.0
 40
0.0097048230773271
 50
264.825918040538113
 51
321.7667050922106
  0
LINE
  5
EDA0
  8
0
 10
4346.9952922707198013
 20
190.0159625003574035
 30
0.0
 11
4346.9952922707198013
 21
190.1339625003573985
 31
0.0
  0
ARC
  5
EDA1
  8
0
 10
4346.9752922707202742
 20
190.0159625003574035
 30
0.0
 40
0.0199999999999996
 50
270.0
 51
0.0000000000016284
  0
ARC
  5
EDA2
  8
0
 10
4346.9852922707186735
 20
190.1339625003573985
 30
0.0
 40
0.0100000000000007
 50
0.0000000000048853
 51
90.0
  0
LINE
  5
EDA3
  8
0
 10
4346.6192922707186881
 20
189.7119625003574015
 30
0.0
 11
4346.6192922707186881
 21
188.6672467715573873
 31
0.0
  0
LINE
  5
EDA4
  8
0
 10
4346.6192922707186881
 20
188.6106782290574131
 30
0.0
 11
4346.6192922707186881
 21
188.5189625003573894
 31
0.0
  0
ARC
  5
EDA5
  8
0
 10
4346.6512922707197504
 20
189.7119625003574015
 30
0.0
 40
0.0320000000000009
 50
90.0
 51
179.9999999999984084
  0
ARC
  5
EDA6
  8
0
 10
4346.6880945447273916
 20
189.7639625003376977
 30
0.0
 40
0.0199999999803207
 50
269.9999999779573727
 51
355.3523317743237158
  0
ARC
  5
EDA7
  8
0
 10
4346.9064694029439124
 20
189.7462096072493125
 30
0.0
 40
0.1990952850310634
 50
147.8684877385124992
 51
175.3523317743236021
  0
ARC
  5
EDA8
  8
0
 10
4346.840376965188625
 20
189.7877199871473124
 30
0.0
 40
0.1210483634535129
 50
102.9158324180809956
 51
147.8684877385124992
  0
ARC
  5
EDA9
  8
0
 10
4346.8102922706520985
 20
189.9254752095822028
 30
0.0
 40
0.0200000000669718
 50
278.7081529834180174
 51
359.9999999289428274
  0
LINE
  5
EDAA
  8
0
 10
4346.8302922707198377
 20
189.963962500357411
 30
0.0
 11
4346.8302922707198377
 21
189.9254752095822028
 31
0.0
  0
ARC
  5
EDAB
  8
0
 10
4346.8622922707199905
 20
189.963962500357411
 30
0.0
 40
0.0319999999999992
 50
90.0
 51
179.9999999999984084
  0
LINE
  5
EDAC
  8
0
 10
4346.3577922707199832
 20
187.9969625003573981
 30
0.0
 11
4346.3577922707199832
 21
187.9349172559101078
 31
0.0
  0
LINE
  5
EDAD
  8
0
 10
4346.3577922707199832
 20
187.3469824934823862
 30
0.0
 11
4346.3577922707199832
 21
187.282420100357399
 31
0.0
  0
ARC
  5
EDAE
  8
0
 10
4346.3427922707196558
 20
187.282420100357399
 30
0.0
 40
0.0149999999999988
 50
270.0
 51
0.0000000000032569
  0
LINE
  5
EDAF
  8
0
 10
4346.3467922707186517
 20
188.4489625003573963
 30
0.0
 11
4346.3467922707186517
 21
188.4889625003573883
 31
0.0
  0
LINE
  5
EDB0
  8
0
 10
4346.3467922707186517
 20
188.2489625003574076
 30
0.0
 11
4346.3467922707186517
 21
188.2089625003573872
 31
0.0
  0
ARC
  5
EDB1
  8
0
 10
4346.6092922705838646
 20
188.6106782290144963
 30
0.0
 40
0.0100000001349709
 50
0.0000002458038507
 51
70.5287788181192639
  0
ARC
  5
EDB2
  8
0
 10
4346.6092922707002799
 20
188.6672467715636969
 30
0.0
 40
0.0100000000199217
 50
289.4712211203088827
 51
359.9999999636759185
  0
ARC
  5
EDB3
  8
0
 10
4346.3367922707211619
 20
188.2089625003573872
 30
0.0
 40
0.009999999999998
 50
270.0
 51
0.0000000000097707
  0
ARC
  5
EDB4
  8
0
 10
4346.3567922707197795
 20
188.2489625003574076
 30
0.0
 40
0.0099999999999989
 50
90.0
 51
180.0
  0
ARC
  5
EDB5
  8
0
 10
4346.3567922707197795
 20
188.4489625003573963
 30
0.0
 40
0.0100000000000016
 50
180.0
 51
270.0
  0
ARC
  5
EDB6
  8
0
 10
4346.3367922707211619
 20
188.4889625003573883
 30
0.0
 40
0.0100000000000007
 50
0.0000000000048853
 51
90.0
  0
ARC
  5
EDB7
  8
0
 10
4346.3427922707196558
 20
187.9969625003573981
 30
0.0
 40
0.0149999999999997
 50
0.0000000000032569
 51
90.0
  0
LINE
  5
EDB8
  8
0
 10
4346.2477922707203106
 20
188.0809625003574013
 30
0.0
 11
4346.2477922707203106
 21
188.1889625003574054
 31
0.0
  0
LINE
  5
EDB9
  8
0
 10
4346.3062922707185862
 20
188.0219625003574038
 30
0.0
 11
4346.3062922707185862
 21
188.060962500357391
 31
0.0
  0
ARC
  5
EDBA
  8
0
 10
4346.316292270719714
 20
188.0219625003574038
 30
0.0
 40
0.0100000000000041
 50
180.0000000000146088
 51
270.0
  0
ARC
  5
EDBB
  8
0
 10
4346.2962922707210964
 20
188.060962500357391
 30
0.0
 40
0.009999999999998
 50
359.9999999999902229
 51
90.0
  0
ARC
  5
EDBC
  8
0
 10
4346.2577922707187099
 20
188.0809625003574013
 30
0.0
 40
0.0099999999999985
 50
180.0
 51
270.0
  0
ARC
  5
EDBD
  8
0
 10
4346.2577922707187099
 20
188.1889625003574054
 30
0.0
 40
0.0100000000000007
 50
90.0
 51
180.0
  0
ARC
  5
EDBE
  8
0
 10
4346.4763041439582594
 20
187.6409498746963038
 30
0.0
 40
0.2586293026559252
 50
152.1797894342051904
 51
207.8202105657946959
  0
ARC
  5
EDBF
  8
0
 10
4346.8106647820586659
 20
187.4951860741101086
 30
0.0
 40
0.6229621296350384
 50
146.6176732371147011
 51
154.6757877108979073
  0
ARC
  5
EDC0
  8
0
 10
4347.4616801498013956
 20
187.0662085901782916
 30
0.0
 40
1.402604798271015
 50
142.0481843906082986
 51
146.6176732371147011
  0
ARC
  5
EDC1
  8
0
 10
4346.3478353353029888
 20
187.9349320281338009
 30
0.0
 40
0.0099569463754462
 50
322.0481843906069912
 51
359.9149953851626833
  0
ARC
  5
EDC2
  8
0
 10
4346.8106647820586659
 20
187.786713675282499
 30
0.0
 40
0.6229621296350384
 50
205.3242122891020074
 51
213.3823267628852989
  0
ARC
  5
EDC3
  8
0
 10
4347.4616801498013956
 20
188.2156911592142876
 30
0.0
 40
1.402604798271015
 50
213.3823267628852989
 51
217.9518156093917014
  0
ARC
  5
EDC4
  8
0
 10
4346.3478353353029888
 20
187.3469677212588067
 30
0.0
 40
0.0099569463754462
 50
0.085004614010069
 51
37.9518156093930088
  0
LINE
  5
EDC5
  8
0
 10
4346.3309549474161031
 20
188.2789625003572951
 30
0.0
 11
4346.3309549474161031
 21
188.4189625003573951
 31
0.0
  0
LINE
  5
EDC6
  8
0
 10
4346.2930003583596772
 20
188.2789625003574088
 30
0.0
 11
4346.2930003583596772
 21
188.4189625003573951
 31
0.0
  0
LINE
  5
EDC7
  8
0
 10
4346.2632815295255568
 20
188.2789625003574088
 30
0.0
 11
4346.2632815295255568
 21
188.4189625003573951
 31
0.0
  0
LINE
  5
EDC8
  8
0
 10
4346.2173922707333986
 20
188.2789625003574088
 30
0.0
 11
4346.2173922707333986
 21
188.4189625003573951
 31
0.0
  0
LINE
  5
EDC9
  8
0
 10
4346.1827593703083039
 20
188.2789625003574088
 30
0.0
 11
4346.1827593703083039
 21
188.4189625003573951
 31
0.0
  0
LINE
  5
EDCA
  8
0
 10
4346.1309410225876491
 20
188.2789625003574088
 30
0.0
 11
4346.1309410225876491
 21
188.4189625003573099
 31
0.0
  0
LINE
  5
EDCB
  8
0
 10
4346.0929076745087514
 20
188.2739330965860063
 30
0.0
 11
4346.0929076745087514
 21
188.4239919041287976
 31
0.0
  0
LINE
  5
EDCC
  8
0
 10
4346.0374249483102176
 20
188.2789625030640934
 30
0.0
 11
4346.0374249483102176
 21
188.4189624976507105
 31
0.0
  0
LINE
  5
EDCD
  8
0
 10
4345.9976533923927491
 20
188.278962495547205
 30
0.0
 11
4345.9976533923927491
 21
188.4189625051675989
 31
0.0
  0
ARC
  5
EDCE
  8
0
 10
4346.0181319631419683
 20
188.2792728060940988
 30
0.0
 40
0.0204809216731077
 50
180.868133049516814
 51
262.5992688003664171
  0
ARC
  5
EDCF
  8
0
 10
4346.0167088444768524
 20
188.2796545190107906
 30
0.0
 40
0.0207276589146577
 50
273.360432619697292
 51
358.0867611363963761
  0
ARC
  5
EDD0
  8
0
 10
4346.1109351126251568
 20
188.2764477987925034
 30
0.0
 40
0.0182019848419872
 50
187.9411203038567919
 51
253.86837065199569
  0
ARC
  5
EDD1
  8
0
 10
4346.1102441878010723
 20
188.2791948371329909
 30
0.0
 40
0.0206981388197154
 50
282.1784081575355003
 51
359.3568409046580996
  0
ARC
  5
EDD2
  8
0
 10
4346.1350398601080087
 20
188.2793452391032076
 30
0.0
 40
0.0477210450707086
 50
349.1313994213509773
 51
359.5404637541752209
  0
ARC
  5
EDD3
  8
0
 10
4346.1960725210847158
 20
188.267626884946111
 30
0.0
 40
0.0144264048376814
 50
169.1313988391252963
 51
216.9123145300654869
  0
ARC
  5
EDD4
  8
0
 10
4346.1950745787426058
 20
188.2808427229259962
 30
0.0
 40
0.0223967545106538
 50
282.3291148834189244
 51
355.1843129313803047
  0
ARC
  5
EDD5
  8
0
 10
4346.2260664354616893
 20
188.2797755461976976
 30
0.0
 40
0.0372239743946374
 50
334.7332954760099142
 51
358.7484463774869141
  0
ARC
  5
EDD6
  8
0
 10
4346.2627722697197896
 20
188.2621961204517049
 30
0.0
 40
0.0034813394778096
 50
150.9390139919262879
 51
248.2552739172276972
  0
ARC
  5
EDD7
  8
0
 10
4346.2708634174641702
 20
188.2803681267477032
 30
0.0
 40
0.0221815224399663
 50
285.1990998794179859
 51
356.3667751487084274
  0
ARC
  5
EDD8
  8
0
 10
4346.3007313515518035
 20
188.2798957508256024
 30
0.0
 40
0.0302380009814091
 50
316.1889084568301769
 51
358.2313709892695215
  0
LINE
  5
EDD9
  8
0
 10
4346.3544608492202315
 20
188.2772837512812032
 30
0.0
 11
4346.3544608492202315
 21
188.4206412494336007
 31
0.0
  0
LINE
  5
EDDA
  8
0
 10
4346.3828219708202596
 20
188.2789625003576077
 30
0.0
 11
4346.3828219708202596
 21
188.4189625003571962
 31
0.0
  0
LINE
  5
EDDB
  8
0
 10
4346.3990876249190478
 20
188.2781172171995934
 30
0.0
 11
4346.3990876249190478
 21
188.4198077835152105
 31
0.0
  0
LINE
  5
EDDC
  8
0
 10
4346.4166157620202284
 20
188.2789625003574088
 30
0.0
 11
4346.4166157620202284
 21
188.4189625003573951
 31
0.0
  0
LINE
  5
EDDD
  8
0
 10
4346.4249302813186659
 20
188.2789625003572951
 30
0.0
 11
4346.4249302813186659
 21
188.4189625003575088
 31
0.0
  0
LINE
  5
EDDE
  8
0
 10
4346.4308593702198777
 20
188.2789625003553908
 30
0.0
 11
4346.4308593702198777
 21
188.418962500357793
 31
0.0
  0
ARC
  5
EDDF
  8
0
 10
4346.4108117210853379
 20
188.2789543539381043
 30
0.0
 40
0.0200476507898201
 50
274.2757559027929233
 51
0.0232823016952486
  0
ARC
  5
EDE0
  8
0
 10
4346.4048067190324218
 20
188.2790482385616997
 30
0.0
 40
0.0201237449340625
 50
273.5219392087112737
 51
359.7558877767403942
  0
ARC
  5
EDE1
  8
0
 10
4346.3953014964508839
 20
188.2790967731318972
 30
0.0
 40
0.0213146885018345
 50
304.6248336404277097
 51
359.6390604456128131
  0
ARC
  5
EDE2
  8
0
 10
4346.3982191064387735
 20
188.2748713760396129
 30
0.0
 40
0.016179863419184
 50
280.5010575938574107
 51
304.6248336404268002
  0
ARC
  5
EDE3
  8
0
 10
4346.3798816470371094
 20
188.2785398587784869
 30
0.0
 40
0.019210627588701
 50
309.5371955811791054
 51
358.7393679622409195
  0
ARC
  5
EDE4
  8
0
 10
4346.3778735017431245
 20
188.2822133675200007
 30
0.0
 40
0.0233353914486624
 50
274.8781148119031172
 51
307.5976801598891939
  0
ARC
  5
EDE5
  8
0
 10
4346.3595283551330795
 20
188.2791475425293868
 30
0.0
 40
0.0232943506536603
 50
299.943169134459481
 51
359.544857585820921
  0
ARC
  5
EDE6
  8
0
 10
4346.3355322598126804
 20
188.2781231258192918
 30
0.0
 40
0.0189471909930842
 50
303.3028062306719903
 51
357.4609237258648022
  0
ARC
  5
EDE7
  8
0
 10
4346.3314853654756007
 20
188.2888324293438984
 30
0.0
 40
0.0302232109665149
 50
278.7690394472900834
 51
298.5622315972245815
  0
ARC
  5
EDE8
  8
0
 10
4346.0181319631419683
 20
188.4186521946207051
 30
0.0
 40
0.0204809216731077
 50
97.4007311996335545
 51
179.131866950483186
  0
ARC
  5
EDE9
  8
0
 10
4346.0167088444768524
 20
188.4182704817040133
 30
0.0
 40
0.0207276589146577
 50
1.913238863603544
 51
86.6395673803026938
  0
ARC
  5
EDEA
  8
0
 10
4346.1109351126251568
 20
188.4214772019223005
 30
0.0
 40
0.0182019848419872
 50
106.1316293480042958
 51
172.0588796961432081
  0
ARC
  5
EDEB
  8
0
 10
4346.1102441878010723
 20
188.4187301635816993
 30
0.0
 40
0.0206981388197154
 50
0.643159095341897
 51
77.8215918424645565
  0
ARC
  5
EDEC
  8
0
 10
4346.1350398601080087
 20
188.4185797616115963
 30
0.0
 40
0.0477210450707086
 50
0.459536245824816
 51
10.8686005786490103
  0
ARC
  5
EDED
  8
0
 10
4346.1960725210847158
 20
188.4302981157686077
 30
0.0
 40
0.0144264048376814
 50
143.0876854699345131
 51
190.8686011608747037
  0
ARC
  5
EDEE
  8
0
 10
4346.1950745787426058
 20
188.417082277788694
 30
0.0
 40
0.0223967545106538
 50
4.8156870686197299
 51
77.6708851165811041
  0
ARC
  5
EDEF
  8
0
 10
4346.2260664354616893
 20
188.4181494545169926
 30
0.0
 40
0.0372239743946374
 50
1.2515536225130901
 51
25.2667045239900609
  0
ARC
  5
EDF0
  8
0
 10
4346.2627722697197896
 20
188.435728880263099
 30
0.0
 40
0.0034813394778096
 50
111.7447260827722033
 51
209.0609860080737121
  0
ARC
  5
EDF1
  8
0
 10
4346.2708634174641702
 20
188.4175568739671007
 30
0.0
 40
0.0221815224399663
 50
3.6332248512916521
 51
74.8009001205820567
  0
ARC
  5
EDF2
  8
0
 10
4346.3007313515518035
 20
188.4180292498892015
 30
0.0
 40
0.0302380009814091
 50
1.768629010730542
 51
43.8110915431697876
  0
ARC
  5
EDF3
  8
0
 10
4346.4108117210853379
 20
188.4189706467765859
 30
0.0
 40
0.0200476507898201
 50
359.9767176983048103
 51
85.7242440972070625
  0
ARC
  5
EDF4
  8
0
 10
4346.4048067190324218
 20
188.4188767621529905
 30
0.0
 40
0.0201237449340625
 50
0.2441122232595845
 51
86.4780607912886836
  0
ARC
  5
EDF5
  8
0
 10
4346.3953014964508839
 20
188.418828227582793
 30
0.0
 40
0.0213146885018345
 50
0.3609395543872172
 51
55.3751663595722476
  0
ARC
  5
EDF6
  8
0
 10
4346.3982191064387735
 20
188.423053624675191
 30
0.0
 40
0.016179863419184
 50
55.3751663595731927
 51
79.4989424061426604
  0
ARC
  5
EDF7
  8
0
 10
4346.3798816470371094
 20
188.4193851419362886
 30
0.0
 40
0.019210627588701
 50
1.2606320377591369
 51
50.4628044188208804
  0
ARC
  5
EDF8
  8
0
 10
4346.3778735017431245
 20
188.4157116331948032
 30
0.0
 40
0.0233353914486624
 50
52.4023198401108488
 51
85.1218851880968828
  0
ARC
  5
EDF9
  8
0
 10
4346.3595283551330795
 20
188.4187774581853034
 30
0.0
 40
0.0232943506536603
 50
0.45514241417914
 51
60.0568308655405403
  0
ARC
  5
EDFA
  8
0
 10
4346.3355322598126804
 20
188.4198018748955121
 30
0.0
 40
0.0189471909930842
 50
2.539076274133611
 51
56.697193769328031
  0
ARC
  5
EDFB
  8
0
 10
4346.3314853654756007
 20
188.4090925713709055
 30
0.0
 40
0.0302232109665149
 50
61.437768402775319
 51
81.230960552709945
  0
LINE
  5
EDFD
  8
0
 10
4341.4968522707204102
 20
183.1528340577162908
 30
0.0
 11
4341.4968522707204102
 21
189.7439625003574122
 31
0.0
  0
LINE
  5
EDFE
  8
0
 10
4342.4417322707186031
 20
183.1528340577517895
 30
0.0
 11
4342.4417322707186031
 21
189.7439625003574122
 31
0.0
  0
LINE
  5
EDFF
  8
0
 10
4345.329292270719634
 20
188.5089625003573985
 30
0.0
 11
4346.6092922707202888
 21
188.5089625003573985
 31
0.0
  0
ARC
  5
EE00
  8
0
 10
4345.329292270719634
 20
188.5189625003573894
 30
0.0
 40
0.0100000000000007
 50
180.0000000000048885
 51
270.0
  0
ARC
  5
EE01
  8
0
 10
4346.6092922707202888
 20
188.5189625003573894
 30
0.0
 40
0.0100000000000007
 50
270.0
 51
359.9999999999951115
  0
LINE
  5
EE02
  8
0
 10
4345.6542922707194521
 20
188.5089625003573985
 30
0.0
 11
4345.6542922707194521
 21
188.4989625003574076
 31
0.0
  0
LINE
  5
EE03
  8
0
 10
4346.2842922707186517
 20
188.5089625003573985
 30
0.0
 11
4346.2842922707186517
 21
188.4989625003574076
 31
0.0
  0
ARC
  5
EE04
  8
0
 10
4346.6192922706795798
 20
188.6389625003297965
 30
0.0
 40
0.0199999999609623
 50
109.4712203528126935
 51
250.528779444895207
  0
ARC
  5
EE05
  8
0
 10
4345.3192922706766694
 20
188.6389625003074002
 30
0.0
 40
0.0200000000426313
 50
289.4712208221196761
 51
70.5287791778802244
  0
LINE
  5
EE06
  8
0
 10
4341.4136519830199177
 20
183.14608507165741
 30
0.0
 11
4341.4136519830199177
 21
183.1647364006574037
 31
0.0
  0
LINE
  5
EE07
  8
0
 10
4341.4136519830199177
 20
183.1248950582574082
 30
0.0
 11
4341.4136519830199177
 21
183.1062437292573861
 31
0.0
  0
ARC
  5
EE08
  8
0
 10
4341.4162592749225951
 20
183.1481696119552112
 30
0.0
 40
0.0167707023993866
 50
9.6917831814689706
 51
98.9438855664788264
  0
ARC
  5
EE09
  8
0
 10
4341.413099275417153
 20
183.1465934953318992
 30
0.0
 40
0.0201768190453107
 50
314.9941558174983243
 51
12.5941643039141997
  0
ARC
  5
EE0A
  8
0
 10
4341.4076538024282854
 20
183.1523354906136944
 30
0.0
 40
0.0280883516482005
 50
282.330291435452807
 51
314.5680983468877798
  0
ARC
  5
EE0B
  8
0
 10
4341.4075316155112887
 20
183.1188596580834087
 30
0.0
 40
0.0279048748914839
 50
36.5694167055214265
 51
77.3303345830556452
  0
ARC
  5
EE0C
  8
0
 10
4341.9651314180364352
 20
183.1448191036988078
 30
0.0
 40
0.551839229201597
 50
182.0691024054954141
 51
189.2235936556560887
  0
LINE
  5
EE0D
  8
0
 10
4341.4204272800188846
 20
183.037714753757399
 30
0.0
 11
4341.4204272800188846
 21
183.0563660827573926
 31
0.0
  0
LINE
  5
EE0E
  8
0
 10
4341.4282296306200806
 20
182.9986389516573979
 30
0.0
 11
4341.4282296306200806
 21
183.017290280557404
 31
0.0
  0
LINE
  5
EE0F
  8
0
 10
4341.4282296306200806
 20
183.2536898493573858
 30
0.0
 11
4341.4282296306200806
 21
183.2723411782573919
 31
0.0
  0
LINE
  5
EE10
  8
0
 10
4341.4482951508189217
 20
182.9327435061574079
 30
0.0
 11
4341.4482951508189217
 21
182.9513948353213948
 31
0.0
  0
LINE
  5
EE11
  8
0
 10
4341.4636000121199686
 20
182.8959349054574091
 30
0.0
 11
4341.4636000121199686
 21
182.9145862343573867
 31
0.0
  0
LINE
  5
EE12
  8
0
 10
4341.4636000121199686
 20
183.3563938955574031
 30
0.0
 11
4341.4636000121199686
 21
183.3750452244574092
 31
0.0
  0
LINE
  5
EE13
  8
0
 10
4341.4961846487185539
 20
182.8352053151573955
 30
0.0
 11
4341.4961846487185539
 21
182.8538566440574016
 31
0.0
  0
LINE
  5
EE14
  8
0
 10
4341.518403863419735
 20
182.8020784496573867
 30
0.0
 11
4341.518403863419735
 21
182.8207297785997127
 31
0.0
  0
LINE
  5
EE15
  8
0
 10
4341.5622554073188439
 20
182.748848518557395
 30
0.0
 11
4341.5622554073188439
 21
182.7674998474574011
 31
0.0
  0
LINE
  5
EE16
  8
0
 10
4341.5905351034198247
 20
182.7206764351574009
 30
0.0
 11
4341.5905351034198247
 21
182.7393277641573945
 31
0.0
  0
LINE
  5
EE17
  8
0
 10
4341.6439683642201999
 20
182.6769917596573976
 30
0.0
 11
4341.6439683642201999
 21
182.6956430886573912
 31
0.0
  0
LINE
  5
EE18
  8
0
 10
4341.6772217690186153
 20
182.6548570958574089
 30
0.0
 11
4341.6772217690186153
 21
182.6735084247573866
 31
0.0
  0
LINE
  5
EE19
  8
0
 10
4341.7381833364197519
 20
182.6223272635008072
 30
0.0
 11
4341.7381833364197519
 21
182.6410477824574059
 31
0.0
  0
LINE
  5
EE1A
  8
0
 10
4341.7751325401195572
 20
182.6071498318574129
 30
0.0
 11
4341.7751325401195572
 21
182.6258011608088054
 31
0.0
  0
LINE
  5
EE1B
  8
0
 10
4341.8412796954198711
 20
182.587086654012495
 30
0.0
 11
4341.8412796954198711
 21
182.6058119959783994
 31
0.0
  0
LINE
  5
EE1C
  8
0
 10
4341.8805047608202585
 20
182.579388006757398
 30
0.0
 11
4341.8805047608202585
 21
182.5980393356194043
 31
0.0
  0
LINE
  5
EE1D
  8
0
 10
4341.9492955058185544
 20
182.5725620313270099
 30
0.0
 11
4341.9492955058185544
 21
182.591289820806395
 31
0.0
  0
ARC
  5
EE1E
  8
0
 10
4341.9651314057891796
 20
183.1261677731006046
 30
0.0
 40
0.5518392168567283
 50
182.0691022841706115
 51
189.2235936956886917
  0
ARC
  5
EE1F
  8
0
 10
4341.426261963431898
 20
183.0398526227245952
 30
0.0
 40
0.0175139342460862
 50
8.3247246159049215
 51
109.4597889101432031
  0
ARC
  5
EE20
  8
0
 10
4341.4208455794941983
 20
183.0390600705580084
 30
0.0
 40
0.022987996165082
 50
288.7363186746413248
 51
8.3247246159049215
  0
ARC
  5
EE21
  8
0
 10
4341.4200811401633473
 20
183.0120921288840918
 30
0.0
 40
0.0256249627940244
 50
36.6288727650527193
 51
89.2260298596662977
  0
ARC
  5
EE22
  8
0
 10
4341.9655930772887586
 20
183.1449176099106921
 30
0.0
 40
0.5523116955257682
 50
193.3605727888599972
 51
200.5109805737847921
  0
ARC
  5
EE23
  8
0
 10
4341.9624315937689971
 20
183.1253035913732958
 30
0.0
 40
0.5490133590240405
 50
193.3390655975096024
 51
200.5324876178457885
  0
ARC
  5
EE24
  8
0
 10
4341.4574124208220383
 20
182.936173730261288
 30
0.0
 40
0.0177427913535725
 50
19.9276419479107503
 51
120.9211325128653982
  0
ARC
  5
EE25
  8
0
 10
4341.4527930879839914
 20
182.9344990340804884
 30
0.0
 40
0.0226563280810047
 50
298.4892345318434081
 51
19.9276419479107503
  0
ARC
  5
EE26
  8
0
 10
4341.4529518034014473
 20
182.909135656393488
 30
0.0
 40
0.0240627301804894
 50
35.8699453127303016
 51
101.1583592488317009
  0
ARC
  5
EE27
  8
0
 10
4341.9663968825461779
 20
183.1452568579707076
 30
0.0
 40
0.5531849866986317
 50
204.6444728364481875
 51
211.7873484761755947
  0
ARC
  5
EE28
  8
0
 10
4341.9587979310490482
 20
183.1225282897570139
 30
0.0
 40
0.5445783145887033
 50
204.5879538410304974
 51
211.8438674716097978
  0
ARC
  5
EE29
  8
0
 10
4341.5082591509653867
 20
182.840451664157996
 30
0.0
 40
0.0180412608193343
 50
31.6049708539619587
 51
132.0108660445972077
  0
ARC
  5
EE2A
  8
0
 10
4341.5046692929217897
 20
182.8382427394080025
 30
0.0
 40
0.0222562850566079
 50
308.105378906291719
 51
31.6049708539619587
  0
ARC
  5
EE2B
  8
0
 10
4341.5051991506197737
 20
182.8141244528092102
 30
0.0
 40
0.0229273636042486
 50
34.8666301281658804
 51
113.152299065426206
  0
ARC
  5
EE2C
  8
0
 10
4341.9673428792975756
 20
183.1458941523993929
 30
0.0
 40
0.5543267177093294
 50
215.9156337772325003
 51
223.0486917345122038
  0
ARC
  5
EE2D
  8
0
 10
4341.9554253333935776
 20
183.1174249867517005
 30
0.0
 40
0.5389166945602505
 50
215.8135132291525053
 51
223.1508123188534967
  0
ARC
  5
EE2E
  8
0
 10
4341.5770621619230951
 20
182.7560660680966009
 30
0.0
 40
0.0187075196740743
 50
20.0964605025066483
 51
142.3246717420358038
  0
ARC
  5
EE2F
  8
0
 10
4341.5726188249218467
 20
182.7544403489031026
 30
0.0
 40
0.0234389260828273
 50
319.8519877924055095
 51
20.0964605025066483
  0
ARC
  5
EE30
  8
0
 10
4341.575018845129307
 20
182.7302781028440108
 30
0.0
 40
0.022533656718209
 50
35.7217454244340402
 51
124.5007223682964934
  0
ARC
  5
EE31
  8
0
 10
4341.9682151625693223
 20
183.1467691558841864
 30
0.0
 40
0.5555634210162276
 50
227.1708523045155061
 51
234.2933138308619903
  0
ARC
  5
EE32
  8
0
 10
4341.9682151625693223
 20
183.1281178268847043
 30
0.0
 40
0.5555634210169585
 50
227.1708523045188883
 51
234.293313830860086
  0
ARC
  5
EE33
  8
0
 10
4341.660749272373323
 20
182.6871709668126016
 30
0.0
 40
0.0187982905336002
 50
55.092607623174338
 51
153.2123099218285915
  0
ARC
  5
EE34
  8
0
 10
4341.6592942896741079
 20
182.6850858713833929
 30
0.0
 40
0.0213408478292951
 50
327.1458953894265846
 51
55.092607623174338
  0
ARC
  5
EE35
  8
0
 10
4341.6597357282271332
 20
182.6620219826320124
 30
0.0
 40
0.0217417568730298
 50
34.3073439091540209
 51
136.4864139517733861
  0
ARC
  5
EE36
  8
0
 10
4341.9688507299224511
 20
183.1477182513648927
 30
0.0
 40
0.5567067544841274
 50
238.4093681979570931
 51
245.5220684540798004
  0
ARC
  5
EE37
  8
0
 10
4341.9626872948892924
 20
183.1164387721638889
 30
0.0
 40
0.542722959125215
 50
238.2652507686001968
 51
245.5649046547252112
  0
ARC
  5
EE38
  8
0
 10
4341.7566176071286463
 20
182.6355549556238032
 30
0.0
 40
0.0192352146643492
 50
66.868729461544433
 51
163.40761577301339
  0
ARC
  5
EE39
  8
0
 10
4341.755980008950246
 20
182.6340623854156888
 30
0.0
 40
0.0208582665004648
 50
336.667602298947088
 51
66.8687294615450725
  0
ARC
  5
EE3A
  8
0
 10
4341.7564056826995511
 20
182.611241831129206
 30
0.0
 40
0.0213293392975267
 50
68.6412877480628367
 51
148.6860626473147136
  0
ARC
  5
EE3B
  8
0
 10
4341.7564697689776949
 20
182.6124861679994069
 30
0.0
 40
0.0201509673650864
 50
22.1579474801425995
 51
67.5223394256950229
  0
ARC
  5
EE3C
  8
0
 10
4341.9691895062196636
 20
183.1485248428573982
 30
0.0
 40
0.5575824189000695
 50
249.6329609921041026
 51
256.7382075377925048
  0
ARC
  5
EE3D
  8
0
 10
4341.9648136072601119
 20
183.1134442212307079
 30
0.0
 40
0.5406597043818838
 50
249.4617489374093111
 51
256.7919669830196767
  0
ARC
  5
EE3E
  8
0
 10
4341.8608472398300364
 20
182.603545203309011
 30
0.0
 40
0.0196984045841377
 50
78.650188470472628
 51
173.3920527355909087
  0
ARC
  5
EE3F
  8
0
 10
4341.8607141795309872
 20
182.6028823013953115
 30
0.0
 40
0.0203745288259307
 50
346.2493408635606897
 51
78.650188470472628
  0
ARC
  5
EE40
  8
0
 10
4341.8608568353965893
 20
182.5803968491213993
 30
0.0
 40
0.0206885934554968
 50
79.2271581586964118
 51
161.1339261069936128
  0
ARC
  5
EE41
  8
0
 10
4341.8610558931641208
 20
182.5815041051502021
 30
0.0
 40
0.0195636480620986
 50
6.2095360385796923
 51
79.1937302539579804
  0
ARC
  5
EE42
  8
0
 10
4341.9683856859810476
 20
183.1149911716505017
 30
0.0
 40
0.5427649650176835
 50
260.6820252636468922
 51
267.9843717524640283
  0
ARC
  5
EE43
  8
0
 10
4341.9692884723508541
 20
183.1489880318231087
 30
0.0
 40
0.558056460657869
 50
260.8456585284923221
 51
267.9468783713109019
  0
ARC
  5
EE44
  8
0
 10
4341.9651314149923564
 20
183.1448123560356009
 30
0.0
 40
0.551839226081608
 50
170.7756995983465913
 51
177.9308976695481874
  0
ARC
  5
EE45
  8
0
 10
4341.4210509612157693
 20
183.2565414416770864
 30
0.0
 40
0.0232776737153096
 50
268.4673710553539081
 51
345.5410934010465098
  0
ARC
  5
EE46
  8
0
 10
4341.4243686790878201
 20
183.2545787975452072
 30
0.0
 40
0.0196043306962353
 50
348.6759709053861229
 51
38.9295544048149225
  0
ARC
  5
EE47
  8
0
 10
4341.428346959260125
 20
183.2579498057841079
 30
0.0
 40
0.0143918507383088
 50
38.4416131868956086
 51
90.4671053439174671
  0
ARC
  5
EE48
  8
0
 10
4341.4114126334188768
 20
183.2194665701283043
 30
0.0
 40
0.0381319319734609
 50
39.9691344295691025
 51
63.8309327312655483
  0
ARC
  5
EE49
  8
0
 10
4341.9804266024739263
 20
183.1408077619888104
 30
0.0
 40
0.5676464879844831
 50
159.6250978505549938
 51
166.6018124028067859
  0
ARC
  5
EE4A
  8
0
 10
4341.4535208217357649
 20
183.3605601502785873
 30
0.0
 40
0.0227286531636772
 50
256.7078998029023182
 51
334.8386259246374266
  0
ARC
  5
EE4B
  8
0
 10
4341.4583292637644263
 20
183.358401103575801
 30
0.0
 40
0.017458738446465
 50
334.542547688383479
 51
72.42839683238482
  0
ARC
  5
EE4C
  8
0
 10
4341.4420667436252188
 20
183.3263413986342982
 30
0.0
 40
0.0369707211637831
 50
35.2659440528522623
 51
54.3775776997680822
  0
ARC
  5
EE4D
  8
0
 10
4341.9635538621314481
 20
183.1460904311377078
 30
0.0
 40
0.5498855785746097
 50
148.0732538682152892
 51
155.3945004768374076
  0
LINE
  5
EE4E
  8
0
 10
4342.5249325584200051
 20
183.14608507165741
 30
0.0
 11
4342.5249325584200051
 21
183.1647364006574037
 31
0.0
  0
LINE
  5
EE4F
  8
0
 10
4342.5249325584200051
 20
183.1248950582574082
 30
0.0
 11
4342.5249325584200051
 21
183.1062437292573861
 31
0.0
  0
ARC
  5
EE50
  8
0
 10
4342.5223252665173277
 20
183.1481696119552112
 30
0.0
 40
0.0167707023993866
 50
81.0561144335211878
 51
170.3082168185310081
  0
ARC
  5
EE51
  8
0
 10
4342.5254852660218603
 20
183.1465934953318992
 30
0.0
 40
0.0201768190453107
 50
167.4058356960858021
 51
225.0058441825017042
  0
ARC
  5
EE52
  8
0
 10
4342.5309307390116373
 20
183.1523354906136944
 30
0.0
 40
0.0280883516482005
 50
225.4319016531121918
 51
257.669708564547193
  0
ARC
  5
EE53
  8
0
 10
4342.5310529259268151
 20
183.1188596580834087
 30
0.0
 40
0.0279048748914839
 50
102.6696654169443974
 51
143.4305832944785948
  0
ARC
  5
EE54
  8
0
 10
4341.9734531234025781
 20
183.1448191036988078
 30
0.0
 40
0.551839229201597
 50
350.7764063443439113
 51
357.9308975945045859
  0
LINE
  5
EE55
  8
0
 10
4342.5181572614192191
 20
183.037714753757399
 30
0.0
 11
4342.5181572614192191
 21
183.0563660827573926
 31
0.0
  0
LINE
  5
EE56
  8
0
 10
4342.5103549108198422
 20
182.9986389516573979
 30
0.0
 11
4342.5103549108198422
 21
183.017290280557404
 31
0.0
  0
LINE
  5
EE57
  8
0
 10
4342.5103549108198422
 20
183.2536898493573858
 30
0.0
 11
4342.5103549108198422
 21
183.2723411782573919
 31
0.0
  0
LINE
  5
EE58
  8
0
 10
4342.4902893906200916
 20
182.9327435061574079
 30
0.0
 11
4342.4902893906200916
 21
182.9513948353213948
 31
0.0
  0
LINE
  5
EE59
  8
0
 10
4342.4749845293199542
 20
182.8959349054574091
 30
0.0
 11
4342.4749845293199542
 21
182.9145862343573867
 31
0.0
  0
LINE
  5
EE5A
  8
0
 10
4342.4749845293199542
 20
183.3563938955574031
 30
0.0
 11
4342.4749845293199542
 21
183.3750452244574092
 31
0.0
  0
LINE
  5
EE5B
  8
0
 10
4342.4423998927186403
 20
182.8352053151573955
 30
0.0
 11
4342.4423998927186403
 21
182.8538566440574016
 31
0.0
  0
LINE
  5
EE5C
  8
0
 10
4342.4201806780201878
 20
182.8020784496573867
 30
0.0
 11
4342.4201806780201878
 21
182.8207297785997127
 31
0.0
  0
LINE
  5
EE5D
  8
0
 10
4342.3763291341201693
 20
182.748848518557395
 30
0.0
 11
4342.3763291341201693
 21
182.7674998474574011
 31
0.0
  0
LINE
  5
EE5E
  8
0
 10
4342.348049438020098
 20
182.7206764351574009
 30
0.0
 11
4342.348049438020098
 21
182.7393277641573945
 31
0.0
  0
LINE
  5
EE5F
  8
0
 10
4342.2946161772188134
 20
182.6769917596573976
 30
0.0
 11
4342.2946161772188134
 21
182.6956430886573912
 31
0.0
  0
LINE
  5
EE60
  8
0
 10
4342.261362772418579
 20
182.6548570958574089
 30
0.0
 11
4342.261362772418579
 21
182.6735084247573866
 31
0.0
  0
LINE
  5
EE61
  8
0
 10
4342.2004012050201709
 20
182.6223272635008072
 30
0.0
 11
4342.2004012050201709
 21
182.6410477824574059
 31
0.0
  0
LINE
  5
EE62
  8
0
 10
4342.1634520013185465
 20
182.6071498318574129
 30
0.0
 11
4342.1634520013185465
 21
182.6258011608088054
 31
0.0
  0
LINE
  5
EE63
  8
0
 10
4342.0973048460200516
 20
182.587086654012495
 30
0.0
 11
4342.0973048460200516
 21
182.6058119959783994
 31
0.0
  0
LINE
  5
EE64
  8
0
 10
4342.0580797806196642
 20
182.579388006757398
 30
0.0
 11
4342.0580797806196642
 21
182.5980393356194043
 31
0.0
  0
LINE
  5
EE65
  8
0
 10
4341.9892890356186399
 20
182.5725620313270099
 30
0.0
 11
4341.9892890356186399
 21
182.591289820806395
 31
0.0
  0
ARC
  5
EE66
  8
0
 10
4341.9734531356507432
 20
183.1261677731006046
 30
0.0
 40
0.5518392168567283
 50
350.7764063043111946
 51
357.9308977158293033
  0
ARC
  5
EE67
  8
0
 10
4342.5123225780071152
 20
183.0398526227245952
 30
0.0
 40
0.0175139342460862
 50
70.54021108985674
 51
171.6752753840951016
  0
ARC
  5
EE68
  8
0
 10
4342.5177389619439055
 20
183.0390600705580084
 30
0.0
 40
0.022987996165082
 50
171.6752753840951016
 51
251.2636813253585899
  0
ARC
  5
EE69
  8
0
 10
4342.518503401275666
 20
183.0120921288840918
 30
0.0
 40
0.0256249627940244
 50
90.7739701403337165
 51
143.3711272349472949
  0
ARC
  5
EE6A
  8
0
 10
4341.9729914641502546
 20
183.1449176099106921
 30
0.0
 40
0.5523116955257682
 50
339.4890194262151795
 51
346.6394272111400028
  0
ARC
  5
EE6B
  8
0
 10
4341.9761529476709256
 20
183.1253035913732958
 30
0.0
 40
0.5490133590240405
 50
339.4675123821542115
 51
346.6609344024903976
  0
ARC
  5
EE6C
  8
0
 10
4342.4811721206178845
 20
182.936173730261288
 30
0.0
 40
0.0177427913535725
 50
59.0788674871345521
 51
160.0723580520877078
  0
ARC
  5
EE6D
  8
0
 10
4342.4857914534568408
 20
182.9344990340804884
 30
0.0
 40
0.0226563280810047
 50
160.0723580520892995
 51
241.5107654681565919
  0
ARC
  5
EE6E
  8
0
 10
4342.485632738037566
 20
182.909135656393488
 30
0.0
 40
0.0240627301804894
 50
78.8416407511683133
 51
144.1300546872697055
  0
ARC
  5
EE6F
  8
0
 10
4341.9721876588928353
 20
183.1452568579707076
 30
0.0
 40
0.5531849866986317
 50
328.2126515238243769
 51
335.3555271635518125
  0
ARC
  5
EE70
  8
0
 10
4341.9797866103908746
 20
183.1225282897570139
 30
0.0
 40
0.5445783145887033
 50
328.1561325283901738
 51
335.4120461589695879
  0
ARC
  5
EE71
  8
0
 10
4342.4303253904736266
 20
182.840451664157996
 30
0.0
 40
0.0180412608193343
 50
47.9891339554028065
 51
148.3950291460394055
  0
ARC
  5
EE72
  8
0
 10
4342.433915248518133
 20
182.8382427394080025
 30
0.0
 40
0.0222562850566079
 50
148.3950291460380129
 51
231.8946210937083947
  0
ARC
  5
EE73
  8
0
 10
4342.433385390820149
 20
182.8141244528092102
 30
0.0
 40
0.0229273636042486
 50
66.847700934573723
 51
145.1333698718341054
  0
ARC
  5
EE74
  8
0
 10
4341.9712416621414377
 20
183.1458941523993929
 30
0.0
 40
0.5543267177093294
 50
316.9513082654877962
 51
324.0843662227675281
  0
ARC
  5
EE75
  8
0
 10
4341.9831592080454357
 20
183.1174249867517005
 30
0.0
 40
0.5389166945602505
 50
316.8491876811465886
 51
324.1864867708475231
  0
ARC
  5
EE76
  8
0
 10
4342.3615223795159181
 20
182.7560660680966009
 30
0.0
 40
0.0187075196740743
 50
37.6753282579641322
 51
159.9035394974933126
  0
ARC
  5
EE77
  8
0
 10
4342.3659657165180761
 20
182.7544403489031026
 30
0.0
 40
0.0234389260828273
 50
159.9035394974933126
 51
220.1480122075944905
  0
ARC
  5
EE78
  8
0
 10
4342.3635656963097063
 20
182.7302781028440108
 30
0.0
 40
0.022533656718209
 50
55.4992776317034782
 51
144.2782545755659953
  0
ARC
  5
EE79
  8
0
 10
4341.970369378869691
 20
183.1467691558841864
 30
0.0
 40
0.5555634210162276
 50
305.7066861691379813
 51
312.8291476954843802
  0
ARC
  5
EE7A
  8
0
 10
4341.970369378869691
 20
183.1281178268847043
 30
0.0
 40
0.5555634210169585
 50
305.706686169139914
 51
312.8291476954810832
  0
ARC
  5
EE7B
  8
0
 10
4342.2778352690684187
 20
182.6871709668126016
 30
0.0
 40
0.0187982905336002
 50
26.78769007817138
 51
124.907392376825598
  0
ARC
  5
EE7C
  8
0
 10
4342.2792902517658149
 20
182.6850858713833929
 30
0.0
 40
0.0213408478292951
 50
124.907392376825598
 51
212.8541046105733869
  0
ARC
  5
EE7D
  8
0
 10
4342.27884881321188
 20
182.6620219826320124
 30
0.0
 40
0.0217417568730298
 50
43.5135860482265997
 51
145.6926560908459862
  0
ARC
  5
EE7E
  8
0
 10
4341.9697338115165621
 20
183.1477182513648927
 30
0.0
 40
0.5567067544841274
 50
294.4779315459202849
 51
301.5906318020428785
  0
ARC
  5
EE7F
  8
0
 10
4341.9758972465506304
 20
183.1164387721638889
 30
0.0
 40
0.542722959125215
 50
294.4350953452272961
 51
301.7347492313998032
  0
ARC
  5
EE80
  8
0
 10
4342.1819669343112764
 20
182.6355549556238032
 30
0.0
 40
0.0192352146643492
 50
16.5923842269865389
 51
113.131270538455496
  0
ARC
  5
EE81
  8
0
 10
4342.1826045324896768
 20
182.6340623854156888
 30
0.0
 40
0.0208582665004648
 50
113.1312705384548991
 51
203.332397701052912
  0
ARC
  5
EE82
  8
0
 10
4342.1821788587376432
 20
182.611241831129206
 30
0.0
 40
0.0213293392975267
 50
31.3139373526852793
 51
111.3587122519371064
  0
ARC
  5
EE83
  8
0
 10
4342.1821147724613184
 20
182.6124861679994069
 30
0.0
 40
0.0201509673650864
 50
112.477660574304906
 51
157.8420525198573898
  0
ARC
  5
EE84
  8
0
 10
4341.9693950352202592
 20
183.1485248428573982
 30
0.0
 40
0.5575824189000695
 50
283.2617924622074952
 51
290.3670390078959258
  0
ARC
  5
EE85
  8
0
 10
4341.9737709341789014
 20
183.1134442212307079
 30
0.0
 40
0.5406597043818838
 50
283.2080330169802096
 51
290.5382510625905752
  0
ARC
  5
EE86
  8
0
 10
4342.0777373016098863
 20
182.603545203309011
 30
0.0
 40
0.0196984045841377
 50
6.6079472644090371
 51
101.3498115295274005
  0
ARC
  5
EE87
  8
0
 10
4342.0778703619089356
 20
182.6028823013953115
 30
0.0
 40
0.0203745288259307
 50
101.3498115295274005
 51
193.7506591364393103
  0
ARC
  5
EE88
  8
0
 10
4342.077727706042424
 20
182.5803968491213993
 30
0.0
 40
0.0206885934554968
 50
18.866073893006341
 51
100.7728418413036025
  0
ARC
  5
EE89
  8
0
 10
4342.077528648275802
 20
182.5815041051502021
 30
0.0
 40
0.0195636480620986
 50
100.8062697460420054
 51
173.7904639614203006
  0
ARC
  5
EE8A
  8
0
 10
4341.9701988554907075
 20
183.1149911713274889
 30
0.0
 40
0.5427649646937719
 50
272.0156282453460221
 51
279.3179747385701148
  0
ARC
  5
EE8B
  8
0
 10
4341.9692960690881591
 20
183.1489880318233077
 30
0.0
 40
0.5580564606580614
 50
272.0531216286889844
 51
279.1543414715075073
  0
ARC
  5
EE8C
  8
0
 10
4341.9734531264466568
 20
183.1448123560356009
 30
0.0
 40
0.551839226081608
 50
2.0691023304517562
 51
9.2243004016533412
  0
ARC
  5
EE8D
  8
0
 10
4342.5175335802232439
 20
183.2565414416770864
 30
0.0
 40
0.0232776737153096
 50
194.4589065989534902
 51
271.5326289446462056
  0
ARC
  5
EE8E
  8
0
 10
4342.5142158623511932
 20
183.2545787975452072
 30
0.0
 40
0.0196043306962353
 50
141.070445595185106
 51
191.3240290946139055
  0
ARC
  5
EE8F
  8
0
 10
4342.5102375821779788
 20
183.2579498057841079
 30
0.0
 40
0.0143918507383088
 50
89.5328946560825329
 51
141.5583868131043914
  0
ARC
  5
EE90
  8
0
 10
4342.527171908019227
 20
183.2194665701283043
 30
0.0
 40
0.0381319319734609
 50
116.1690672687343948
 51
140.0308655704309047
  0
ARC
  5
EE91
  8
0
 10
4341.9581579389650869
 20
183.1408077619888104
 30
0.0
 40
0.5676464879844831
 50
13.3981875971931199
 51
20.3749021494449387
  0
ARC
  5
EE92
  8
0
 10
4342.4850637197032484
 20
183.3605601502785873
 30
0.0
 40
0.0227286531636772
 50
205.1613740753626018
 51
283.2921001970976818
  0
ARC
  5
EE93
  8
0
 10
4342.4802552776736775
 20
183.358401103575801
 30
0.0
 40
0.017458738446465
 50
107.5716031676151943
 51
205.4574523116166063
  0
ARC
  5
EE94
  8
0
 10
4342.4965177978137945
 20
183.3263413986342982
 30
0.0
 40
0.0369707211637831
 50
125.6224223002319036
 51
144.7340559471477093
  0
ARC
  5
EE95
  8
0
 10
4341.9750306793102936
 20
183.1460904311377078
 30
0.0
 40
0.5498855785746097
 50
24.6054995231625888
 51
31.9267461317846397
  0
ARC
  5
EE96
  8
0
 10
4341.9692922707199614
 20
182.5925613365882043
 30
0.0
 40
0.0200371494691568
 50
356.3616844877504946
 51
183.6383155122495054
  0
ARC
  5
EE97
  8
0
 10
4341.9692922707199614
 20
182.5703412125884881
 30
0.0
 40
0.0201197078093812
 50
6.3372368050938759
 51
173.6627631949060913
  0
ARC
  5
EE98
  8
0
 10
4341.9692922707290563
 20
183.1555295420602931
 30
0.0
 40
0.4733757604649657
 50
213.0824665143169057
 51
326.9175334856831228
  0
ARC
  5
EE99
  8
0
 10
4341.9661525566698401
 20
183.1528822343036893
 30
0.0
 40
0.4693002884229217
 50
180.0058817623798006
 51
213.0208924982214
  0
ARC
  5
EE9A
  8
0
 10
4341.9692922707199614
 20
183.1531253590516997
 30
0.0
 40
0.5094709775170815
 50
210.1625084273183859
 51
329.8374915726815857
  0
ARC
  5
EE9B
  8
0
 10
4341.9663157483591931
 20
183.1504602269097006
 30
0.0
 40
0.5055590047949142
 50
180.8441748979755914
 51
210.0708552654566006
  0
ARC
  5
EE9C
  8
0
 10
4341.9665732845996899
 20
183.1499753481373034
 30
0.0
 40
0.5058096053233591
 50
158.2256252736534066
 51
180.788826217941903
  0
ARC
  5
EE9D
  8
0
 10
4341.9724319847700826
 20
183.1528822343036893
 30
0.0
 40
0.4693002884229217
 50
326.9791075017786284
 51
359.9941182376202278
  0
ARC
  5
EE9E
  8
0
 10
4341.9722687930798202
 20
183.1504602269097006
 30
0.0
 40
0.5055590047949142
 50
329.9291447345433994
 51
359.1558251020243802
  0
ARC
  5
EE9F
  8
0
 10
4341.9720112568402328
 20
183.1499753481373034
 30
0.0
 40
0.5058096053233591
 50
359.211173782058097
 51
21.7743747263480998
  0
LINE
  5
EEA0
  8
0
 10
4338.9852922707186735
 20
190.1439625003573894
 30
0.0
 11
4336.9532922707194302
 21
190.1439625003573894
 31
0.0
  0
LINE
  5
EEA1
  8
0
 10
4338.9752922707202742
 20
189.9959625003573933
 30
0.0
 11
4336.963292270718739
 21
189.9959625003573933
 31
0.0
  0
LINE
  5
EEA2
  8
0
 10
4338.6880945447273916
 20
189.7439625003574122
 30
0.0
 11
4337.2504899967116216
 21
189.7439625003574122
 31
0.0
  0
LINE
  5
EEA3
  8
0
 10
4338.9952922707198013
 20
190.0159625003574035
 30
0.0
 11
4338.9952922707198013
 21
190.1339625003573985
 31
0.0
  0
ARC
  5
EEA4
  8
0
 10
4338.9752922707202742
 20
190.0159625003574035
 30
0.0
 40
0.0199999999999996
 50
270.0
 51
0.0000000000016284
  0
ARC
  5
EEA5
  8
0
 10
4338.9852922707186735
 20
190.1339625003573985
 30
0.0
 40
0.0100000000000007
 50
0.0000000000048853
 51
90.0
  0
LINE
  5
EEA6
  8
0
 10
4338.6192922707195976
 20
189.7119625003574015
 30
0.0
 11
4338.6192922707195976
 21
188.6672467715573873
 31
0.0
  0
LINE
  5
EEA7
  8
0
 10
4338.6192922707195976
 20
188.6106782290574131
 30
0.0
 11
4338.6192922707195976
 21
188.5189625003573894
 31
0.0
  0
ARC
  5
EEA8
  8
0
 10
4338.6512922707197504
 20
189.7119625003574015
 30
0.0
 40
0.0320000000000009
 50
90.0
 51
179.9999999999984084
  0
ARC
  5
EEA9
  8
0
 10
4338.6880945447273916
 20
189.7639625003376977
 30
0.0
 40
0.0199999999803207
 50
269.9999999779573727
 51
355.3523317743237158
  0
ARC
  5
EEAA
  8
0
 10
4338.9064694029448219
 20
189.7462096072493125
 30
0.0
 40
0.1990952850310634
 50
147.8684877385124992
 51
175.3523317743236021
  0
ARC
  5
EEAB
  8
0
 10
4338.840376965188625
 20
189.7877199871473124
 30
0.0
 40
0.1210483634535129
 50
102.9158324180809956
 51
147.8684877385124992
  0
ARC
  5
EEAC
  8
0
 10
4338.810292270653008
 20
189.9254752095822028
 30
0.0
 40
0.0200000000669718
 50
278.7081529834180174
 51
359.9999999289428274
  0
LINE
  5
EEAD
  8
0
 10
4338.813320300219857
 20
189.9057057624573872
 30
0.0
 11
4337.1252642412200657
 21
189.9057057624573872
 31
0.0
  0
LINE
  5
EEAE
  8
0
 10
4338.8302922707198377
 20
189.963962500357411
 30
0.0
 11
4338.8302922707198377
 21
189.9254752095822028
 31
0.0
  0
ARC
  5
EEAF
  8
0
 10
4338.8622922707199905
 20
189.963962500357411
 30
0.0
 40
0.0319999999999992
 50
90.0
 51
179.9999999999984084
  0
LINE
  5
EEB0
  8
0
 10
4338.3427922707196558
 20
187.2674201003574126
 30
0.0
 11
4337.595792270720267
 21
187.2674201003574126
 31
0.0
  0
LINE
  5
EEB1
  8
0
 10
4338.3577922707199832
 20
187.9969625003573981
 30
0.0
 11
4338.3577922707199832
 21
187.9349172559101078
 31
0.0
  0
LINE
  5
EEB2
  8
0
 10
4338.3577922707199832
 20
187.3469824934823862
 30
0.0
 11
4338.3577922707199832
 21
187.282420100357399
 31
0.0
  0
ARC
  5
EEB3
  8
0
 10
4338.3427922707196558
 20
187.282420100357399
 30
0.0
 40
0.0149999999999988
 50
270.0
 51
0.0000000000032569
  0
LINE
  5
EEB4
  8
0
 10
4338.3427922707196558
 20
188.0119625003574129
 30
0.0
 11
4337.595792270720267
 21
188.0119625003574129
 31
0.0
  0
LINE
  5
EEB5
  8
0
 10
4338.2962922707201869
 20
188.0709625003574104
 30
0.0
 11
4337.6422922707197358
 21
188.0709625003574104
 31
0.0
  0
LINE
  5
EEB6
  8
0
 10
4338.3367922707202524
 20
188.1989625003573963
 30
0.0
 11
4337.6017922707196703
 21
188.1989625003573963
 31
0.0
  0
LINE
  5
EEB7
  8
0
 10
4338.4123064092118511
 20
188.2589625003573985
 30
0.0
 11
4337.5262781322280716
 21
188.2589625003573985
 31
0.0
  0
LINE
  5
EEB8
  8
0
 10
4338.4123064092118511
 20
188.4389625003574054
 30
0.0
 11
4337.5262781322280716
 21
188.4389625003574054
 31
0.0
  0
LINE
  5
EEB9
  8
0
 10
4338.3367922707202524
 20
188.4989625003574076
 30
0.0
 11
4337.6017922707196703
 21
188.4989625003574076
 31
0.0
  0
LINE
  5
EEBA
  8
0
 10
4338.3467922707186517
 20
188.4489625003573963
 30
0.0
 11
4338.3467922707186517
 21
188.4889625003573883
 31
0.0
  0
LINE
  5
EEBB
  8
0
 10
4338.3467922707186517
 20
188.2489625003574076
 30
0.0
 11
4338.3467922707186517
 21
188.2089625003573872
 31
0.0
  0
LINE
  5
EEBC
  8
0
 10
4338.6126256040197404
 20
188.6201063194573919
 30
0.0
 11
4337.3259589373874405
 21
188.6201063195256893
 31
0.0
  0
LINE
  5
EEBD
  8
0
 10
4338.6126256040197404
 20
188.6578186811574085
 30
0.0
 11
4337.3259589373201379
 21
188.6578186811574085
 31
0.0
  0
ARC
  5
EEBE
  8
0
 10
4338.6092922707912294
 20
188.6106782290798947
 30
0.0
 40
0.0099999999290831
 50
359.9999998708545945
 51
70.5287798553962659
  0
ARC
  5
EEBF
  8
0
 10
4338.6092922707912294
 20
188.6672467715347921
 30
0.0
 40
0.0099999999290814
 50
289.4712201446047857
 51
0.0000001291763201
  0
ARC
  5
EEC0
  8
0
 10
4338.3367922707202524
 20
188.2089625003573872
 30
0.0
 40
0.009999999999998
 50
270.0
 51
0.0000000000097707
  0
ARC
  5
EEC1
  8
0
 10
4338.3567922707197795
 20
188.2489625003574076
 30
0.0
 40
0.0099999999999989
 50
90.0
 51
180.0
  0
ARC
  5
EEC2
  8
0
 10
4338.3567922707197795
 20
188.4489625003573963
 30
0.0
 40
0.0100000000000016
 50
180.0
 51
270.0
  0
ARC
  5
EEC3
  8
0
 10
4338.3367922707202524
 20
188.4889625003573883
 30
0.0
 40
0.0100000000000007
 50
0.0000000000048853
 51
90.0
  0
ARC
  5
EEC4
  8
0
 10
4338.3427922707196558
 20
187.9969625003573981
 30
0.0
 40
0.0149999999999997
 50
0.0000000000032569
 51
90.0
  0
LINE
  5
EEC5
  8
0
 10
4338.2477922707203106
 20
188.0809625003574013
 30
0.0
 11
4338.2477922707203106
 21
188.1889625003574054
 31
0.0
  0
LINE
  5
EEC6
  8
0
 10
4338.3062922707185862
 20
188.0219625003574038
 30
0.0
 11
4338.3062922707185862
 21
188.060962500357391
 31
0.0
  0
ARC
  5
EEC7
  8
0
 10
4338.316292270719714
 20
188.0219625003574038
 30
0.0
 40
0.0100000000000041
 50
180.0000000000146088
 51
270.0
  0
ARC
  5
EEC8
  8
0
 10
4338.2962922707201869
 20
188.060962500357391
 30
0.0
 40
0.009999999999998
 50
359.9999999999902229
 51
90.0
  0
ARC
  5
EEC9
  8
0
 10
4338.2577922707187099
 20
188.0809625003574013
 30
0.0
 40
0.0099999999999985
 50
180.0
 51
270.0
  0
ARC
  5
EECA
  8
0
 10
4338.2577922707187099
 20
188.1889625003574054
 30
0.0
 40
0.0100000000000007
 50
90.0
 51
180.0
  0
LINE
  5
EECB
  8
0
 10
4338.8442922707199614
 20
187.3609468003573966
 30
0.0
 11
4338.3496044774046823
 21
187.3609468003573966
 31
0.0
  0
LINE
  5
EECC
  8
0
 10
4337.588980064034331
 20
187.3609468003573966
 30
0.0
 11
4335.4277112707186461
 21
187.3609468003573966
 31
0.0
  0
LINE
  5
EECD
  8
0
 10
4338.8442922707199614
 20
187.9209468003573988
 30
0.0
 11
4338.3495997515410636
 21
187.9209468003573988
 31
0.0
  0
LINE
  5
EECE
  8
0
 10
4337.5889847898979497
 20
187.9209468003573988
 30
0.0
 11
4335.4277112707186461
 21
187.9209468003573988
 31
0.0
  0
LINE
  5
EECF
  8
0
 10
4338.8642922707185789
 20
187.9009468003573886
 30
0.0
 11
4338.8642922707185789
 21
187.3809468003574068
 31
0.0
  0
ARC
  5
EED0
  8
0
 10
4338.8442922707199614
 20
187.9009468003573886
 30
0.0
 40
0.0200000000000014
 50
359.9999988540899949
 51
90.0
  0
ARC
  5
EED1
  8
0
 10
4338.8442922707199614
 20
187.3809468003574068
 30
0.0
 40
0.0200000000000014
 50
270.0
 51
0.0000011459132424
  0
ARC
  5
EED2
  8
0
 10
4338.4763041439582594
 20
187.6409498746963038
 30
0.0
 40
0.2586293026559252
 50
152.1797894342051904
 51
207.8202105657946959
  0
ARC
  5
EED3
  8
0
 10
4338.8106647820577564
 20
187.4951860741101086
 30
0.0
 40
0.6229621296350384
 50
146.6176732371147011
 51
154.6757877108979073
  0
ARC
  5
EED4
  8
0
 10
4339.4616801498023051
 20
187.0662085901782916
 30
0.0
 40
1.402604798271015
 50
142.0481843906082986
 51
146.6176732371147011
  0
ARC
  5
EED5
  8
0
 10
4338.3478353353029888
 20
187.9349320281338009
 30
0.0
 40
0.0099569463754462
 50
322.0481843906069912
 51
359.9149953851626833
  0
ARC
  5
EED6
  8
0
 10
4338.8106647820577564
 20
187.786713675282499
 30
0.0
 40
0.6229621296350384
 50
205.3242122891020074
 51
213.3823267628852989
  0
ARC
  5
EED7
  8
0
 10
4339.4616801498023051
 20
188.2156911592142876
 30
0.0
 40
1.402604798271015
 50
213.3823267628852989
 51
217.9518156093917014
  0
ARC
  5
EED8
  8
0
 10
4338.3478353353029888
 20
187.3469677212588067
 30
0.0
 40
0.0099569463754462
 50
0.085004614010069
 51
37.9518156093930088
  0
LINE
  5
EED9
  8
0
 10
4335.4077112707200286
 20
187.3809468003574068
 30
0.0
 11
4335.4077112707200286
 21
187.9009468003573886
 31
0.0
  0
LINE
  5
EEDA
  8
0
 10
4338.3309549474161031
 20
188.2789625003572951
 30
0.0
 11
4338.3309549474161031
 21
188.4189625003573951
 31
0.0
  0
LINE
  5
EEDB
  8
0
 10
4338.2930003583587677
 20
188.2789625003574088
 30
0.0
 11
4338.2930003583587677
 21
188.4189625003573951
 31
0.0
  0
LINE
  5
EEDC
  8
0
 10
4338.2632815295255568
 20
188.2789625003574088
 30
0.0
 11
4338.2632815295255568
 21
188.4189625003573951
 31
0.0
  0
LINE
  5
EEDD
  8
0
 10
4338.2173922707315796
 20
188.2789625003574088
 30
0.0
 11
4338.2173922707315796
 21
188.4189625003573951
 31
0.0
  0
LINE
  5
EEDE
  8
0
 10
4338.1827593703083039
 20
188.2789625003574088
 30
0.0
 11
4338.1827593703083039
 21
188.4189625003573951
 31
0.0
  0
LINE
  5
EEDF
  8
0
 10
4338.1309410225867396
 20
188.2789625003574088
 30
0.0
 11
4338.1309410225867396
 21
188.4189625003573099
 31
0.0
  0
LINE
  5
EEE0
  8
0
 10
4338.0929076745096609
 20
188.2739330965860063
 30
0.0
 11
4338.0929076745096609
 21
188.4239919041287976
 31
0.0
  0
LINE
  5
EEE1
  8
0
 10
4338.0374249483102176
 20
188.2789625030640934
 30
0.0
 11
4338.0374249483102176
 21
188.4189624976507105
 31
0.0
  0
LINE
  5
EEE2
  8
0
 10
4337.9976533923927491
 20
188.278962495547205
 30
0.0
 11
4337.9976533923927491
 21
188.4189625051675989
 31
0.0
  0
ARC
  5
EEE3
  8
0
 10
4338.0181319631410588
 20
188.2792728060940988
 30
0.0
 40
0.0204809216731077
 50
180.868133049516814
 51
262.5992688003664171
  0
ARC
  5
EEE4
  8
0
 10
4338.0167088444768524
 20
188.2796545190107906
 30
0.0
 40
0.0207276589146577
 50
273.360432619697292
 51
358.0867611363963761
  0
ARC
  5
EEE5
  8
0
 10
4338.1109351126242473
 20
188.2764477987925034
 30
0.0
 40
0.0182019848419872
 50
187.9411203038567919
 51
253.86837065199569
  0
ARC
  5
EEE6
  8
0
 10
4338.1102441878001628
 20
188.2791948371329909
 30
0.0
 40
0.0206981388197154
 50
282.1784081575355003
 51
359.3568409046580996
  0
ARC
  5
EEE7
  8
0
 10
4338.1350398601080087
 20
188.2793452391032076
 30
0.0
 40
0.0477210450707086
 50
349.1313994213509773
 51
359.5404637541752209
  0
ARC
  5
EEE8
  8
0
 10
4338.1960725210847158
 20
188.267626884946111
 30
0.0
 40
0.0144264048376814
 50
169.1313988391252963
 51
216.9123145300654869
  0
ARC
  5
EEE9
  8
0
 10
4338.1950745787426058
 20
188.2808427229259962
 30
0.0
 40
0.0223967545106538
 50
282.3291148834189244
 51
355.1843129313803047
  0
ARC
  5
EEEA
  8
0
 10
4338.2260664354616893
 20
188.2797755461976976
 30
0.0
 40
0.0372239743946374
 50
334.7332954760099142
 51
358.7484463774869141
  0
ARC
  5
EEEB
  8
0
 10
4338.2627722697206991
 20
188.2621961204517049
 30
0.0
 40
0.0034813394778096
 50
150.9390139919262879
 51
248.2552739172276972
  0
ARC
  5
EEEC
  8
0
 10
4338.2708634174641702
 20
188.2803681267477032
 30
0.0
 40
0.0221815224399663
 50
285.1990998794179859
 51
356.3667751487084274
  0
ARC
  5
EEED
  8
0
 10
4338.3007313515518035
 20
188.2798957508256024
 30
0.0
 40
0.0302380009814091
 50
316.1889084568301769
 51
358.2313709892695215
  0
LINE
  5
EEEE
  8
0
 10
4338.354460849219322
 20
188.2772837512812032
 30
0.0
 11
4338.354460849219322
 21
188.4206412494336007
 31
0.0
  0
LINE
  5
EEEF
  8
0
 10
4338.3828219708202596
 20
188.2789625003576077
 30
0.0
 11
4338.3828219708202596
 21
188.4189625003571962
 31
0.0
  0
LINE
  5
EEF0
  8
0
 10
4338.3990876249199573
 20
188.2781172171995934
 30
0.0
 11
4338.3990876249199573
 21
188.4198077835152105
 31
0.0
  0
LINE
  5
EEF1
  8
0
 10
4338.4166157620202284
 20
188.2789625003574088
 30
0.0
 11
4338.4166157620202284
 21
188.4189625003573951
 31
0.0
  0
LINE
  5
EEF2
  8
0
 10
4338.4249302813186659
 20
188.2789625003572951
 30
0.0
 11
4338.4249302813186659
 21
188.4189625003575088
 31
0.0
  0
LINE
  5
EEF3
  8
0
 10
4338.4308593702198777
 20
188.2789625003553908
 30
0.0
 11
4338.4308593702198777
 21
188.418962500357793
 31
0.0
  0
ARC
  5
EEF4
  8
0
 10
4338.4108117210853379
 20
188.2789543539381043
 30
0.0
 40
0.0200476507898201
 50
274.2757559027929233
 51
0.0232823016952486
  0
ARC
  5
EEF5
  8
0
 10
4338.4048067190324218
 20
188.2790482385616997
 30
0.0
 40
0.0201237449340625
 50
273.5219392087112737
 51
359.7558877767403942
  0
ARC
  5
EEF6
  8
0
 10
4338.3953014964508839
 20
188.2790967731318972
 30
0.0
 40
0.0213146885018345
 50
304.6248336404277097
 51
359.6390604456128131
  0
ARC
  5
EEF7
  8
0
 10
4338.3982191064387735
 20
188.2748713760396129
 30
0.0
 40
0.016179863419184
 50
280.5010575939085129
 51
304.6248336404268002
  0
ARC
  5
EEF8
  8
0
 10
4338.3798816470371094
 20
188.2785398587784869
 30
0.0
 40
0.019210627588701
 50
309.5371955811791054
 51
358.7393679622409195
  0
ARC
  5
EEF9
  8
0
 10
4338.3778735017431245
 20
188.2822133675200007
 30
0.0
 40
0.0233353914486624
 50
274.8781148119031172
 51
307.5976801598891939
  0
ARC
  5
EEFA
  8
0
 10
4338.3595283551330795
 20
188.2791475425293868
 30
0.0
 40
0.0232943506536603
 50
299.943169134459481
 51
359.544857585820921
  0
ARC
  5
EEFB
  8
0
 10
4338.3355322598126804
 20
188.2781231258192918
 30
0.0
 40
0.0189471909930842
 50
303.3028062306719903
 51
357.4609237258648022
  0
ARC
  5
EEFC
  8
0
 10
4338.3314853654756007
 20
188.2888324293438984
 30
0.0
 40
0.0302232109665149
 50
278.7690394472900834
 51
298.5622315972245815
  0
ARC
  5
EEFD
  8
0
 10
4338.0181319631410588
 20
188.4186521946207051
 30
0.0
 40
0.0204809216731077
 50
97.4007311996335545
 51
179.131866950483186
  0
ARC
  5
EEFE
  8
0
 10
4338.0167088444768524
 20
188.4182704817040133
 30
0.0
 40
0.0207276589146577
 50
1.913238863603544
 51
86.6395673803026938
  0
ARC
  5
EEFF
  8
0
 10
4338.1109351126242473
 20
188.4214772019223005
 30
0.0
 40
0.0182019848419872
 50
106.1316293480042958
 51
172.0588796961432081
  0
ARC
  5
EF00
  8
0
 10
4338.1102441878001628
 20
188.4187301635816993
 30
0.0
 40
0.0206981388197154
 50
0.643159095341897
 51
77.8215918424645565
  0
ARC
  5
EF01
  8
0
 10
4338.1350398601080087
 20
188.4185797616115963
 30
0.0
 40
0.0477210450707086
 50
0.459536245824816
 51
10.8686005786490103
  0
ARC
  5
EF02
  8
0
 10
4338.1960725210847158
 20
188.4302981157686077
 30
0.0
 40
0.0144264048376814
 50
143.0876854699345131
 51
190.8686011608747037
  0
ARC
  5
EF03
  8
0
 10
4338.1950745787426058
 20
188.417082277788694
 30
0.0
 40
0.0223967545106538
 50
4.8156870686181081
 51
77.6708851165811041
  0
ARC
  5
EF04
  8
0
 10
4338.2260664354616893
 20
188.4181494545169926
 30
0.0
 40
0.0372239743946374
 50
1.2515536225130901
 51
25.2667045239885901
  0
ARC
  5
EF05
  8
0
 10
4338.2627722697206991
 20
188.435728880263099
 30
0.0
 40
0.0034813394778096
 50
111.7447260827722033
 51
209.0609860080737121
  0
ARC
  5
EF06
  8
0
 10
4338.2708634174641702
 20
188.4175568739671007
 30
0.0
 40
0.0221815224399663
 50
3.6332248512900258
 51
74.8009001205820567
  0
ARC
  5
EF07
  8
0
 10
4338.3007313515518035
 20
188.4180292498892015
 30
0.0
 40
0.0302380009814091
 50
1.768629010730542
 51
43.8110915431697876
  0
ARC
  5
EF08
  8
0
 10
4338.4108117210853379
 20
188.4189706467765859
 30
0.0
 40
0.0200476507898201
 50
359.9767176983048103
 51
85.7242440972070625
  0
ARC
  5
EF09
  8
0
 10
4338.4048067190324218
 20
188.4188767621529905
 30
0.0
 40
0.0201237449340625
 50
0.2441122232595845
 51
86.4780607912886836
  0
ARC
  5
EF0A
  8
0
 10
4338.3953014964508839
 20
188.418828227582793
 30
0.0
 40
0.0213146885018345
 50
0.3609395543872172
 51
55.3751663595722476
  0
ARC
  5
EF0B
  8
0
 10
4338.3982191064387735
 20
188.423053624675191
 30
0.0
 40
0.016179863419184
 50
55.3751663595731927
 51
79.498942406091416
  0
ARC
  5
EF0C
  8
0
 10
4338.3798816470371094
 20
188.4193851419362886
 30
0.0
 40
0.019210627588701
 50
1.2606320377591369
 51
50.4628044188208804
  0
ARC
  5
EF0D
  8
0
 10
4338.3778735017431245
 20
188.4157116331948032
 30
0.0
 40
0.0233353914486624
 50
52.4023198401108488
 51
85.1218851880968828
  0
ARC
  5
EF0E
  8
0
 10
4338.3595283551330795
 20
188.4187774581853034
 30
0.0
 40
0.0232943506536603
 50
0.45514241417914
 51
60.0568308655405403
  0
ARC
  5
EF0F
  8
0
 10
4338.3355322598126804
 20
188.4198018748955121
 30
0.0
 40
0.0189471909930842
 50
2.539076274133611
 51
56.697193769328031
  0
ARC
  5
EF10
  8
0
 10
4338.3314853654756007
 20
188.4090925713709055
 30
0.0
 40
0.0302232109665149
 50
61.437768402775319
 51
81.230960552709945
  0
LINE
  5
EF11
  8
0
 10
4337.2243235720397934
 20
187.3624333156749913
 30
0.0
 11
4335.4277112605977891
 21
187.3624333156749913
 31
0.0
  0
LINE
  5
EF12
  8
0
 10
4337.2103061457883086
 20
187.3693748115659901
 30
0.0
 11
4335.427200336343958
 21
187.3693748115659901
 31
0.0
  0
LINE
  5
EF13
  8
0
 10
4337.2272778253382057
 20
187.3946604813135934
 30
0.0
 11
4335.4277112707186461
 21
187.3946604813135934
 31
0.0
  0
LINE
  5
EF14
  8
0
 10
4337.2255325983342118
 20
187.4161387546510014
 30
0.0
 11
4335.4277112707186461
 21
187.4161387546510014
 31
0.0
  0
LINE
  5
EF15
  8
0
 10
4337.22159332989213
 20
187.4643825064356122
 30
0.0
 11
4335.4272350125438606
 21
187.4643825064356122
 31
0.0
  0
LINE
  5
EF16
  8
0
 10
4337.2215933349079933
 20
187.4971276848048092
 30
0.0
 11
4335.4277112707186461
 21
187.4971276848048092
 31
0.0
  0
LINE
  5
EF17
  8
0
 10
4337.2178834486412597
 20
187.5609848447479067
 30
0.0
 11
4335.4277112707186461
 21
187.5609848447479067
 31
0.0
  0
LINE
  5
EF18
  8
0
 10
4337.2178834486412597
 20
187.6000117715780107
 30
0.0
 11
4335.4277112700056023
 21
187.6000117715780107
 31
0.0
  0
ARC
  5
EF19
  8
0
 10
4337.2160174185501091
 20
190.0259764497996002
 30
0.0
 40
2.663556085298008
 50
270.1786740338712889
 51
272.6173223393175249
  0
ARC
  5
EF1A
  8
0
 10
4337.2090087148462771
 20
185.3860654951890865
 30
0.0
 40
1.983309740750212
 50
86.2811116863824168
 51
89.9625185511961547
  0
ARC
  5
EF1B
  8
0
 10
4337.2175270144607566
 20
188.1027046212527978
 30
0.0
 40
0.7081112782711866
 50
270.7889974142584038
 51
279.7667008135974243
  0
ARC
  5
EF1C
  8
0
 10
4337.2166532259316227
 20
186.7652037126485993
 30
0.0
 40
0.6509956007231722
 50
79.2885931264183768
 51
89.2184796044220718
  0
ARC
  5
EF1D
  8
0
 10
4337.2146523010396777
 20
187.9330928578777105
 30
0.0
 40
0.46876174271208
 50
270.8484186237304243
 51
285.2116741746867206
  0
ARC
  5
EF1E
  8
0
 10
4337.2146523010396777
 20
187.0284173334370905
 30
0.0
 40
0.46876174271208
 50
74.7883258253132652
 51
89.1515807630215704
  0
ARC
  5
EF1F
  8
0
 10
4337.2127973600590849
 20
187.9694917802619898
 30
0.0
 40
0.4085385962919077
 50
270.7133204566007976
 51
287.7945551252402083
  0
ARC
  5
EF20
  8
0
 10
4337.2127973599417601
 20
187.1915048355637907
 30
0.0
 40
0.4085385967934255
 50
72.2054448800132889
 51
89.2866795277649032
  0
ARC
  5
EF21
  8
0
 10
4335.4277112707186461
 20
187.3809468003574068
 30
0.0
 40
0.0200000000000005
 50
180.0000000000048885
 51
270.0
  0
ARC
  5
EF22
  8
0
 10
4335.4277461993387988
 20
187.382475983161811
 30
0.0
 40
0.0200426979396476
 50
181.5953834083053948
 51
269.900121059262915
  0
ARC
  5
EF23
  8
0
 10
4335.4274558038778196
 20
187.3898428315021931
 30
0.0
 40
0.0204696141577849
 50
195.2955975483764917
 51
269.2849112181287978
  0
ARC
  5
EF24
  8
0
 10
4335.4292450022312551
 20
187.4163297136902884
 30
0.0
 40
0.0217234427323317
 50
187.5776820424474067
 51
265.9514007767039061
  0
ARC
  5
EF25
  8
0
 10
4335.4281004631357064
 20
187.4429303024217006
 30
0.0
 40
0.0267943744597213
 50
220.4519370749536051
 51
269.1677407096548791
  0
ARC
  5
EF26
  8
0
 10
4335.4274731406931096
 20
187.4849453696631087
 30
0.0
 40
0.0205642420021944
 50
196.0580009995977093
 51
269.3365161289854086
  0
ARC
  5
EF27
  8
0
 10
4335.4293173271089472
 20
187.5491784074166901
 30
0.0
 40
0.0520754946356884
 50
251.6089660905159064
 51
268.2326649537819208
  0
ARC
  5
EF28
  8
0
 10
4335.4116429993309794
 20
187.4960196452688876
 30
0.0
 40
0.0039444648030117
 50
71.6089658905705164
 51
175.3944626008564001
  0
ARC
  5
EF29
  8
0
 10
4335.4277809828190584
 20
187.5813307487250086
 30
0.0
 40
0.0203460234055779
 50
189.4534409455401089
 51
269.8036856255400266
  0
LINE
  5
EF2A
  8
0
 10
4335.4277112700056023
 20
187.6000117715780107
 30
0.0
 11
4335.4162095851197591
 21
187.6003437571573897
 31
0.0
  0
ARC
  5
EF2B
  8
0
 10
4335.4153343840116577
 20
187.5906784783728085
 30
0.0
 40
0.0097048230773271
 50
84.8259180405380846
 51
141.7667050922106
  0
LINE
  5
EF2C
  8
0
 10
4337.2243235720397934
 20
187.9194602850396905
 30
0.0
 11
4335.4277112605977891
 21
187.9194602850396905
 31
0.0
  0
LINE
  5
EF2D
  8
0
 10
4337.2103061457883086
 20
187.9125187891488054
 30
0.0
 11
4335.427200336343958
 21
187.9125187891488054
 31
0.0
  0
LINE
  5
EF2E
  8
0
 10
4337.2272778253382057
 20
187.8872331194010883
 30
0.0
 11
4335.4277112707186461
 21
187.8872331194010883
 31
0.0
  0
LINE
  5
EF2F
  8
0
 10
4337.2255325983342118
 20
187.8657548460637088
 30
0.0
 11
4335.4277112707186461
 21
187.8657548460637088
 31
0.0
  0
LINE
  5
EF30
  8
0
 10
4337.22159332989213
 20
187.817511094279098
 30
0.0
 11
4335.4272350125438606
 21
187.817511094279098
 31
0.0
  0
LINE
  5
EF31
  8
0
 10
4337.2215933349079933
 20
187.784765915909901
 30
0.0
 11
4335.4277112707186461
 21
187.784765915909901
 31
0.0
  0
LINE
  5
EF32
  8
0
 10
4337.2178834486412597
 20
187.7209087559668035
 30
0.0
 11
4335.4277112707186461
 21
187.7209087559668035
 31
0.0
  0
LINE
  5
EF33
  8
0
 10
4337.2178834486412597
 20
187.6818818291368132
 30
0.0
 11
4335.4277112700056023
 21
187.6818818291368132
 31
0.0
  0
ARC
  5
EF34
  8
0
 10
4337.2160174185501091
 20
185.2559171509151099
 30
0.0
 40
2.663556085298008
 50
87.3826776606825035
 51
89.8213259661287111
  0
ARC
  5
EF35
  8
0
 10
4337.2090087148462771
 20
189.8958281055257089
 30
0.0
 40
1.983309740750212
 50
270.0374814488038169
 51
273.7188883136175832
  0
ARC
  5
EF36
  8
0
 10
4337.2175270144607566
 20
187.1791889794619976
 30
0.0
 40
0.7081112782711866
 50
80.2332991864025757
 51
89.2110025857415536
  0
ARC
  5
EF37
  8
0
 10
4337.2166532259316227
 20
188.5166898880661961
 30
0.0
 40
0.6509956007231722
 50
270.7815203955778998
 51
280.7114068735817227
  0
ARC
  5
EF38
  8
0
 10
4337.2146523010396777
 20
187.3488007428371134
 30
0.0
 40
0.46876174271208
 50
74.7883258253132652
 51
89.1515813762696183
  0
ARC
  5
EF39
  8
0
 10
4337.2146523010396777
 20
188.2534762672777049
 30
0.0
 40
0.46876174271208
 50
270.8484192369783727
 51
285.2116741746867206
  0
ARC
  5
EF3A
  8
0
 10
4337.2127973600590849
 20
187.3124018204528056
 30
0.0
 40
0.4085385962919077
 50
72.2054448747598343
 51
89.2866795433991882
  0
ARC
  5
EF3B
  8
0
 10
4337.2127973599417601
 20
188.0903887651510047
 30
0.0
 40
0.4085385967934255
 50
270.7133204722351252
 51
287.7945551199866827
  0
ARC
  5
EF3C
  8
0
 10
4335.4277112707186461
 20
187.9009468003573886
 30
0.0
 40
0.0200000000000005
 50
90.0
 51
179.9999999999951115
  0
ARC
  5
EF3D
  8
0
 10
4335.4277461993387988
 20
187.8994176175530129
 30
0.0
 40
0.0200426979396476
 50
90.0998789407371561
 51
178.4046165916944915
  0
ARC
  5
EF3E
  8
0
 10
4335.4274558038778196
 20
187.8920507692126023
 30
0.0
 40
0.0204696141577849
 50
90.7150887818711453
 51
164.7044024516233947
  0
ARC
  5
EF3F
  8
0
 10
4335.4292450022312551
 20
187.8655638870243934
 30
0.0
 40
0.0217234427323317
 50
94.0485992232960655
 51
172.4223179575525933
  0
ARC
  5
EF40
  8
0
 10
4335.4281004631357064
 20
187.8389632982930095
 30
0.0
 40
0.0267943744597213
 50
90.8322592903450357
 51
139.5480629250463949
  0
ARC
  5
EF41
  8
0
 10
4335.4274731406931096
 20
187.7969482310516867
 30
0.0
 40
0.0205642420021944
 50
90.6634838710145914
 51
163.9419990004022054
  0
ARC
  5
EF42
  8
0
 10
4335.4293173271089472
 20
187.7327151932979916
 30
0.0
 40
0.0520754946356884
 50
91.7673350462180935
 51
108.3910339094840936
  0
ARC
  5
EF43
  8
0
 10
4335.4116429993309794
 20
187.7858739554459078
 30
0.0
 40
0.0039444648030117
 50
184.6055373991434863
 51
288.3910341094294836
  0
ARC
  5
EF44
  8
0
 10
4335.4277809828190584
 20
187.7005628519897869
 30
0.0
 40
0.0203460234055779
 50
90.1963143744600586
 51
170.5465590544598058
  0
LINE
  5
EF45
  8
0
 10
4335.4277112700056023
 20
187.6818818291368132
 30
0.0
 11
4335.4162095851197591
 21
187.6815498435574057
 31
0.0
  0
ARC
  5
EF46
  8
0
 10
4335.4153343840116577
 20
187.6912151223419869
 30
0.0
 40
0.0097048230773271
 50
218.2332949077894
 51
275.174081959461887
  0
LINE
  5
EF47
  8
0
 10
4336.9432922707201215
 20
190.0159625003574035
 30
0.0
 11
4336.9432922707201215
 21
190.1339625003573985
 31
0.0
  0
ARC
  5
EF48
  8
0
 10
4336.963292270718739
 20
190.0159625003574035
 30
0.0
 40
0.0199999999999996
 50
179.9999999999984084
 51
270.0
  0
ARC
  5
EF49
  8
0
 10
4336.9532922707194302
 20
190.1339625003573985
 30
0.0
 40
0.0100000000000007
 50
90.0
 51
179.9999999999951115
  0
LINE
  5
EF4A
  8
0
 10
4337.3192922707203252
 20
189.7119625003574015
 30
0.0
 11
4337.3192922707203252
 21
188.6672467715573873
 31
0.0
  0
LINE
  5
EF4B
  8
0
 10
4337.3192922707203252
 20
188.6106782290574131
 30
0.0
 11
4337.3192922707203252
 21
188.5189625003573894
 31
0.0
  0
ARC
  5
EF4C
  8
0
 10
4337.2872922707201724
 20
189.7119625003574015
 30
0.0
 40
0.0320000000000009
 50
0.0000000000016284
 51
90.0
  0
ARC
  5
EF4D
  8
0
 10
4337.2504899967116216
 20
189.7639625003376977
 30
0.0
 40
0.0199999999803207
 50
184.6476682256746926
 51
270.0000000220426273
  0
ARC
  5
EF4E
  8
0
 10
4337.0321151384941913
 20
189.7462096072493125
 30
0.0
 40
0.1990952850310634
 50
4.6476682256763553
 51
32.1315122614875222
  0
ARC
  5
EF4F
  8
0
 10
4337.0982075762512977
 20
189.7877199871473124
 30
0.0
 40
0.1210483634535129
 50
32.1315122614875222
 51
77.0841675819189334
  0
ARC
  5
EF50
  8
0
 10
4337.1282922707869147
 20
189.9254752095822028
 30
0.0
 40
0.0200000000669718
 50
180.0000000710570873
 51
261.2918470165819826
  0
LINE
  5
EF51
  8
0
 10
4337.1082922707200851
 20
189.963962500357411
 30
0.0
 11
4337.1082922707200851
 21
189.9254752095822028
 31
0.0
  0
ARC
  5
EF52
  8
0
 10
4337.0762922707199323
 20
189.963962500357411
 30
0.0
 40
0.0319999999999992
 50
0.0000000000016284
 51
90.0
  0
LINE
  5
EF53
  8
0
 10
4337.5807922707199396
 20
187.9969625003573981
 30
0.0
 11
4337.5807922707199396
 21
187.9349172559101078
 31
0.0
  0
LINE
  5
EF54
  8
0
 10
4337.5807922707199396
 20
187.3469824934823862
 30
0.0
 11
4337.5807922707199396
 21
187.282420100357399
 31
0.0
  0
ARC
  5
EF55
  8
0
 10
4337.595792270720267
 20
187.282420100357399
 30
0.0
 40
0.0149999999999988
 50
179.9999999999967031
 51
270.0
  0
LINE
  5
EF56
  8
0
 10
4337.5917922707203616
 20
188.4489625003573963
 30
0.0
 11
4337.5917922707203616
 21
188.4889625003573883
 31
0.0
  0
LINE
  5
EF57
  8
0
 10
4337.5917922707203616
 20
188.2489625003574076
 30
0.0
 11
4337.5917922707203616
 21
188.2089625003573872
 31
0.0
  0
ARC
  5
EF58
  8
0
 10
4337.3292922708551487
 20
188.6106782290144963
 30
0.0
 40
0.0100000001349709
 50
109.4712211818806935
 51
179.9999997541960965
  0
ARC
  5
EF59
  8
0
 10
4337.3292922707396428
 20
188.6672467715636969
 30
0.0
 40
0.0100000000199217
 50
180.0000000363239963
 51
250.5287788796910888
  0
ARC
  5
EF5A
  8
0
 10
4337.6017922707196703
 20
188.2089625003573872
 30
0.0
 40
0.009999999999998
 50
179.9999999999901945
 51
270.0
  0
ARC
  5
EF5B
  8
0
 10
4337.5817922707201433
 20
188.2489625003574076
 30
0.0
 40
0.0099999999999989
 50
0.0
 51
90.0
  0
ARC
  5
EF5C
  8
0
 10
4337.5817922707201433
 20
188.4489625003573963
 30
0.0
 40
0.0100000000000016
 50
270.0
 51
0.0
  0
ARC
  5
EF5D
  8
0
 10
4337.6017922707196703
 20
188.4889625003573883
 30
0.0
 40
0.0100000000000007
 50
90.0
 51
179.9999999999951115
  0
ARC
  5
EF5E
  8
0
 10
4337.595792270720267
 20
187.9969625003573981
 30
0.0
 40
0.0149999999999997
 50
90.0
 51
179.9999999999967031
  0
LINE
  5
EF5F
  8
0
 10
4337.6907922707187026
 20
188.0809625003574013
 30
0.0
 11
4337.6907922707187026
 21
188.1889625003574054
 31
0.0
  0
LINE
  5
EF60
  8
0
 10
4337.6322922707186081
 20
188.0219625003574038
 30
0.0
 11
4337.6322922707186081
 21
188.060962500357391
 31
0.0
  0
ARC
  5
EF61
  8
0
 10
4337.6222922707202088
 20
188.0219625003574038
 30
0.0
 40
0.0100000000000041
 50
270.0
 51
359.9999999999852776
  0
ARC
  5
EF62
  8
0
 10
4337.6422922707197358
 20
188.060962500357391
 30
0.0
 40
0.009999999999998
 50
90.0
 51
180.0000000000098055
  0
ARC
  5
EF63
  8
0
 10
4337.6807922707193939
 20
188.0809625003574013
 30
0.0
 40
0.0099999999999985
 50
270.0
 51
0.0
  0
ARC
  5
EF64
  8
0
 10
4337.6807922707193939
 20
188.1889625003574054
 30
0.0
 40
0.0100000000000007
 50
0.0
 51
90.0
  0
ARC
  5
EF65
  8
0
 10
4337.4622803974816634
 20
187.6409498746963038
 30
0.0
 40
0.2586293026559252
 50
332.1797894342051904
 51
27.8202105657947385
  0
ARC
  5
EF66
  8
0
 10
4337.1279197593812569
 20
187.4951860741101086
 30
0.0
 40
0.6229621296350384
 50
25.3242122891020394
 51
33.3823267628852918
  0
ARC
  5
EF67
  8
0
 10
4336.4769043916394367
 20
187.0662085901782916
 30
0.0
 40
1.402604798271015
 50
33.3823267628852918
 51
37.9518156093917298
  0
ARC
  5
EF68
  8
0
 10
4337.5907492061369339
 20
187.9349320281338009
 30
0.0
 40
0.0099569463754462
 50
180.0850046148372883
 51
217.9518156093930088
  0
ARC
  5
EF69
  8
0
 10
4337.1279197593812569
 20
187.786713675282499
 30
0.0
 40
0.6229621296350384
 50
326.6176732371146727
 51
334.675787710898021
  0
ARC
  5
EF6A
  8
0
 10
4336.4769043916394367
 20
188.2156911592142876
 30
0.0
 40
1.402604798271015
 50
322.0481843906081849
 51
326.6176732371146727
  0
ARC
  5
EF6B
  8
0
 10
4337.5907492061369339
 20
187.3469677212588067
 30
0.0
 40
0.0099569463754462
 50
142.0481843906069912
 51
179.9149953859898972
  0
LINE
  5
EF6C
  8
0
 10
4337.6076295940229102
 20
188.2789625003572951
 30
0.0
 11
4337.6076295940229102
 21
188.4189625003573951
 31
0.0
  0
LINE
  5
EF6D
  8
0
 10
4337.6455841830802456
 20
188.2789625003574088
 30
0.0
 11
4337.6455841830802456
 21
188.4189625003573951
 31
0.0
  0
LINE
  5
EF6E
  8
0
 10
4337.6753030119152754
 20
188.2789625003574088
 30
0.0
 11
4337.6753030119152754
 21
188.4189625003573951
 31
0.0
  0
LINE
  5
EF6F
  8
0
 10
4337.7211922707074336
 20
188.2789625003574088
 30
0.0
 11
4337.7211922707074336
 21
188.4189625003573951
 31
0.0
  0
LINE
  5
EF70
  8
0
 10
4337.7558251711307094
 20
188.2789625003574088
 30
0.0
 11
4337.7558251711307094
 21
188.4189625003573951
 31
0.0
  0
LINE
  5
EF71
  8
0
 10
4337.8076435188531832
 20
188.2789625003574088
 30
0.0
 11
4337.8076435188531832
 21
188.4189625003573099
 31
0.0
  0
LINE
  5
EF72
  8
0
 10
4337.8456768669302619
 20
188.2739330965860063
 30
0.0
 11
4337.8456768669302619
 21
188.4239919041287976
 31
0.0
  0
LINE
  5
EF73
  8
0
 10
4337.9011595931287957
 20
188.2789625030640934
 30
0.0
 11
4337.9011595931287957
 21
188.4189624976507105
 31
0.0
  0
LINE
  5
EF74
  8
0
 10
4337.9409311490471737
 20
188.278962495547205
 30
0.0
 11
4337.9409311490471737
 21
188.4189625051675989
 31
0.0
  0
ARC
  5
EF75
  8
0
 10
4337.920452578297045
 20
188.2792728060940988
 30
0.0
 40
0.0204809216731077
 50
277.4007311996335829
 51
359.1318669504832997
  0
ARC
  5
EF76
  8
0
 10
4337.9218756969621609
 20
188.2796545190107906
 30
0.0
 40
0.0207276589146577
 50
181.9132388636035103
 51
266.639567380302708
  0
ARC
  5
EF77
  8
0
 10
4337.827649428814766
 20
188.2764477987925034
 30
0.0
 40
0.0182019848419872
 50
286.1316293480044237
 51
352.0588796961432081
  0
ARC
  5
EF78
  8
0
 10
4337.82834035363976
 20
188.2791948371329909
 30
0.0
 40
0.0206981388197154
 50
180.6431590953419004
 51
257.8215918424646134
  0
ARC
  5
EF79
  8
0
 10
4337.803544681331914
 20
188.2793452391032076
 30
0.0
 40
0.0477210450707086
 50
180.4595362458248076
 51
190.8686005786489943
  0
ARC
  5
EF7A
  8
0
 10
4337.7425120203542974
 20
188.267626884946111
 30
0.0
 40
0.0144264048376814
 50
323.0876854699343994
 51
10.86860116087467
  0
ARC
  5
EF7B
  8
0
 10
4337.7435099626964075
 20
188.2808427229259962
 30
0.0
 40
0.0223967545106538
 50
184.8156870686181037
 51
257.6708851165810756
  0
ARC
  5
EF7C
  8
0
 10
4337.7125181059782335
 20
188.2797755461976976
 30
0.0
 40
0.0372239743946374
 50
181.2515536225130859
 51
205.2667045239886079
  0
ARC
  5
EF7D
  8
0
 10
4337.6758122717192236
 20
188.2621961204517049
 30
0.0
 40
0.0034813394778096
 50
291.7447260827722744
 51
29.0609860080736908
  0
ARC
  5
EF7E
  8
0
 10
4337.6677211239757526
 20
188.2803681267477032
 30
0.0
 40
0.0221815224399663
 50
183.633224851291601
 51
254.8009001205820141
  0
ARC
  5
EF7F
  8
0
 10
4337.6378531898863002
 20
188.2798957508256024
 30
0.0
 40
0.0302380009814091
 50
181.7686290107305069
 51
223.8110915431697947
  0
LINE
  5
EF80
  8
0
 10
4337.5841236922187818
 20
188.2772837512812032
 30
0.0
 11
4337.5841236922187818
 21
188.4206412494336007
 31
0.0
  0
LINE
  5
EF81
  8
0
 10
4337.5557625706196632
 20
188.2789625003576077
 30
0.0
 11
4337.5557625706196632
 21
188.4189625003571962
 31
0.0
  0
LINE
  5
EF82
  8
0
 10
4337.539496916519056
 20
188.2781172171995934
 30
0.0
 11
4337.539496916519056
 21
188.4198077835152105
 31
0.0
  0
LINE
  5
EF83
  8
0
 10
4337.5219687794187848
 20
188.2789625003574088
 30
0.0
 11
4337.5219687794187848
 21
188.4189625003573951
 31
0.0
  0
LINE
  5
EF84
  8
0
 10
4337.5136542601203473
 20
188.2789625003572951
 30
0.0
 11
4337.5136542601203473
 21
188.4189625003575088
 31
0.0
  0
LINE
  5
EF85
  8
0
 10
4337.507725171220045
 20
188.2789625003553908
 30
0.0
 11
4337.507725171220045
 21
188.418962500357793
 31
0.0
  0
ARC
  5
EF86
  8
0
 10
4337.5277728203536753
 20
188.2789543539381043
 30
0.0
 40
0.0200476507898201
 50
179.9767176983046966
 51
265.7242440972070767
  0
ARC
  5
EF87
  8
0
 10
4337.5337778224065914
 20
188.2790482385616997
 30
0.0
 40
0.0201237449340625
 50
180.2441122232579005
 51
266.4780607912887263
  0
ARC
  5
EF88
  8
0
 10
4337.5432830449890389
 20
188.2790967731318972
 30
0.0
 40
0.0213146885018345
 50
180.3609395543871869
 51
235.375166359572205
  0
ARC
  5
EF89
  8
0
 10
4337.5403654350011493
 20
188.2748713760396129
 30
0.0
 40
0.016179863419184
 50
235.3751663595731998
 51
259.4989424061425893
  0
ARC
  5
EF8A
  8
0
 10
4337.5587028944028134
 20
188.2785398587784869
 30
0.0
 40
0.019210627588701
 50
181.2606320377591089
 51
230.4628044188208094
  0
ARC
  5
EF8B
  8
0
 10
4337.5607110396967983
 20
188.2822133675200007
 30
0.0
 40
0.0233353914486624
 50
232.4023198401108061
 51
265.1218851880968828
  0
ARC
  5
EF8C
  8
0
 10
4337.5790561863068433
 20
188.2791475425293868
 30
0.0
 40
0.0232943506536603
 50
180.4551424141791074
 51
240.0568308655404905
  0
ARC
  5
EF8D
  8
0
 10
4337.6030522816263328
 20
188.2781231258192918
 30
0.0
 40
0.0189471909930842
 50
182.5390762741336061
 51
236.6971937693280097
  0
ARC
  5
EF8E
  8
0
 10
4337.6070991759634126
 20
188.2888324293438984
 30
0.0
 40
0.0302232109665149
 50
241.4377684027753048
 51
261.2309605527099166
  0
ARC
  5
EF8F
  8
0
 10
4337.920452578297045
 20
188.4186521946207051
 30
0.0
 40
0.0204809216731077
 50
0.868133049516789
 51
82.5992688003664597
  0
ARC
  5
EF90
  8
0
 10
4337.9218756969621609
 20
188.4182704817040133
 30
0.0
 40
0.0207276589146577
 50
93.3604326196973062
 51
178.0867611363964045
  0
ARC
  5
EF91
  8
0
 10
4337.827649428814766
 20
188.4214772019223005
 30
0.0
 40
0.0182019848419872
 50
7.9411203038568399
 51
73.8683706519956189
  0
ARC
  5
EF92
  8
0
 10
4337.82834035363976
 20
188.4187301635816993
 30
0.0
 40
0.0206981388197154
 50
102.1784081575354008
 51
179.3568409046580996
  0
ARC
  5
EF93
  8
0
 10
4337.803544681331914
 20
188.4185797616115963
 30
0.0
 40
0.0477210450707086
 50
169.1313994213510057
 51
179.5404637541751924
  0
ARC
  5
EF94
  8
0
 10
4337.7425120203542974
 20
188.4302981157686077
 30
0.0
 40
0.0144264048376814
 50
349.1313988391253247
 51
36.9123145300655509
  0
ARC
  5
EF95
  8
0
 10
4337.7435099626964075
 20
188.417082277788694
 30
0.0
 40
0.0223967545106538
 50
102.3291148834188959
 51
175.1843129313803047
  0
ARC
  5
EF96
  8
0
 10
4337.7125181059782335
 20
188.4181494545169926
 30
0.0
 40
0.0372239743946374
 50
154.7332954760099142
 51
178.7484463774869141
  0
ARC
  5
EF97
  8
0
 10
4337.6758122717192236
 20
188.435728880263099
 30
0.0
 40
0.0034813394778096
 50
330.9390139919262879
 51
68.2552739172277541
  0
ARC
  5
EF98
  8
0
 10
4337.6677211239757526
 20
188.4175568739671007
 30
0.0
 40
0.0221815224399663
 50
105.1990998794180001
 51
176.3667751487083137
  0
ARC
  5
EF99
  8
0
 10
4337.6378531898863002
 20
188.4180292498892015
 30
0.0
 40
0.0302380009814091
 50
136.1889084568302053
 51
178.2313709892694078
  0
ARC
  5
EF9A
  8
0
 10
4337.5277728203536753
 20
188.4189706467765859
 30
0.0
 40
0.0200476507898201
 50
94.2757559027929375
 51
180.0232823016951897
  0
ARC
  5
EF9B
  8
0
 10
4337.5337778224065914
 20
188.4188767621529905
 30
0.0
 40
0.0201237449340625
 50
93.5219392087113164
 51
179.7558877767403942
  0
ARC
  5
EF9C
  8
0
 10
4337.5432830449890389
 20
188.418828227582793
 30
0.0
 40
0.0213146885018345
 50
124.6248336404276955
 51
179.6390604456128131
  0
ARC
  5
EF9D
  8
0
 10
4337.5403654350011493
 20
188.423053624675191
 30
0.0
 40
0.016179863419184
 50
100.501057593857297
 51
124.6248336404268002
  0
ARC
  5
EF9E
  8
0
 10
4337.5587028944028134
 20
188.4193851419362886
 30
0.0
 40
0.019210627588701
 50
129.5371955811791054
 51
178.7393679622408058
  0
ARC
  5
EF9F
  8
0
 10
4337.5607110396967983
 20
188.4157116331948032
 30
0.0
 40
0.0233353914486624
 50
94.8781148119031315
 51
127.5976801598890944
  0
ARC
  5
EFA0
  8
0
 10
4337.5790561863068433
 20
188.4187774581853034
 30
0.0
 40
0.0232943506536603
 50
119.9431691344594952
 51
179.5448575858208073
  0
ARC
  5
EFA1
  8
0
 10
4337.6030522816263328
 20
188.4198018748955121
 30
0.0
 40
0.0189471909930842
 50
123.302806230671905
 51
177.4609237258646885
  0
ARC
  5
EFA2
  8
0
 10
4337.6070991759634126
 20
188.4090925713709055
 30
0.0
 40
0.0302232109665149
 50
98.769039447290055
 51
118.5622315972245957
  0
LINE
  5
EFA3
  8
0
 10
4338.6092922707202888
 20
188.5089625003573985
 30
0.0
 11
4337.329292270719634
 21
188.5089625003573985
 31
0.0
  0
ARC
  5
EFA4
  8
0
 10
4338.6092922707202888
 20
188.5189625003573894
 30
0.0
 40
0.0100000000000007
 50
270.0
 51
359.9999999999951115
  0
ARC
  5
EFA5
  8
0
 10
4337.329292270719634
 20
188.5189625003573894
 30
0.0
 40
0.0100000000000007
 50
180.0000000000048885
 51
270.0
  0
LINE
  5
EFA6
  8
0
 10
4338.2842922707195612
 20
188.5089625003573985
 30
0.0
 11
4338.2842922707195612
 21
188.4989625003574076
 31
0.0
  0
LINE
  5
EFA7
  8
0
 10
4337.6542922707203616
 20
188.5089625003573985
 30
0.0
 11
4337.6542922707203616
 21
188.4989625003574076
 31
0.0
  0
ARC
  5
EFA8
  8
0
 10
4337.3192922707576145
 20
188.6389625003297965
 30
0.0
 40
0.0199999999609623
 50
289.4712205551048214
 51
70.5287796471872639
  0
ARC
  5
EFA9
  8
0
 10
4338.6192922707623438
 20
188.6389625003074002
 30
0.0
 40
0.0200000000426313
 50
109.4712208221197045
 51
250.5287791778802955
  0
ENDSEC
  0
EOF
