  0
SECTION
  2
HEADER
  9
$ACADVER
  1
AC1009
  9
$INSBASE
 10
4326.7402839700598633
 20
190.1444284889238077
 30
0.0
  9
$EXTMIN
 10
4319.1094117907287
 20
188.3742942814047012
 30
-0.0000000349181948
  9
$EXTMAX
 10
4327.0315920436069064
 20
191.1762034199084894
 30
0.0000000814935746
  9
$LIMMIN
 10
0.0
 20
0.0
  9
$LIMMAX
 10
11.6929133858000007
 20
8.2677165353999982
  9
$ORTHOMODE
 70
     0
  9
$REGENMODE
 70
     1
  9
$FILLMODE
 70
     1
  9
$QTEXTMODE
 70
     0
  9
$MIRRTEXT
 70
     0
  9
$DRAGMODE
 70
     2
  9
$LTSCALE
 40
0.6431102362
  9
$OSMODE
 70
     7
  9
$ATTMODE
 70
     1
  9
$TEXTSIZE
 40
0.2
  9
$TRACEWID
 40
0.05
  9
$TEXTSTYLE
  7
STANDARD
  9
$CLAYER
  8
0
  9
$CELTYPE
  6
BYLAYER
  9
$CECOLOR
 62
   256
  9
$DIMSCALE
 40
1.0
  9
$DIMASZ
 40
0.1875
  9
$DIMEXO
 40
0.0625
  9
$DIMDLI
 40
0.4443307087
  9
$DIMRND
 40
0.0
  9
$DIMDLE
 40
0.0
  9
$DIMEXE
 40
0.125
  9
$DIMTP
 40
0.01
  9
$DIMTM
 40
0.01
  9
$DIMTXT
 40
2.0
  9
$DIMCEN
 40
0.1052362205
  9
$DIMTSZ
 40
0.0
  9
$DIMTOL
 70
     1
  9
$DIMLIM
 70
     0
  9
$DIMTIH
 70
     1
  9
$DIMTOH
 70
     1
  9
$DIMSE1
 70
     0
  9
$DIMSE2
 70
     0
  9
$DIMTAD
 70
     0
  9
$DIMZIN
 70
     0
  9
$DIMBLK
  1

  9
$DIMASO
 70
     1
  9
$DIMSHO
 70
     1
  9
$DIMPOST
  1
\X
  9
$DIMAPOST
  1

  9
$DIMALT
 70
     1
  9
$DIMALTD
 70
     2
  9
$DIMALTF
 40
25.3999999999999986
  9
$DIMLFAC
 40
1.0
  9
$DIMTOFL
 70
     0
  9
$DIMTVP
 40
0.0
  9
$DIMTIX
 70
     0
  9
$DIMSOXD
 70
     0
  9
$DIMSAH
 70
     0
  9
$DIMBLK1
  1

  9
$DIMBLK2
  1

  9
$DIMSTYLE
  2
STANDARD
  9
$DIMCLRD
 70
     0
  9
$DIMCLRE
 70
     0
  9
$DIMCLRT
 70
     0
  9
$DIMTFAC
 40
1.0
  9
$DIMGAP
 40
0.09
  9
$LUNITS
 70
     2
  9
$LUPREC
 70
     4
  9
$SKETCHINC
 40
0.1
  9
$FILLETRAD
 40
0.0
  9
$AUNITS
 70
     0
  9
$AUPREC
 70
     0
  9
$MENU
  1
.
  9
$ELEVATION
 40
0.0
  9
$PELEVATION
 40
0.0
  9
$THICKNESS
 40
0.0
  9
$LIMCHECK
 70
     0
  9
$BLIPMODE
 70
     0
  9
$CHAMFERA
 40
0.0
  9
$CHAMFERB
 40
0.0
  9
$SKPOLY
 70
     0
  9
$TDCREATE
 40
2458060.468368056230247
  9
$TDUPDATE
 40
2459579.5845601852051914
  9
$TDINDWG
 40
0.4373797454
  9
$TDUSRTIMER
 40
0.4373797454
  9
$USRTIMER
 70
     1
  9
$ANGBASE
 50
0.0
  9
$ANGDIR
 70
     0
  9
$PDMODE
 70
     0
  9
$PDSIZE
 40
0.3125
  9
$PLINEWID
 40
0.0
  9
$COORDS
 70
     1
  9
$SPLFRAME
 70
     0
  9
$SPLINETYPE
 70
     6
  9
$SPLINESEGS
 70
     8
  9
$ATTDIA
 70
     1
  9
$ATTREQ
 70
     1
  9
$HANDLING
 70
     1
  9
$HANDSEED
  5
F05F
  9
$SURFTAB1
 70
     6
  9
$SURFTAB2
 70
     6
  9
$SURFTYPE
 70
     6
  9
$SURFU
 70
     6
  9
$SURFV
 70
     6
  9
$UCSNAME
  2

  9
$UCSORG
 10
0.0
 20
0.0
 30
0.0
  9
$UCSXDIR
 10
1.0
 20
0.0
 30
0.0
  9
$UCSYDIR
 10
0.0
 20
1.0
 30
0.0
  9
$PUCSNAME
  2

  9
$PUCSORG
 10
0.0
 20
0.0
 30
0.0
  9
$PUCSXDIR
 10
1.0
 20
0.0
 30
0.0
  9
$PUCSYDIR
 10
0.0
 20
1.0
 30
0.0
  9
$USERI1
 70
     0
  9
$USERI2
 70
     0
  9
$USERI3
 70
     0
  9
$USERI4
 70
     0
  9
$USERI5
 70
     0
  9
$USERR1
 40
0.0
  9
$USERR2
 40
0.0
  9
$USERR3
 40
0.0
  9
$USERR4
 40
0.0
  9
$USERR5
 40
0.0
  9
$WORLDVIEW
 70
     1
  9
$SHADEDGE
 70
     3
  9
$SHADEDIF
 70
    70
  9
$TILEMODE
 70
     1
  9
$MAXACTVP
 70
    64
  9
$PLIMCHECK
 70
     0
  9
$PEXTMIN
 10
1.0000000000000000E+20
 20
1.0000000000000000E+20
 30
1.0000000000000000E+20
  9
$PEXTMAX
 10
-1.0000000000000000E+20
 20
-1.0000000000000000E+20
 30
-1.0000000000000000E+20
  9
$PLIMMIN
 10
0.0
 20
0.0
  9
$PLIMMAX
 10
12.0
 20
9.0
  9
$UNITMODE
 70
     0
  9
$VISRETAIN
 70
     1
  9
$PLINEGEN
 70
     0
  9
$PSLTSCALE
 70
     1
  0
ENDSEC
  0
SECTION
  2
TABLES
  0
TABLE
  2
VPORT
 70
     1
  0
VPORT
  2
*ACTIVE
 70
     0
 10
0.0
 20
0.0
 11
1.0
 21
1.0
 12
519.5264345343557579
 22
63.7799866539066969
 13
0.0
 23
0.0
 14
1.0
 24
1.0
 15
0.0
 25
0.0
 16
0.0
 26
0.0
 36
17.1152628219792007
 17
3803.5440673828129547
 27
125.9952621967499056
 37
0.0
 40
3.4807216483085162
 41
2.2831541218637992
 42
50.0
 43
0.0
 44
0.0
 50
0.0
 51
0.0
 71
     0
 72
   100
 73
     1
 74
     1
 75
     0
 76
     0
 77
     0
 78
     0
  0
ENDTAB
  0
TABLE
  2
LTYPE
 70
     2
  0
LTYPE
  2
CONTINUOUS
 70
     0
  3
Solid line
 72
    65
 73
     0
 40
0.0
  0
LTYPE
  2
PHANTOM2
 70
     0
  3
___ _ _ ___ _ _ ___ _ _ ___ _ _
 72
    65
 73
     6
 40
1.25
 49
0.625
 49
-0.125
 49
0.125
 49
-0.125
 49
0.125
 49
-0.125
  0
ENDTAB
  0
TABLE
  2
LAYER
 70
     2
  0
LAYER
  2
0
 70
     0
 62
   255
  6
CONTINUOUS
  0
LAYER
  2
DEFPOINTS
 70
     0
 62
     7
  6
CONTINUOUS
  0
ENDTAB
  0
TABLE
  2
STYLE
 70
     1
  0
STYLE
  2
STANDARD
 70
     0
 40
0.0
 41
0.8
 50
0.0
 71
     0
 42
0.2
  3
txt
  4

  0
ENDTAB
  0
TABLE
  2
VIEW
 70
     0
  0
ENDTAB
  0
TABLE
  2
UCS
 70
     0
  0
ENDTAB
  0
TABLE
  2
APPID
 70
     9
  0
APPID
  2
ACAD
 70
     0
  0
APPID
  2
ACAD_MLEADERVER
 70
     0
  0
APPID
  2
ACAD_EXEMPT_FROM_CAD_STANDARDS
 70
     0
  0
APPID
  2
ACAD_NAV_VCDISPLAY
 70
     0
  0
APPID
  2
ACAECLAYERSTANDARD
 70
     0
  0
APPID
  2
ACCMTRANSPARENCY
 70
     0
  0
APPID
  2
ACAD_DSTYLE_DIMJAG
 70
     0
  0
APPID
  2
ACAD_DSTYLE_DIMTALN
 70
     0
  0
APPID
  2
ACDBATTR
 70
     0
  0
ENDTAB
  0
TABLE
  2
DIMSTYLE
 70
     1
  0
DIMSTYLE
  2
STANDARD
 70
     0
  3

  4

  5

  6

  7

 40
1.0
 41
0.1875
 42
0.0625
 43
0.38
 44
0.125
 45
0.0
 46
0.0
 47
0.01
 48
0.01
140
0.15625
141
0.09
142
0.0
143
25.3999999999999986
144
1.0
145
0.0
146
1.0
147
0.09
 71
     1
 72
     0
 73
     1
 74
     1
 75
     0
 76
     0
 77
     0
 78
     4
170
     0
171
     2
172
     0
173
     0
174
     0
175
     0
176
     0
177
     0
178
     0
  0
ENDTAB
  0
ENDSEC
  0
SECTION
  2
BLOCKS
  0
BLOCK
  8
0
  2
$MODEL_SPACE
 70
     0
 10
0.0
 20
0.0
 30
0.0
  3
$MODEL_SPACE
  1

  0
ENDBLK
  5
21
  8
0
  0
BLOCK
 67
     1
  8
0
  2
$PAPER_SPACE
 70
     0
 10
0.0
 20
0.0
 30
0.0
  3
$PAPER_SPACE
  1

  0
ENDBLK
  5
1D
 67
     1
  8
0
  0
ENDSEC
  0
SECTION
  2
ENTITIES
  0
ATTDEF
  5
3930
  8
DEFPOINTS
 10
4326.7403358196052068
 20
190.1478155580338978
 30
0.0
 40
0.001
  1
P21223-LV
  3

  2
MODELNUMBER
 70
     0
1001
ACDBATTR
1070
     0
1070
     1
  0
ATTDEF
  5
3931
  8
DEFPOINTS
 10
4326.7403358196052068
 20
190.1461488913672895
 30
0.0
 40
0.001
  1
CENTRAL PARK WEST
  3

  2
TRADENAME
 70
     0
1001
ACDBATTR
1070
     0
1070
     1
  0
ATTDEF
  5
3932
  8
DEFPOINTS
 10
4326.7403358196052068
 20
190.1444822247005959
 30
0.0
 40
0.001
  1
BATHROOM SINK FAUCET
  3

  2
PRODUCT
 70
     0
1001
ACDBATTR
1070
     0
1070
     1
  0
LINE
  5
EE8B
  8
0
 10
4326.7402839700598633
 20
189.1284284889237881
 30
0.0
 11
4326.7402839700598633
 21
191.1604284889237988
 31
0.0
  0
LINE
  5
EE8C
  8
0
 10
4320.8687126355780492
 20
190.6168684889238136
 30
0.0
 11
4325.1052839700596451
 21
190.6168684889238136
 31
0.0
  0
LINE
  5
EE8D
  8
0
 10
4320.8687126356016961
 20
189.6719884889238017
 30
0.0
 11
4325.1052839700596451
 21
189.6719884889238017
 31
0.0
  0
LINE
  5
EE8F
  8
0
 10
4323.8637415700595739
 20
189.7709284889238006
 30
0.0
 11
4323.8637415700595739
 21
190.5179284889237863
 31
0.0
  0
LINE
  5
EE90
  8
0
 10
4324.5932839700599288
 20
189.7559284889237858
 30
0.0
 11
4323.8787415700608108
 21
189.7559284889237858
 31
0.0
  0
ARC
  5
EE91
  8
0
 10
4323.8787415700608108
 20
189.7709284889238006
 30
0.0
 40
0.0149999999999988
 50
179.9999999999934914
 51
270.0
  0
LINE
  5
EE92
  8
0
 10
4324.6082839700602563
 20
189.7709284889238006
 30
0.0
 11
4324.6082839700602563
 21
190.5179284889237863
 31
0.0
  0
LINE
  5
EE93
  8
0
 10
4324.6672839700604527
 20
189.8174284889238095
 30
0.0
 11
4324.6672839700604527
 21
190.4714284889238058
 31
0.0
  0
LINE
  5
EE94
  8
0
 10
4324.7952839700601544
 20
189.7769284889238008
 30
0.0
 11
4324.7952839700601544
 21
190.5119284889237861
 31
0.0
  0
LINE
  5
EE95
  8
0
 10
4324.8552839700605546
 20
189.7009814499315894
 30
0.0
 11
4324.8552839700605546
 21
190.5878755279159975
 31
0.0
  0
LINE
  5
EE96
  8
0
 10
4325.0352839700608456
 20
189.7009814499315894
 30
0.0
 11
4325.0352839700608456
 21
190.5878755279159122
 31
0.0
  0
LINE
  5
EE97
  8
0
 10
4325.0952839700603363
 20
189.7769284889238008
 30
0.0
 11
4325.0952839700603363
 21
190.5119284889237861
 31
0.0
  0
LINE
  5
EE98
  8
0
 10
4325.0452839700601544
 20
189.7669284889238099
 30
0.0
 11
4325.085283970060118
 21
189.7669284889238099
 31
0.0
  0
LINE
  5
EE99
  8
0
 10
4324.8452839700603363
 20
189.7669284889238099
 30
0.0
 11
4324.8052839700603727
 21
189.7669284889238099
 31
0.0
  0
ARC
  5
EE9A
  8
0
 10
4324.8052839700603727
 20
189.7769284889238008
 30
0.0
 40
0.009999999999998
 50
180.0
 51
270.0
  0
ARC
  5
EE9B
  8
0
 10
4324.8452839700603363
 20
189.7569284889237906
 30
0.0
 40
0.0099999999999989
 50
0.0
 51
90.0
  0
ARC
  5
EE9C
  8
0
 10
4325.0452839700601544
 20
189.7569284889237906
 30
0.0
 40
0.0100000000000016
 50
90.0
 51
180.0
  0
ARC
  5
EE9D
  8
0
 10
4325.085283970060118
 20
189.7769284889238008
 30
0.0
 40
0.0100000000000007
 50
270.0
 51
0.0
  0
ARC
  5
EE9E
  8
0
 10
4324.5932839700599288
 20
189.7709284889238006
 30
0.0
 40
0.0149999999999997
 50
270.0
 51
0.0000000000032569
  0
LINE
  5
EE9F
  8
0
 10
4324.6772839700597615
 20
189.8659284889237995
 30
0.0
 11
4324.7852839700608456
 21
189.8659284889237995
 31
0.0
  0
LINE
  5
EEA0
  8
0
 10
4324.618283970059565
 20
189.8074284889237902
 30
0.0
 11
4324.6572839700602344
 21
189.8074284889237902
 31
0.0
  0
ARC
  5
EEA1
  8
0
 10
4324.618283970059565
 20
189.7974284889237993
 30
0.0
 40
0.0100000000000041
 50
90.0
 51
180.0
  0
ARC
  5
EEA2
  8
0
 10
4324.6572839700602344
 20
189.8174284889238095
 30
0.0
 40
0.009999999999998
 50
270.0
 51
0.0000000000097707
  0
ARC
  5
EEA3
  8
0
 10
4324.6772839700597615
 20
189.8559284889238086
 30
0.0
 40
0.0099999999999985
 50
90.0
 51
180.0
  0
ARC
  5
EEA4
  8
0
 10
4324.7852839700608456
 20
189.8559284889238086
 30
0.0
 40
0.0100000000000007
 50
0.0
 51
90.0
  0
LINE
  5
EEA5
  8
0
 10
4324.8752839700600816
 20
189.8147967641237983
 30
0.0
 11
4325.015283970060409
 21
189.8147967641237983
 31
0.0
  0
LINE
  5
EEA6
  8
0
 10
4324.8752839700600816
 20
189.8569496057237984
 30
0.0
 11
4325.015283970060409
 21
189.8569496057237984
 31
0.0
  0
LINE
  5
EEA7
  8
0
 10
4324.8752839700600816
 20
189.8893027040238053
 30
0.0
 11
4325.015283970060409
 21
189.8893027040238053
 31
0.0
  0
LINE
  5
EEA8
  8
0
 10
4324.8752839700600816
 20
189.9384256076237989
 30
0.0
 11
4325.015283970060409
 21
189.9384256076237989
 31
0.0
  0
LINE
  5
EEA9
  8
0
 10
4324.8752839700600816
 20
189.9749588649237921
 30
0.0
 11
4325.015283970060409
 21
189.9749588649237921
 31
0.0
  0
LINE
  5
EEAA
  8
0
 10
4324.8752839700600816
 20
190.0289049240238057
 30
0.0
 11
4325.015283970060409
 21
190.0289049240238057
 31
0.0
  0
LINE
  5
EEAB
  8
0
 10
4324.870254566289077
 20
190.0680216616237885
 30
0.0
 11
4325.0203133738323231
 21
190.0680216616237885
 31
0.0
  0
LINE
  5
EEAC
  8
0
 10
4324.8752839727658284
 20
190.1244331745238014
 30
0.0
 11
4325.0152839673537528
 21
190.1244331745238014
 31
0.0
  0
ARC
  5
EEAD
  8
0
 10
4324.8759759887134351
 20
190.1451492783565982
 30
0.0
 40
0.0207276589146577
 50
183.3604326197072112
 51
268.0867611364067784
  0
ARC
  5
EEAE
  8
0
 10
4324.8727692684951762
 20
190.0499942235084916
 30
0.0
 40
0.0182019848419872
 50
97.9411203038747544
 51
163.8683706519720999
  0
ARC
  5
EEAF
  8
0
 10
4324.875516306836289
 20
190.049601758811292
 30
0.0
 40
0.0206981388197154
 50
192.1784081575472101
 51
269.3568409046807801
  0
ARC
  5
EEB0
  8
0
 10
4324.8756667088064205
 20
190.0226783751234052
 30
0.0
 40
0.0477210450707086
 50
259.131399421341996
 51
269.5404637541997772
  0
ARC
  5
EEB1
  8
0
 10
4324.8639483546494375
 20
189.9616457141461865
 30
0.0
 40
0.0144264048376814
 50
79.1313988391447083
 51
126.9123145300548003
  0
ARC
  5
EEB2
  8
0
 10
4324.8771641926286975
 20
189.9607432996124885
 30
0.0
 40
0.0223967545106538
 50
192.3291148833984892
 51
265.1843129313903091
  0
ARC
  5
EEB3
  8
0
 10
4324.8760970159009958
 20
189.9265177980877866
 30
0.0
 40
0.0372239743946374
 50
244.7332954760074983
 51
268.7484463774712253
  0
ARC
  5
EEB4
  8
0
 10
4324.8585175901544062
 20
189.8898119638290041
 30
0.0
 40
0.0034813394778096
 50
60.9390139919103433
 51
158.2552739172153053
  0
ARC
  5
EEB5
  8
0
 10
4324.8766895964499781
 20
189.8790865466191917
 30
0.0
 40
0.0221815224399663
 50
195.1990998794317989
 51
266.3667751487226951
  0
ARC
  5
EEB6
  8
0
 10
4324.8762172205288152
 20
189.8450203599871884
 30
0.0
 40
0.0302380009814091
 50
226.1889084568431088
 51
268.2313709892761153
  0
LINE
  5
EEB7
  8
0
 10
4324.8736052209842455
 20
189.7880378104237877
 30
0.0
 11
4325.0169627191371546
 21
189.7880378104237877
 31
0.0
  0
LINE
  5
EEB8
  8
0
 10
4324.8752839700609911
 20
189.754697312323799
 30
0.0
 11
4325.015283970060409
 21
189.754697312323799
 31
0.0
  0
LINE
  5
EEB9
  8
0
 10
4324.8744386869029768
 20
189.7347019979237928
 30
0.0
 11
4325.0161292532184234
 21
189.7347019979237928
 31
0.0
  0
LINE
  5
EEBA
  8
0
 10
4324.8752839700600816
 20
189.711630983123797
 30
0.0
 11
4325.015283970060409
 21
189.711630983123797
 31
0.0
  0
LINE
  5
EEBB
  8
0
 10
4324.8752839700600816
 20
189.6992731992237964
 30
0.0
 11
4325.015283970060409
 21
189.6992731992237964
 31
0.0
  0
LINE
  5
EEBC
  8
0
 10
4324.8752839700582626
 20
189.6824284889237902
 30
0.0
 11
4325.0152839700613185
 21
189.6824284889237902
 31
0.0
  0
ARC
  5
EEBD
  8
0
 10
4324.8752758236405498
 20
189.7024761380585005
 30
0.0
 40
0.0200476507898201
 50
184.2757559027724881
 51
270.0232823017212809
  0
ARC
  5
EEBE
  8
0
 10
4324.8753697082647705
 20
189.7193967615110921
 30
0.0
 40
0.0201237449340625
 50
183.5219392087010988
 51
269.7558877767160084
  0
ARC
  5
EEBF
  8
0
 10
4324.8754182428347121
 20
189.7329452486928858
 30
0.0
 40
0.0213146885018345
 50
214.6248336404055976
 51
269.6390604456192932
  0
ARC
  5
EEC0
  8
0
 10
4324.871192845742371
 20
189.7300276387051099
 30
0.0
 40
0.016179863419184
 50
190.5010575938831892
 51
214.6248336404028976
  0
ARC
  5
EEC1
  8
0
 10
4324.8748613284806197
 20
189.7539079758068965
 30
0.0
 40
0.019210627588701
 50
219.5371955811874045
 51
268.7393679622227864
  0
ARC
  5
EEC2
  8
0
 10
4324.8785348372230146
 20
189.755916121100995
 30
0.0
 40
0.0233353914486624
 50
184.8781148118870021
 51
217.5976801598764894
  0
ARC
  5
EEC3
  8
0
 10
4324.8754690122332249
 20
189.7779909280106949
 30
0.0
 40
0.0232943506536603
 50
209.9431691344541093
 51
269.5448575858418963
  0
ARC
  5
EEC4
  8
0
 10
4324.8744445955217088
 20
189.8069663998300882
 30
0.0
 40
0.0189471909930842
 50
213.3028062306765094
 51
267.4609237258720782
  0
ARC
  5
EEC5
  8
0
 10
4324.8851538990456902
 20
189.8110132941671964
 30
0.0
 40
0.0302232109665149
 50
188.7690394472836033
 51
208.56223159722731
  0
ARC
  5
EEC6
  8
0
 10
4325.0145919514070556
 20
190.1451492783565982
 30
0.0
 40
0.0207276589146577
 50
271.9132388635931079
 51
356.6395673802928172
  0
ARC
  5
EEC7
  8
0
 10
4325.0177986716253145
 20
190.0499942235084916
 30
0.0
 40
0.0182019848419872
 50
16.1316293480278397
 51
82.058879696125274
  0
ARC
  5
EEC8
  8
0
 10
4325.0150516332851112
 20
190.049601758811292
 30
0.0
 40
0.0206981388197154
 50
270.6431590953192199
 51
347.8215918424511983
  0
ARC
  5
EEC9
  8
0
 10
4325.0149012313149797
 20
190.0226783751234052
 30
0.0
 40
0.0477210450707086
 50
270.4595362458002228
 51
280.868600578658004
  0
ARC
  5
EECA
  8
0
 10
4325.0266195854719626
 20
189.9616457141461865
 30
0.0
 40
0.0144264048376814
 50
53.0876854699451997
 51
100.8686011608553059
  0
ARC
  5
EECB
  8
0
 10
4325.0134037474917932
 20
189.9607432996124885
 30
0.0
 40
0.0223967545106538
 50
274.8156870686096909
 51
347.6708851165998908
  0
ARC
  5
EECC
  8
0
 10
4325.0144709242204044
 20
189.9265177980877866
 30
0.0
 40
0.0372239743946374
 50
271.2515536225287747
 51
295.2667045239924164
  0
ARC
  5
EECD
  8
0
 10
4325.0320503499660845
 20
189.8898119638290041
 30
0.0
 40
0.0034813394778096
 50
21.7447260827831386
 51
119.0609860080888041
  0
ARC
  5
EECE
  8
0
 10
4325.0138783436696031
 20
189.8790865466191917
 30
0.0
 40
0.0221815224399663
 50
273.6332248512773049
 51
344.8009001205666095
  0
ARC
  5
EECF
  8
0
 10
4325.0143507195925849
 20
189.8450203599871884
 30
0.0
 40
0.0302380009814091
 50
271.7686290107238847
 51
313.811091543155726
  0
ARC
  5
EED0
  8
0
 10
4325.0152921164790314
 20
189.7024761380585005
 30
0.0
 40
0.0200476507898201
 50
269.9767176982787191
 51
355.7242440972274267
  0
ARC
  5
EED1
  8
0
 10
4325.0151982318548107
 20
189.7193967615110921
 30
0.0
 40
0.0201237449340625
 50
270.2441122232841053
 51
356.4780607912989012
  0
ARC
  5
EED2
  8
0
 10
4325.0151496972857785
 20
189.7329452486928858
 30
0.0
 40
0.0213146885018345
 50
270.3609395543807068
 51
325.3751663595944024
  0
ARC
  5
EED3
  8
0
 10
4325.0193750943772102
 20
189.7300276387051099
 30
0.0
 40
0.016179863419184
 50
325.375166359597074
 51
349.4989424061167824
  0
ARC
  5
EED4
  8
0
 10
4325.0157066116389615
 20
189.7539079758068965
 30
0.0
 40
0.019210627588701
 50
271.2606320377772136
 51
320.4628044188114018
  0
ARC
  5
EED5
  8
0
 10
4325.0120331028965666
 20
189.755916121100995
 30
0.0
 40
0.0233353914486624
 50
322.4023198401221748
 51
355.1218851881113778
  0
ARC
  5
EED6
  8
0
 10
4325.0150989278881752
 20
189.7779909280106949
 30
0.0
 40
0.0232943506536603
 50
270.4551424141582174
 51
330.0568308655459191
  0
ARC
  5
EED7
  8
0
 10
4325.0161233445987818
 20
189.8069663998300882
 30
0.0
 40
0.0189471909930842
 50
272.5390762741279218
 51
326.6971937693235191
  0
ARC
  5
EED8
  8
0
 10
4325.005414041073891
 20
189.8110132941671964
 30
0.0
 40
0.0302232109665149
 50
331.4377684027728037
 51
351.2309605527163967
  0
LINE
  5
EED9
  8
0
 10
4324.5932839700599288
 20
190.5329284889238011
 30
0.0
 11
4323.8787415700608108
 21
190.5329284889238011
 31
0.0
  0
ARC
  5
EEDA
  8
0
 10
4323.8787415700608108
 20
190.5179284889237863
 30
0.0
 40
0.0149999999999988
 50
90.0
 51
180.0000000000065086
  0
LINE
  5
EEDB
  8
0
 10
4325.0452839700601544
 20
190.5219284889238054
 30
0.0
 11
4325.085283970060118
 21
190.5219284889238054
 31
0.0
  0
LINE
  5
EEDC
  8
0
 10
4324.8452839700603363
 20
190.5219284889238054
 30
0.0
 11
4324.8052839700603727
 21
190.5219284889238054
 31
0.0
  0
ARC
  5
EEDD
  8
0
 10
4324.8052839700603727
 20
190.5119284889237861
 30
0.0
 40
0.009999999999998
 50
90.0
 51
180.0
  0
ARC
  5
EEDE
  8
0
 10
4324.8452839700603363
 20
190.5319284889237963
 30
0.0
 40
0.0099999999999989
 50
270.0
 51
0.0
  0
ARC
  5
EEDF
  8
0
 10
4325.0452839700601544
 20
190.5319284889237963
 30
0.0
 40
0.0100000000000016
 50
180.0
 51
270.0
  0
ARC
  5
EEE0
  8
0
 10
4325.085283970060118
 20
190.5119284889237861
 30
0.0
 40
0.0100000000000007
 50
0.0
 51
90.0
  0
ARC
  5
EEE1
  8
0
 10
4324.5932839700599288
 20
190.5179284889237863
 30
0.0
 40
0.0149999999999997
 50
359.9999999999968168
 51
90.0
  0
LINE
  5
EEE2
  8
0
 10
4324.6772839700597615
 20
190.4229284889237874
 30
0.0
 11
4324.7852839700608456
 21
190.4229284889237874
 31
0.0
  0
LINE
  5
EEE3
  8
0
 10
4324.618283970059565
 20
190.4814284889237967
 30
0.0
 11
4324.6572839700602344
 21
190.4814284889237967
 31
0.0
  0
ARC
  5
EEE4
  8
0
 10
4324.618283970059565
 20
190.4914284889237877
 30
0.0
 40
0.0100000000000041
 50
180.0
 51
270.0
  0
ARC
  5
EEE5
  8
0
 10
4324.6572839700602344
 20
190.4714284889238058
 30
0.0
 40
0.009999999999998
 50
359.9999999999902229
 51
90.0
  0
ARC
  5
EEE6
  8
0
 10
4324.6772839700597615
 20
190.4329284889238068
 30
0.0
 40
0.0099999999999985
 50
180.0
 51
270.0
  0
ARC
  5
EEE7
  8
0
 10
4324.7852839700608456
 20
190.4329284889238068
 30
0.0
 40
0.0100000000000007
 50
270.0
 51
0.0
  0
LINE
  5
EEE8
  8
0
 10
4324.8752839700582626
 20
189.6832998227237965
 30
0.0
 11
4325.0152839700613185
 21
189.6832998227237965
 31
0.0
  0
ARC
  5
EEE9
  8
0
 10
4324.8752758236405498
 20
189.7033474718585069
 30
0.0
 40
0.0200476507898201
 50
184.2757559027724881
 51
270.0232823017212809
  0
ARC
  5
EEEA
  8
0
 10
4325.0152921164790314
 20
189.7033474718585069
 30
0.0
 40
0.0200476507898201
 50
269.9767176982787191
 51
355.7242440972274267
  0
LINE
  5
EEEB
  8
0
 10
4324.8752839700582626
 20
189.6874799817238113
 30
0.0
 11
4325.0152839700613185
 21
189.6874799817238113
 31
0.0
  0
ARC
  5
EEEC
  8
0
 10
4324.8752758236405498
 20
189.707527630858408
 30
0.0
 40
0.0200476507898201
 50
184.2757559027724881
 51
270.0232823017212809
  0
ARC
  5
EEED
  8
0
 10
4325.0152921164790314
 20
189.707527630858408
 30
0.0
 40
0.0200476507898201
 50
269.9767176982787191
 51
355.7242440972274267
  0
LINE
  5
EEEE
  8
0
 10
4324.8752839700600816
 20
190.4740602137237886
 30
0.0
 11
4325.015283970060409
 21
190.4740602137237886
 31
0.0
  0
LINE
  5
EEEF
  8
0
 10
4324.8752839700600816
 20
190.4319073721237885
 30
0.0
 11
4325.015283970060409
 21
190.4319073721237885
 31
0.0
  0
LINE
  5
EEF0
  8
0
 10
4324.8752839700600816
 20
190.39955427382381
 30
0.0
 11
4325.015283970060409
 21
190.39955427382381
 31
0.0
  0
LINE
  5
EEF1
  8
0
 10
4324.8752839700600816
 20
190.350431370223788
 30
0.0
 11
4325.015283970060409
 21
190.350431370223788
 31
0.0
  0
LINE
  5
EEF2
  8
0
 10
4324.8752839700600816
 20
190.3138981129237948
 30
0.0
 11
4325.015283970060409
 21
190.3138981129237948
 31
0.0
  0
LINE
  5
EEF3
  8
0
 10
4324.8752839700600816
 20
190.2599520538238096
 30
0.0
 11
4325.015283970060409
 21
190.2599520538238096
 31
0.0
  0
LINE
  5
EEF4
  8
0
 10
4324.870254566289077
 20
190.2208353162237984
 30
0.0
 11
4325.0203133738323231
 21
190.2208353162237984
 31
0.0
  0
LINE
  5
EEF5
  8
0
 10
4324.8752839727658284
 20
190.1644238033238139
 30
0.0
 11
4325.0152839673537528
 21
190.1644238033238139
 31
0.0
  0
ARC
  5
EEF6
  8
0
 10
4324.8759759887134351
 20
190.1437076994909035
 30
0.0
 40
0.0207276589146577
 50
91.913238863593179
 51
176.6395673802927035
  0
ARC
  5
EEF7
  8
0
 10
4324.8727692684951762
 20
190.2388627543390953
 30
0.0
 40
0.0182019848419872
 50
196.1316293480277864
 51
262.0588796961253024
  0
ARC
  5
EEF8
  8
0
 10
4324.875516306836289
 20
190.2392552190362096
 30
0.0
 40
0.0206981388197154
 50
90.6431590953191773
 51
167.8215918424527899
  0
ARC
  5
EEF9
  8
0
 10
4324.8756667088064205
 20
190.2661786027242101
 30
0.0
 40
0.0477210450707086
 50
90.4595362458002228
 51
100.868600578658004
  0
ARC
  5
EEFA
  8
0
 10
4324.8639483546494375
 20
190.3272112637014004
 30
0.0
 40
0.0144264048376814
 50
233.0876854699451997
 51
280.8686011608552917
  0
ARC
  5
EEFB
  8
0
 10
4324.8771641926286975
 20
190.3281136782350984
 30
0.0
 40
0.0223967545106538
 50
94.8156870686096909
 51
167.6708851165998055
  0
ARC
  5
EEFC
  8
0
 10
4324.8760970159009958
 20
190.3623391797598003
 30
0.0
 40
0.0372239743946374
 50
91.2515536225288031
 51
115.2667045239924022
  0
ARC
  5
EEFD
  8
0
 10
4324.8585175901544062
 20
190.3990450140186113
 30
0.0
 40
0.0034813394778096
 50
201.744726082783103
 51
299.0609860080888893
  0
ARC
  5
EEFE
  8
0
 10
4324.8766895964499781
 20
190.4097704312283952
 30
0.0
 40
0.0221815224399663
 50
93.6332248512773049
 51
164.8009001205682011
  0
ARC
  5
EEFF
  8
0
 10
4324.8762172205288152
 20
190.4438366178603985
 30
0.0
 40
0.0302380009814091
 50
91.7686290107238847
 51
133.811091543156806
  0
LINE
  5
EF00
  8
0
 10
4324.8736052209842455
 20
190.5008191674237992
 30
0.0
 11
4325.0169627191371546
 21
190.5008191674237992
 31
0.0
  0
LINE
  5
EF01
  8
0
 10
4324.8752839700609911
 20
190.5341596655237879
 30
0.0
 11
4325.015283970060409
 21
190.5341596655237879
 31
0.0
  0
LINE
  5
EF02
  8
0
 10
4324.8744386869029768
 20
190.5541549799237941
 30
0.0
 11
4325.0161292532184234
 21
190.5541549799237941
 31
0.0
  0
LINE
  5
EF03
  8
0
 10
4324.8752839700600816
 20
190.5772259947237899
 30
0.0
 11
4325.015283970060409
 21
190.5772259947237899
 31
0.0
  0
LINE
  5
EF04
  8
0
 10
4324.8752839700600816
 20
190.5895837786237905
 30
0.0
 11
4325.015283970060409
 21
190.5895837786237905
 31
0.0
  0
LINE
  5
EF05
  8
0
 10
4324.8752839700582626
 20
190.6064284889237967
 30
0.0
 11
4325.0152839700613185
 21
190.6064284889237967
 31
0.0
  0
ARC
  5
EF06
  8
0
 10
4324.8752758236405498
 20
190.5863808397890864
 30
0.0
 40
0.0200476507898201
 50
89.9767176982786907
 51
175.7242440972273982
  0
ARC
  5
EF07
  8
0
 10
4324.8753697082647705
 20
190.5694602163364948
 30
0.0
 40
0.0201237449340625
 50
90.2441122232840769
 51
176.4780607912989012
  0
ARC
  5
EF08
  8
0
 10
4324.8754182428347121
 20
190.5559117291547011
 30
0.0
 40
0.0213146885018345
 50
90.360939554380721
 51
145.3751663595944024
  0
ARC
  5
EF09
  8
0
 10
4324.871192845742371
 20
190.5588293391425054
 30
0.0
 40
0.016179863419184
 50
145.3751663595971024
 51
169.4989424061166972
  0
ARC
  5
EF0A
  8
0
 10
4324.8748613284806197
 20
190.5349490020406904
 30
0.0
 40
0.019210627588701
 50
91.2606320377772278
 51
140.4628044188125955
  0
ARC
  5
EF0B
  8
0
 10
4324.8785348372230146
 20
190.5329408567465919
 30
0.0
 40
0.0233353914486624
 50
142.4023198401235106
 51
175.1218851881129979
  0
ARC
  5
EF0C
  8
0
 10
4324.8754690122332249
 20
190.510866049836892
 30
0.0
 40
0.0232943506536603
 50
90.4551424141581606
 51
150.0568308655458907
  0
ARC
  5
EF0D
  8
0
 10
4324.8744445955217088
 20
190.4818905780174987
 30
0.0
 40
0.0189471909930842
 50
92.5390762741278081
 51
146.6971937693234906
  0
ARC
  5
EF0E
  8
0
 10
4324.8851538990456902
 20
190.4778436836803053
 30
0.0
 40
0.0302232109665149
 50
151.4377684027741111
 51
171.2309605527163967
  0
ARC
  5
EF0F
  8
0
 10
4325.0145919514070556
 20
190.1437076994909035
 30
0.0
 40
0.0207276589146577
 50
3.360432619707252
 51
88.086761136406821
  0
ARC
  5
EF10
  8
0
 10
4325.0177986716253145
 20
190.2388627543390953
 30
0.0
 40
0.0182019848419872
 50
277.9411203038748113
 51
343.8683706519720999
  0
ARC
  5
EF11
  8
0
 10
4325.0150516332851112
 20
190.2392552190362096
 30
0.0
 40
0.0206981388197154
 50
12.1784081575472296
 51
89.3568409046808227
  0
ARC
  5
EF12
  8
0
 10
4325.0149012313149797
 20
190.2661786027242101
 30
0.0
 40
0.0477210450707086
 50
79.1313994213420102
 51
89.5404637541997914
  0
ARC
  5
EF13
  8
0
 10
4325.0266195854719626
 20
190.3272112637014004
 30
0.0
 40
0.0144264048376814
 50
259.1313988391447083
 51
306.9123145300548003
  0
ARC
  5
EF14
  8
0
 10
4325.0134037474917932
 20
190.3281136782350984
 30
0.0
 40
0.0223967545106538
 50
12.32911488340015
 51
85.1843129313902949
  0
ARC
  5
EF15
  8
0
 10
4325.0144709242204044
 20
190.3623391797598003
 30
0.0
 40
0.0372239743946374
 50
64.7332954760075694
 51
88.7484463774711969
  0
ARC
  5
EF16
  8
0
 10
4325.0320503499660845
 20
190.3990450140186113
 30
0.0
 40
0.0034813394778096
 50
240.9390139919111107
 51
338.2552739172153906
  0
ARC
  5
EF17
  8
0
 10
4325.0138783436696031
 20
190.4097704312283952
 30
0.0
 40
0.0221815224399663
 50
15.1990998794333692
 51
86.3667751487226951
  0
ARC
  5
EF18
  8
0
 10
4325.0143507195925849
 20
190.4438366178603985
 30
0.0
 40
0.0302380009814091
 50
46.1889084568431301
 51
88.2313709892761153
  0
ARC
  5
EF19
  8
0
 10
4325.0152921164790314
 20
190.5863808397890864
 30
0.0
 40
0.0200476507898201
 50
4.27575590277256
 51
90.0232823017212951
  0
ARC
  5
EF1A
  8
0
 10
4325.0151982318548107
 20
190.5694602163364948
 30
0.0
 40
0.0201237449340625
 50
3.521939208701125
 51
89.7558877767159373
  0
ARC
  5
EF1B
  8
0
 10
4325.0151496972857785
 20
190.5559117291547011
 30
0.0
 40
0.0213146885018345
 50
34.6248336404055976
 51
89.6390604456192932
  0
ARC
  5
EF1C
  8
0
 10
4325.0193750943772102
 20
190.5588293391425054
 30
0.0
 40
0.016179863419184
 50
10.5010575938832496
 51
34.6248336404029189
  0
ARC
  5
EF1D
  8
0
 10
4325.0157066116389615
 20
190.5349490020406904
 30
0.0
 40
0.019210627588701
 50
39.5371955811873974
 51
88.7393679622227864
  0
ARC
  5
EF1E
  8
0
 10
4325.0120331028965666
 20
190.5329408567465919
 30
0.0
 40
0.0233353914486624
 50
4.878114811886995
 51
37.5976801598764609
  0
ARC
  5
EF1F
  8
0
 10
4325.0150989278881752
 20
190.510866049836892
 30
0.0
 40
0.0232943506536603
 50
29.9431691344540916
 51
89.5448575858418252
  0
ARC
  5
EF20
  8
0
 10
4325.0161233445987818
 20
190.4818905780174987
 30
0.0
 40
0.0189471909930842
 50
33.3028062306765094
 51
87.4609237258721777
  0
ARC
  5
EF21
  8
0
 10
4325.005414041073891
 20
190.4778436836803053
 30
0.0
 40
0.0302232109665149
 50
8.7690394472836228
 51
28.5622315972272709
  0
LINE
  5
EF22
  8
0
 10
4324.8752839700582626
 20
190.6055571551237904
 30
0.0
 11
4325.0152839700613185
 21
190.6055571551237904
 31
0.0
  0
ARC
  5
EF23
  8
0
 10
4324.8752758236405498
 20
190.5855095059891084
 30
0.0
 40
0.0200476507898201
 50
89.9767176982786907
 51
175.7242440972273982
  0
ARC
  5
EF24
  8
0
 10
4325.0152921164790314
 20
190.5855095059891084
 30
0.0
 40
0.0200476507898201
 50
4.27575590277256
 51
90.0232823017212951
  0
LINE
  5
EF25
  8
0
 10
4324.8752839700582626
 20
190.601376996123804
 30
0.0
 11
4325.0152839700613185
 21
190.601376996123804
 31
0.0
  0
ARC
  5
EF26
  8
0
 10
4324.8752758236405498
 20
190.5813293469890937
 30
0.0
 40
0.0200476507898201
 50
89.9767176982786907
 51
175.7242440972273982
  0
ARC
  5
EF27
  8
0
 10
4325.0152921164790314
 20
190.5813293469890937
 30
0.0
 40
0.0200476507898201
 50
4.27575590277256
 51
90.0232823017212951
  0
LINE
  5
EF28
  8
0
 10
4319.3082334126602291
 20
189.1869527306238012
 30
0.0
 11
4319.2785133043207679
 21
188.847250338453108
 31
0.0
  0
LINE
  5
EF29
  8
0
 10
4320.2495178589597344
 20
189.1046010124238137
 30
0.0
 11
4320.2197977506602911
 21
188.7648986203238053
 31
0.0
  0
LINE
  5
EF2A
  8
0
 10
4319.2616428626270135
 20
188.8386881125007051
 30
0.0
 11
4320.2349250774195752
 21
188.7535369522688029
 31
0.0
  0
ARC
  5
EF2B
  8
0
 10
4319.2884752511736224
 20
188.8463787809943142
 30
0.0
 40
0.0099999998759247
 50
174.9999997577114925
 51
264.9999999984572128
  0
ARC
  5
EF2C
  8
0
 10
4320.2098358033827026
 20
188.7657701778445016
 30
0.0
 40
0.0100000003036426
 50
265.0102365529689905
 51
354.9999996162389948
  0
ARC
  5
EF2D
  8
0
 10
4319.2598997451250398
 20
188.8187642188491964
 30
0.0
 40
0.0199999999215022
 50
84.999992368419143
 51
175.0000001246961858
  0
LINE
  5
EF2E
  8
0
 10
4319.2399758512374319
 20
188.8205073336538931
 30
0.0
 11
4319.2371868674663347
 21
188.7886291032272084
 31
0.0
  0
ARC
  5
EF2F
  8
0
 10
4319.2272249207026107
 20
188.7895006606343031
 30
0.0
 40
0.0099999997815398
 50
309.9999990411445197
 51
355.0000000078346147
  0
LINE
  5
EF30
  8
0
 10
4319.208534529415374
 20
188.7810976596599062
 30
0.0
 11
4320.2772724075748556
 21
188.6875952110113985
 31
0.0
  0
LINE
  5
EF31
  8
0
 10
4319.1876112905092668
 20
188.7628518091576098
 30
0.0
 11
4319.1689599614946928
 21
188.5496661437057071
 31
0.0
  0
LINE
  5
EF32
  8
0
 10
4320.2946630851683949
 20
188.6659970652436016
 30
0.0
 11
4320.2760117789921424
 21
188.4528116597550138
 31
0.0
  0
ARC
  5
EF33
  8
0
 10
4319.2272249204343098
 20
188.7895006606941024
 30
0.0
 40
0.0100000000000026
 50
265.000000000026489
 51
310.0000000000262048
  0
ARC
  5
EF34
  8
0
 10
4319.2075442069635756
 20
188.7611136232808065
 30
0.0
 40
0.020008559382268
 50
87.1629896878191772
 51
175.016312529994309
  0
LINE
  5
EF35
  8
0
 10
4320.2019802061222435
 20
188.3769753564461951
 30
0.0
 11
4319.2286979923255785
 21
188.4621265165432078
 31
0.0
  0
LINE
  5
EF36
  8
0
 10
4319.2105172100973505
 20
188.4837935256491903
 30
0.0
 11
4319.2133061938648098
 21
188.5156717559758874
 31
0.0
  0
LINE
  5
EF37
  8
0
 10
4319.1863969707519573
 20
188.5280642063544008
 30
0.0
 11
4320.254636448785277
 21
188.4346053620670034
 31
0.0
  0
ARC
  5
EF38
  8
0
 10
4319.1888942442010375
 20
188.5479185123760999
 30
0.0
 40
0.0200107431718086
 50
174.9897099074352127
 51
262.8309880200221187
  0
ARC
  5
EF39
  8
0
 10
4319.2033442470137743
 20
188.5165433135273929
 30
0.0
 40
0.009999999880655
 50
354.9999992267514131
 51
84.999999998457227
  0
ARC
  5
EF3A
  8
0
 10
4319.2304411041395724
 20
188.4820504108475916
 30
0.0
 40
0.0200000000762842
 50
175.0000001726932908
 51
265.0000087622981937
  0
ARC
  5
EF3B
  8
0
 10
4320.2037233241908325
 20
188.3968992500778086
 30
0.0
 40
0.0199999999510898
 50
264.9999907469888853
 51
355.0000000580400865
  0
LINE
  5
EF3C
  8
0
 10
4320.2236472181111822
 20
188.3951561352720034
 30
0.0
 11
4320.2264362018777319
 21
188.4270343655987858
 31
0.0
  0
LINE
  5
EF3D
  8
0
 10
4320.2503168753937643
 20
188.6999917128256925
 30
0.0
 11
4320.2531058591730471
 21
188.731869943269686
 31
0.0
  0
ARC
  5
EF3E
  8
0
 10
4320.2363981491262166
 20
188.4261628081476942
 30
0.0
 40
0.0100000002676687
 50
85.0130877602004773
 51
174.9999999984599128
  0
ARC
  5
EF3F
  8
0
 10
4320.2560908717478014
 20
188.4545489136679919
 30
0.0
 40
0.019996514611768
 50
265.8289757786528753
 51
355.0159835231989973
  0
ARC
  5
EF40
  8
0
 10
4320.2747178889330826
 20
188.6677378307252866
 30
0.0
 40
0.0200210168901867
 50
355.0120092260850129
 51
82.6695432418749334
  0
ARC
  5
EF41
  8
0
 10
4320.2331819652381455
 20
188.7336130581226996
 30
0.0
 40
0.019999999950476
 50
355.0000000234028903
 51
85.0000076772993935
  0
ARC
  5
EF42
  8
0
 10
4320.2602788222729941
 20
188.699120155406888
 30
0.0
 40
0.0099999999133631
 50
174.9999998465702902
 51
265.0000002056020207
  0
CIRCLE
  5
EF43
  8
0
 10
4324.2372682700597579
 20
190.1444284889238077
 30
0.0
 40
0.2839999999999989
  0
CIRCLE
  5
EF44
  8
0
 10
4324.2372682700597579
 20
190.1444284889238077
 30
0.0
 40
0.2800000000000008
  0
LINE
  5
EF45
  8
0
 10
4319.1943608054034485
 20
188.7622613030887919
 30
0.0
 11
4319.1757094764880094
 21
188.5490756376333934
 31
0.0
  0
LINE
  5
EF46
  8
0
 10
4319.2021334657592888
 20
188.7615812834613109
 30
0.0
 11
4319.1834821368447592
 21
188.5483956180059124
 31
0.0
  0
LINE
  5
EF47
  8
0
 10
4319.2221226306073731
 20
188.7598324581286136
 30
0.0
 11
4319.2034713015927991
 21
188.5466467926767109
 31
0.0
  0
LINE
  5
EF48
  8
0
 10
4319.2373692522060082
 20
188.7584985514988887
 30
0.0
 11
4319.2187179232960261
 21
188.5453128861435061
 31
0.0
  0
LINE
  5
EF49
  8
0
 10
4319.2698298945051647
 20
188.755658613283714
 30
0.0
 11
4319.2511785655951826
 21
188.5424729479281893
 31
0.0
  0
LINE
  5
EF4A
  8
0
 10
4319.2919645583524471
 20
188.7537220811412055
 30
0.0
 11
4319.2733132294397365
 21
188.5405364157857946
 31
0.0
  0
LINE
  5
EF4B
  8
0
 10
4319.3356492339053148
 20
188.7499001672838119
 30
0.0
 11
4319.3169979048952882
 21
188.5367145019318968
 31
0.0
  0
LINE
  5
EF4C
  8
0
 10
4319.3638213173053373
 20
188.7474354293794079
 30
0.0
 11
4319.3451699882944013
 21
188.5342497640274075
 31
0.0
  0
LINE
  5
EF4D
  8
0
 10
4319.4170512483588027
 20
188.7427784138284039
 30
0.0
 11
4319.3983999194488206
 21
188.5295927484729077
 31
0.0
  0
LINE
  5
EF4E
  8
0
 10
4319.450178113862421
 20
188.7398801886772048
 30
0.0
 11
4319.4315267849469819
 21
188.5266945232218063
 31
0.0
  0
LINE
  5
EF4F
  8
0
 10
4319.510907704157944
 20
188.7345670379912974
 30
0.0
 11
4319.4922563752443239
 21
188.5213813725358989
 31
0.0
  0
LINE
  5
EF50
  8
0
 10
4319.5477163049554292
 20
188.7313467027144895
 30
0.0
 11
4319.5290649759417647
 21
188.5181610372625869
 31
0.0
  0
LINE
  5
EF51
  8
0
 10
4319.6136117503056084
 20
188.7255815981970102
 30
0.0
 11
4319.5949604213956263
 21
188.5123959328415992
 31
0.0
  0
LINE
  5
EF52
  8
0
 10
4319.6526875525069045
 20
188.7221629085030088
 30
0.0
 11
4319.6340362234959684
 21
188.5089772431510085
 31
0.0
  0
LINE
  5
EF53
  8
0
 10
4319.7212165280070622
 20
188.7161674000047071
 30
0.0
 11
4319.7025651990961705
 21
188.5029817346492109
 31
0.0
  0
LINE
  5
EF54
  8
0
 10
4319.7612098742138187
 20
188.714419276482289
 30
0.0
 11
4319.742254418383709
 21
188.4977571640455949
 31
0.0
  0
ARC
  5
EF55
  8
0
 10
4319.2143366604532275
 20
188.7604633533323124
 30
0.0
 40
0.0200566051046697
 50
86.4595888045562759
 51
174.8568860453237903
  0
ARC
  5
EF56
  8
0
 10
4319.2223597701513427
 20
188.7599529554686058
 30
0.0
 40
0.0202917431831324
 50
96.8500525823487948
 51
175.3973031933826121
  0
ARC
  5
EF57
  8
0
 10
4319.2418795969351777
 20
188.7582994842231017
 30
0.0
 40
0.0198163500045232
 50
86.9214987262011931
 51
175.5632204458077013
  0
ARC
  5
EF58
  8
0
 10
4319.2595676636055941
 20
188.7564957896138083
 30
0.0
 40
0.0222885738392284
 50
110.8377728060565062
 51
174.8446775977373022
  0
ARC
  5
EF59
  8
0
 10
4319.2910546754728784
 20
188.753291381895707
 30
0.0
 40
0.021356383392477
 50
101.2003679443424033
 51
173.6360173037789139
  0
ARC
  5
EF5A
  8
0
 10
4319.3176158131027478
 20
188.7512381136606905
 30
0.0
 40
0.0257712429803919
 50
123.2490387564293997
 51
174.468945778201288
  0
ARC
  5
EF5B
  8
0
 10
4319.3566851154109827
 20
188.7481084990889997
 30
0.0
 40
0.0211120436161539
 50
104.0863117478680948
 51
175.1317527822340878
  0
ARC
  5
EF5C
  8
0
 10
4319.3969925346145828
 20
188.7438993069964113
 30
0.0
 40
0.033359163948276
 50
136.7955910735894065
 51
173.9151280143146892
  0
ARC
  5
EF5D
  8
0
 10
4319.4366064274554446
 20
188.7425717817988016
 30
0.0
 40
0.0195562707657878
 50
103.9036344075990002
 51
179.3946001439180122
  0
ARC
  5
EF5E
  8
0
 10
4319.5202603344414456
 20
188.7296254164259892
 30
0.0
 40
0.0708285111763665
 50
155.1007700098832061
 51
171.6752801220663969
  0
ARC
  5
EF5F
  8
0
 10
4319.5317060577381199
 20
188.7347116337296882
 30
0.0
 40
0.0207988562079294
 50
114.8292010493089066
 51
180.3983292256208983
  0
ARC
  5
EF60
  8
0
 10
4319.6992397528929359
 20
188.7110604410424912
 30
0.0
 40
0.152875399222354
 50
164.8262641444815984
 51
172.3744718926267012
  0
ARC
  5
EF61
  8
0
 10
4319.6329693997377035
 20
188.7250438426353014
 30
0.0
 40
0.0193651174171388
 50
98.2632210626057372
 51
178.4087323241795957
  0
LINE
  5
EF62
  8
0
 10
4319.6526875525069045
 20
188.7221629085030088
 30
0.0
 11
4319.6550980607944439
 21
188.7420284131111998
 31
0.0
  0
ARC
  5
EF63
  8
0
 10
4319.739590445410613
 20
188.7163158588801934
 30
0.0
 40
0.0183745171573658
 50
91.6548807942377266
 51
180.4629324119962916
  0
ARC
  5
EF64
  8
0
 10
4319.7281877555933534
 20
188.7188322109782916
 30
0.0
 40
0.0333156766262003
 50
352.388334628391874
 51
25.1588126999871591
  0
ARC
  5
EF65
  8
0
 10
4319.1953508818396585
 20
188.5472783901103924
 30
0.0
 40
0.0197234607208943
 50
174.7718233142915096
 51
257.9338849177572115
  0
ARC
  5
EF66
  8
0
 10
4319.2016446497427751
 20
188.5767211388462954
 30
0.0
 40
0.0498313827274436
 50
257.9338849177572115
 51
262.9892937913954256
  0
ARC
  5
EF67
  8
0
 10
4319.2041893178502505
 20
188.5466251349184859
 30
0.0
 40
0.020782732147629
 50
175.1130433929920969
 51
249.6464460341560141
  0
ARC
  5
EF68
  8
0
 10
4319.223405336986616
 20
188.5448754478541957
 30
0.0
 40
0.0200125817817612
 50
174.9220160221620972
 51
261.3849743931768899
  0
ARC
  5
EF69
  8
0
 10
4319.2413917751564441
 20
188.5435170018864142
 30
0.0
 40
0.0227448622419874
 50
175.4713374971877897
 51
237.5664498815056902
  0
ARC
  5
EF6A
  8
0
 10
4319.2724966062032763
 20
188.541123875408914
 30
0.0
 40
0.0213606847279467
 50
176.3789718680299927
 51
248.8146209693695141
  0
ARC
  5
EF6B
  8
0
 10
4319.2999106457245944
 20
188.5386414421413974
 30
0.0
 40
0.0266648359847727
 50
175.9247605562696037
 51
225.0130570328161923
  0
ARC
  5
EF6C
  8
0
 10
4319.3373161906938549
 20
188.5346533738463961
 30
0.0
 40
0.0204225607314734
 50
174.2076146064032116
 51
249.9015830858795084
  0
ARC
  5
EF6D
  8
0
 10
4319.3790764072327875
 20
188.5320841638146021
 30
0.0
 40
0.0339755069062585
 50
176.3454872058690057
 51
212.7444278007033915
  0
ARC
  5
EF6E
  8
0
 10
4319.4176803877116981
 20
188.5272461815931138
 30
0.0
 40
0.0194227400893243
 50
173.0608337680374973
 51
259.7987708198772907
  0
ARC
  5
EF6F
  8
0
 10
4319.5024281187761517
 20
188.524627556891204
 30
0.0
 40
0.0709314562700072
 50
178.3301454595161886
 51
194.8800198025992927
  0
ARC
  5
EF70
  8
0
 10
4319.5132809591850673
 20
188.5195425269787108
 30
0.0
 40
0.0211048450096735
 50
175.0015339652383091
 51
246.3834913821821999
  0
ARC
  5
EF71
  8
0
 10
4319.6812101847290251
 20
188.5118370860919867
 30
0.0
 40
0.1522765803249093
 50
177.6198575986207118
 51
185.1979292006137996
  0
ARC
  5
EF72
  8
0
 10
4319.6159590543184095
 20
188.5092902202171956
 30
0.0
 40
0.0212270590405122
 50
171.5869044120449018
 51
236.9648127984580981
  0
LINE
  5
EF73
  8
0
 10
4319.6340362234959684
 20
188.5089772431510085
 30
0.0
 11
4319.6329589715051043
 21
188.4889950937181027
 31
0.0
  0
ARC
  5
EF74
  8
0
 10
4319.7207937131897779
 20
188.4997816374925037
 30
0.0
 40
0.0185072782401086
 50
170.042932536065706
 51
258.8509860890446816
  0
ARC
  5
EF75
  8
0
 10
4319.7053473113519431
 20
188.4998864532153959
 30
0.0
 40
0.0369684787591515
 50
327.3446789195842825
 51
356.6980832731484838
  0
LINE
  5
EF76
  8
0
 10
4320.2879135804705584
 20
188.666587945329411
 30
0.0
 11
4320.2692622960530571
 21
188.453402275981091
 31
0.0
  0
LINE
  5
EF77
  8
0
 10
4320.2801409200501439
 20
188.6672679635815939
 30
0.0
 11
4320.2614896356308236
 21
188.4540822942333875
 31
0.0
  0
LINE
  5
EF78
  8
0
 10
4320.2601517548073389
 20
188.6690167850217961
 30
0.0
 11
4320.2415004704871535
 21
188.4558311156596915
 31
0.0
  0
LINE
  5
EF79
  8
0
 10
4320.2449051329367649
 20
188.6703506884601893
 30
0.0
 11
4320.2262538485319965
 21
188.4571650192110042
 31
0.0
  0
LINE
  5
EF7A
  8
0
 10
4320.2124444901182869
 20
188.6731906201652862
 30
0.0
 11
4320.1937932057126091
 21
188.4600049509161011
 31
0.0
  0
LINE
  5
EF7B
  8
0
 10
4320.1903098258226237
 20
188.6751271478590866
 30
0.0
 11
4320.1716585414187648
 21
188.4619414786099014
 31
0.0
  0
LINE
  5
EF7C
  8
0
 10
4320.146625149495776
 20
188.6789490528786075
 30
0.0
 11
4320.127973865191052
 21
188.4657633836154105
 31
0.0
  0
LINE
  5
EF7D
  8
0
 10
4320.1184530656446441
 20
188.6814137850522002
 30
0.0
 11
4320.0998017813390106
 21
188.4682281157890884
 31
0.0
  0
LINE
  5
EF7E
  8
0
 10
4320.0652231336398472
 20
188.6860707896283031
 30
0.0
 11
4320.0465718492359883
 21
188.4728851203790896
 31
0.0
  0
LINE
  5
EF7F
  8
0
 10
4320.0320962675477858
 20
188.6889690080319895
 30
0.0
 11
4320.013444983129375
 21
188.4757833386838115
 31
0.0
  0
LINE
  5
EF80
  8
0
 10
4319.9713666761508648
 20
188.6942821461844915
 30
0.0
 11
4319.952715391732454
 21
188.4810964768361998
 31
0.0
  0
LINE
  5
EF81
  8
0
 10
4319.9345580746849009
 20
188.6975024738729871
 30
0.0
 11
4319.9159067903647156
 21
188.484316804510911
 31
0.0
  0
LINE
  5
EF82
  8
0
 10
4319.8686626280823475
 20
188.703267564563987
 30
0.0
 11
4319.8500113436766696
 21
188.4900818953146882
 31
0.0
  0
LINE
  5
EF83
  8
0
 10
4319.8295868251689171
 20
188.7066862461581991
 30
0.0
 11
4319.8109355408632837
 21
188.4935005768950873
 31
0.0
  0
ARC
  5
EF84
  8
0
 10
4320.2679289924908517
 20
188.6682860771180117
 30
0.0
 40
0.0200566051046697
 50
355.1431259343401052
 51
83.5404231751467847
  0
ARC
  5
EF85
  8
0
 10
4320.2599391420808388
 20
188.6691766302247117
 30
0.0
 40
0.0202917431831324
 50
354.6027087862833014
 51
73.1499593972754667
  0
ARC
  5
EF86
  8
0
 10
4320.2404287426634255
 20
188.6709378575100118
 30
0.0
 40
0.0198163500045232
 50
354.4367915338550006
 51
83.0785132534559239
  0
ARC
  5
EF87
  8
0
 10
4320.2226961889409722
 20
188.6722330620712
 30
0.0
 40
0.0222885738392284
 50
355.1553343819310271
 51
59.1622391735868121
  0
ARC
  5
EF88
  8
0
 10
4320.1911310955638328
 20
188.6745449924216018
 30
0.0
 40
0.021356383392477
 50
356.3639946758851806
 51
68.7996440353372662
  0
ARC
  5
EF89
  8
0
 10
4320.1646169344239752
 20
188.6771352056964872
 30
0.0
 40
0.0257712429803919
 50
355.5310662014621244
 51
46.7509732232202566
  0
ARC
  5
EF8A
  8
0
 10
4320.1255977299861115
 20
188.6808374422421082
 30
0.0
 40
0.0211120436161539
 50
354.8682591974280172
 51
65.91370023181085
  0
ARC
  5
EF8B
  8
0
 10
4320.0851717519781232
 20
188.6836914987920863
 30
0.0
 40
0.033359163948276
 50
356.0848839653527875
 51
33.2044209060819284
  0
ARC
  5
EF8C
  8
0
 10
4320.0459291597126139
 20
188.6892630139834921
 30
0.0
 40
0.0195562707657878
 50
350.6054118357471907
 51
66.0963775720341999
  0
ARC
  5
EF8D
  8
0
 10
4319.9612980304264056
 20
188.6910396639015914
 30
0.0
 40
0.0708285111763665
 50
358.3247318576005114
 51
14.8992419697827092
  0
ARC
  5
EF8E
  8
0
 10
4319.9509094042969082
 20
188.6980361371091135
 30
0.0
 40
0.0207988562079294
 50
349.6016827540457825
 51
55.1708109303833396
  0
ARC
  5
EF8F
  8
0
 10
4319.7818139346973112
 20
188.7038361447706052
 30
0.0
 40
0.1528753992223539
 50
357.6255400870372227
 51
5.1737478351893742
  0
ARC
  5
EF90
  8
0
 10
4319.8495056839756217
 20
188.7060993952599972
 30
0.0
 40
0.0193651174171388
 50
351.5912796554879947
 51
71.736790917033801
  0
LINE
  5
EF91
  8
0
 10
4319.8295868251689171
 20
188.7066862461581991
 30
0.0
 11
4319.8306625424156664
 21
188.7266685297099116
 31
0.0
  0
ARC
  5
EF92
  8
0
 10
4320.2492650065905764
 20
188.4552066972404987
 30
0.0
 40
0.0200785338576128
 50
267.786767231408021
 51
354.8439764707021027
  0
ARC
  5
EF93
  8
0
 10
4320.2407896016848099
 20
188.4559344686803115
 30
0.0
 40
0.020782732147629
 50
280.3535659455139921
 51
354.8869685866728219
  0
ARC
  5
EF94
  8
0
 10
4320.2215616867233621
 20
188.4575481862960942
 30
0.0
 40
0.0200125817817612
 50
268.6150375865051956
 51
355.0779959575040152
  0
ARC
  5
EF95
  8
0
 10
4320.2036126109469478
 20
188.4593336867932862
 30
0.0
 40
0.0227448622419874
 50
292.4335620981782995
 51
354.5286744824808807
  0
ARC
  5
EF96
  8
0
 10
4320.1725647695629959
 20
188.4623782083041874
 30
0.0
 40
0.0213606847279467
 50
281.1853910102583995
 51
353.6210401116376261
  0
ARC
  5
EF97
  8
0
 10
4320.1451361403560441
 20
188.4646938811960979
 30
0.0
 40
0.0266648359847727
 50
304.9869549468725722
 51
354.0752514233972761
  0
ARC
  5
EF98
  8
0
 10
4320.1076063483587859
 20
188.4672617977408038
 30
0.0
 40
0.0204225607314734
 50
280.0984288937577276
 51
355.7923973732624177
  0
ARC
  5
EF99
  8
0
 10
4320.0660344237767276
 20
188.4719831967092034
 30
0.0
 40
0.0339755069062585
 50
317.2555841789776991
 51
353.6545247737973909
  0
ARC
  5
EF9A
  8
0
 10
4320.0271768173288365
 20
188.4739222172462121
 30
0.0
 40
0.0194227400893243
 50
270.2012411597571031
 51
356.9391782116276204
  0
ARC
  5
EF9B
  8
0
 10
4319.9432618727896624
 20
188.4860596469555958
 30
0.0
 40
0.0709314562700072
 50
335.1199921770693777
 51
351.6698665201457743
  0
ARC
  5
EF9C
  8
0
 10
4319.9316909058979945
 20
188.4829364437665049
 30
0.0
 40
0.0211048450096735
 50
283.6165205974646142
 51
354.9984780144279171
  0
ARC
  5
EF9D
  8
0
 10
4319.7649748623489359
 20
188.5045086350577037
 30
0.0
 40
0.1522765803249093
 50
344.80208277904228
 51
352.3801543810425869
  0
ARC
  5
EF9E
  8
0
 10
4319.8287924257119812
 20
188.4906697353474954
 30
0.0
 40
0.0212270590405122
 50
293.0351991812108849
 51
358.4131075676174873
  0
LINE
  5
EF9F
  8
0
 10
4319.8109355408632837
 20
188.4935005768950873
 30
0.0
 11
4319.8085265672953028
 21
188.473634937862812
 31
0.0
  0
LINE
  5
EFA0
  8
0
 10
4326.7402839700598633
 20
191.1604284889237988
 30
0.0
 11
4326.7402839700598633
 21
189.1284284889237881
 31
0.0
  0
LINE
  5
EFA1
  8
0
 10
4326.5922839700597251
 20
191.1504284889238079
 30
0.0
 11
4326.5922839700597251
 21
189.1384284889238074
 31
0.0
  0
LINE
  5
EFA2
  8
0
 10
4326.3402839700602271
 20
190.8632307629314937
 30
0.0
 11
4326.3402839700602271
 21
189.4256262149160932
 31
0.0
  0
LINE
  5
EFA3
  8
0
 10
4326.6122839700592522
 20
191.1704284889237897
 30
0.0
 11
4326.7302839700596451
 21
191.1704284889237897
 31
0.0
  0
ARC
  5
EFA4
  8
0
 10
4326.6122839700592522
 20
191.1504284889238079
 30
0.0
 40
0.0199999999999996
 50
90.0
 51
180.0000000000015916
  0
ARC
  5
EFA5
  8
0
 10
4326.7302839700596451
 20
191.1604284889237988
 30
0.0
 40
0.0100000000000007
 50
0.0000000000032569
 51
90.0
  0
LINE
  5
EFA6
  8
0
 10
4326.3082839700591649
 20
190.7944284889238133
 30
0.0
 11
4325.2635682412601454
 21
190.7944284889238133
 31
0.0
  0
LINE
  5
EFA7
  8
0
 10
4325.2069996987593186
 20
190.7944284889238133
 30
0.0
 11
4325.1152839700607728
 21
190.7944284889238133
 31
0.0
  0
ARC
  5
EFA8
  8
0
 10
4326.3082839700591649
 20
190.8264284889237956
 30
0.0
 40
0.0320000000000009
 50
270.0
 51
359.9999999999968168
  0
ARC
  5
EFA9
  8
0
 10
4326.3602839700397453
 20
190.8632307629314937
 30
0.0
 40
0.0199999999803207
 50
94.6476682256816559
 51
180.0000000220246932
  0
ARC
  5
EFAA
  8
0
 10
4326.3425310769516727
 20
191.0816056211482987
 30
0.0
 40
0.1990952850310634
 50
274.6476682256816844
 51
302.1315122615031896
  0
ARC
  5
EFAB
  8
0
 10
4326.3840414568503547
 20
191.0155131833928124
 30
0.0
 40
0.1210483634535129
 50
302.1315122615031896
 51
347.0841675819241914
  0
ARC
  5
EFAC
  8
0
 10
4326.5217966792852167
 20
190.9854284888567975
 30
0.0
 40
0.0200000000669718
 50
90.0000000710783183
 51
171.2918470165591032
  0
LINE
  5
EFAD
  8
0
 10
4326.502027232160799
 20
190.9884565184237886
 30
0.0
 11
4326.502027232160799
 21
189.3004004594237983
 31
0.0
  0
LINE
  5
EFAE
  8
0
 10
4326.5602839700595723
 20
191.0054284889237977
 30
0.0
 11
4326.5217966792852167
 21
191.0054284889237977
 31
0.0
  0
ARC
  5
EFAF
  8
0
 10
4326.5602839700595723
 20
191.0374284889238083
 30
0.0
 40
0.0319999999999992
 50
270.0
 51
0.0000000000016284
  0
LINE
  5
EFB0
  8
0
 10
4325.2164277891597521
 20
190.7877618222238141
 30
0.0
 11
4325.2164277892288737
 21
189.5010951555904057
 31
0.0
  0
LINE
  5
EFB1
  8
0
 10
4325.2541401508597119
 20
190.7877618222238141
 30
0.0
 11
4325.2541401508597119
 21
189.5010951555238137
 31
0.0
  0
ARC
  5
EFB2
  8
0
 10
4325.2069996987820559
 20
190.7844284889947062
 30
0.0
 40
0.0099999999290831
 50
19.4712201446134117
 51
90.0000001291290772
  0
ARC
  5
EFB3
  8
0
 10
4325.2635682412383176
 20
190.7844284889947062
 30
0.0
 40
0.0099999999290814
 50
89.9999998708187974
 51
160.5287798553773086
  0
LINE
  5
EFB4
  8
0
 10
4326.6122839700592522
 20
189.1184284889237972
 30
0.0
 11
4326.7302839700596451
 21
189.1184284889237972
 31
0.0
  0
ARC
  5
EFB5
  8
0
 10
4326.6122839700592522
 20
189.1384284889238074
 30
0.0
 40
0.0199999999999996
 50
179.9999999999984084
 51
270.0
  0
ARC
  5
EFB6
  8
0
 10
4326.7302839700596451
 20
189.1284284889237881
 30
0.0
 40
0.0100000000000007
 50
270.0
 51
359.9999999999968168
  0
LINE
  5
EFB7
  8
0
 10
4326.3082839700591649
 20
189.494428488923802
 30
0.0
 11
4325.2635682412601454
 21
189.494428488923802
 31
0.0
  0
LINE
  5
EFB8
  8
0
 10
4325.2069996987593186
 20
189.494428488923802
 30
0.0
 11
4325.1152839700607728
 21
189.494428488923802
 31
0.0
  0
ARC
  5
EFB9
  8
0
 10
4326.3082839700591649
 20
189.4624284889237913
 30
0.0
 40
0.0320000000000009
 50
0.0000000000032569
 51
90.0
  0
ARC
  5
EFBA
  8
0
 10
4326.3602839700397453
 20
189.4256262149160932
 30
0.0
 40
0.0199999999803207
 50
179.9999999779753068
 51
265.3523317743183156
  0
ARC
  5
EFBB
  8
0
 10
4326.3425310769516727
 20
189.2072513566992882
 30
0.0
 40
0.1990952850310634
 50
57.8684877384967393
 51
85.3523317743183441
  0
ARC
  5
EFBC
  8
0
 10
4326.3840414568503547
 20
189.2733437944546893
 30
0.0
 40
0.1210483634535129
 50
12.9158324180741193
 51
57.8684877384967393
  0
ARC
  5
EFBD
  8
0
 10
4326.5217966792852167
 20
189.3034284889907894
 30
0.0
 40
0.0200000000669718
 50
188.7081529834393052
 51
269.9999999289216817
  0
LINE
  5
EFBE
  8
0
 10
4326.5602839700595723
 20
189.2834284889237892
 30
0.0
 11
4326.5217966792852167
 21
189.2834284889237892
 31
0.0
  0
ARC
  5
EFBF
  8
0
 10
4326.5602839700595723
 20
189.251428488923807
 30
0.0
 40
0.0319999999999992
 50
359.9999999999984084
 51
90.0
  0
ARC
  5
EFC0
  8
0
 10
4325.2069996987165723
 20
189.504428489058796
 30
0.0
 40
0.0100000001349709
 50
270.0000002458037898
 51
340.5287788180970097
  0
ARC
  5
EFC1
  8
0
 10
4325.2635682412674214
 20
189.5044284889436881
 30
0.0
 40
0.0100000000199217
 50
199.4712211203282948
 51
269.9999999636792154
  0
LINE
  5
EFC2
  8
0
 10
4325.1052839700596451
 20
190.784428488923794
 30
0.0
 11
4325.1052839700596451
 21
189.5044284889237929
 31
0.0
  0
ARC
  5
EFC3
  8
0
 10
4325.1152839700607728
 20
190.784428488923794
 30
0.0
 40
0.0100000000000007
 50
90.0
 51
180.0
  0
ARC
  5
EFC4
  8
0
 10
4325.1152839700607728
 20
189.5044284889237929
 30
0.0
 40
0.0100000000000007
 50
180.0
 51
270.0
  0
ARC
  5
EFC5
  8
0
 10
4325.2352839700333789
 20
189.4944284889627966
 30
0.0
 40
0.0199999999609623
 50
19.47122035284292
 51
160.5287794448879879
  0
ARC
  5
EFC6
  8
0
 10
4325.2352839700106415
 20
190.7944284889663891
 30
0.0
 40
0.0200000000426313
 50
199.4712208221253888
 51
340.5287791778745259
  0
LINE
  5
EFC7
  8
0
 10
4325.0952839700603363
 20
190.4594284889238054
 30
0.0
 11
4325.1052839700596451
 21
190.4594284889238054
 31
0.0
  0
LINE
  5
EFC8
  8
0
 10
4325.0952839700603363
 20
189.8294284889238099
 30
0.0
 11
4325.1052839700596451
 21
189.8294284889238099
 31
0.0
  0
ARC
  5
EFC9
  8
0
 10
4320.8687126355780492
 20
189.0504284888785946
 30
0.0
 40
1.566440000045163
 50
90.0000000006253345
 51
174.999999997370395
  0
ARC
  5
EFCA
  8
0
 10
4320.8687126356016961
 20
189.0504284888149868
 30
0.0
 40
0.6215600001088255
 50
90.0000000039082835
 51
174.9999999873114973
  0
ARC
  5
EFCB
  8
0
 10
4323.9572682700609221
 20
190.1444284889238077
 30
0.0
 40
0.0200000000000007
 50
272.0467130976949761
 51
87.9532869023050523
  0
ARC
  5
EFCC
  8
0
 10
4323.9785820009574309
 20
190.0372771278616142
 30
0.0
 40
0.0200000000000007
 50
294.5467130976771273
 51
110.4532869023195047
  0
ARC
  5
EFCD
  8
0
 10
4324.0392783713286917
 20
189.9464385901914909
 30
0.0
 40
0.0200000000000007
 50
317.046713097702991
 51
132.9532869023045976
  0
ARC
  5
EFCE
  8
0
 10
4324.1301169089992982
 20
189.8857422198205995
 30
0.0
 40
0.0200000000000007
 50
339.5467130977021952
 51
155.4532869022982879
  0
ARC
  5
EFCF
  8
0
 10
4324.2372682700597579
 20
189.8644284889238065
 30
0.0
 40
0.0200000000000007
 50
2.046713097694655
 51
177.9532869023053081
  0
ARC
  5
EFD0
  8
0
 10
4324.3444196311229462
 20
189.8857422198205995
 30
0.0
 40
0.0200000000000007
 50
24.5467130977016801
 51
200.4532869022978048
  0
ARC
  5
EFD1
  8
0
 10
4324.4352581687926431
 20
189.9464385901914909
 30
0.0
 40
0.0200000000000007
 50
47.0467130976953385
 51
222.953286902297009
  0
ARC
  5
EFD2
  8
0
 10
4324.4959545391629945
 20
190.0372771278616142
 30
0.0
 40
0.0200000000000007
 50
69.5467130976804953
 51
245.4532869023229011
  0
ARC
  5
EFD3
  8
0
 10
4324.5172682700604128
 20
190.1444284889238077
 30
0.0
 40
0.0200000000000007
 50
92.0467130976949335
 51
267.9532869023050239
  0
ARC
  5
EFD4
  8
0
 10
4324.4959545391629945
 20
190.2515798499860011
 30
0.0
 40
0.0200000000000007
 50
114.5467130976770989
 51
290.453286902319519
  0
ARC
  5
EFD5
  8
0
 10
4324.4352581687926431
 20
190.3424183876560107
 30
0.0
 40
0.0200000000000007
 50
137.046713097702991
 51
312.9532869023046828
  0
ARC
  5
EFD6
  8
0
 10
4324.3444196311229462
 20
190.4031147580269021
 30
0.0
 40
0.0200000000000007
 50
159.5467130977021952
 51
335.4532869022983164
  0
ARC
  5
EFD7
  8
0
 10
4324.2372682700597579
 20
190.4244284889238088
 30
0.0
 40
0.0200000000000007
 50
182.0467130976946066
 51
357.9532869023054218
  0
ARC
  5
EFD8
  8
0
 10
4324.1301169089992982
 20
190.4031147580269021
 30
0.0
 40
0.0200000000000007
 50
204.5467130977017121
 51
20.4532869022978012
  0
ARC
  5
EFD9
  8
0
 10
4324.0392783713286917
 20
190.3424183876560107
 30
0.0
 40
0.0200000000000007
 50
227.0467130976952888
 51
42.9532869022969592
  0
ARC
  5
EFDA
  8
0
 10
4323.9785820009574309
 20
190.2515798499860011
 30
0.0
 40
0.0200000000000007
 50
249.5467130976805095
 51
65.4532869023228727
  0
ENDSEC
  0
EOF
