  0
SECTION
  2
HEADER
  9
$ACADVER
  1
AC1009
  9
$INSBASE
 10
4330.8179528489108634
 20
197.9861036933361902
 30
0.0
  9
$EXTMIN
 10
4329.5564528489103395
 20
197.9861036933361902
 30
0.0
  9
$EXTMAX
 10
4333.7341528489114353
 20
201.6851036933362025
 30
0.0
  9
$LIMMIN
 10
0.0
 20
0.0
  9
$LIMMAX
 10
11.6929133858000007
 20
8.2677165353999982
  9
$ORTHOMODE
 70
     0
  9
$REGENMODE
 70
     1
  9
$FILLMODE
 70
     1
  9
$QTEXTMODE
 70
     0
  9
$MIRRTEXT
 70
     0
  9
$DRAGMODE
 70
     2
  9
$LTSCALE
 40
0.6431102362
  9
$OSMODE
 70
     7
  9
$ATTMODE
 70
     1
  9
$TEXTSIZE
 40
0.2
  9
$TRACEWID
 40
0.05
  9
$TEXTSTYLE
  7
STANDARD
  9
$CLAYER
  8
0
  9
$CELTYPE
  6
BYLAYER
  9
$CECOLOR
 62
   256
  9
$DIMSCALE
 40
1.0
  9
$DIMASZ
 40
0.1875
  9
$DIMEXO
 40
0.0625
  9
$DIMDLI
 40
0.4443307087
  9
$DIMRND
 40
0.0
  9
$DIMDLE
 40
0.0
  9
$DIMEXE
 40
0.125
  9
$DIMTP
 40
0.01
  9
$DIMTM
 40
0.01
  9
$DIMTXT
 40
2.0
  9
$DIMCEN
 40
0.1052362205
  9
$DIMTSZ
 40
0.0
  9
$DIMTOL
 70
     1
  9
$DIMLIM
 70
     0
  9
$DIMTIH
 70
     1
  9
$DIMTOH
 70
     1
  9
$DIMSE1
 70
     0
  9
$DIMSE2
 70
     0
  9
$DIMTAD
 70
     0
  9
$DIMZIN
 70
     0
  9
$DIMBLK
  1

  9
$DIMASO
 70
     1
  9
$DIMSHO
 70
     1
  9
$DIMPOST
  1
\X
  9
$DIMAPOST
  1

  9
$DIMALT
 70
     1
  9
$DIMALTD
 70
     2
  9
$DIMALTF
 40
25.3999999999999986
  9
$DIMLFAC
 40
1.0
  9
$DIMTOFL
 70
     0
  9
$DIMTVP
 40
0.0
  9
$DIMTIX
 70
     0
  9
$DIMSOXD
 70
     0
  9
$DIMSAH
 70
     0
  9
$DIMBLK1
  1

  9
$DIMBLK2
  1

  9
$DIMSTYLE
  2
STANDARD
  9
$DIMCLRD
 70
     0
  9
$DIMCLRE
 70
     0
  9
$DIMCLRT
 70
     0
  9
$DIMTFAC
 40
1.0
  9
$DIMGAP
 40
0.09
  9
$LUNITS
 70
     2
  9
$LUPREC
 70
     4
  9
$SKETCHINC
 40
0.1
  9
$FILLETRAD
 40
0.0
  9
$AUNITS
 70
     0
  9
$AUPREC
 70
     0
  9
$MENU
  1
.
  9
$ELEVATION
 40
0.0
  9
$PELEVATION
 40
0.0
  9
$THICKNESS
 40
0.0
  9
$LIMCHECK
 70
     0
  9
$BLIPMODE
 70
     0
  9
$CHAMFERA
 40
0.0
  9
$CHAMFERB
 40
0.0
  9
$SKPOLY
 70
     0
  9
$TDCREATE
 40
2458060.468368056230247
  9
$TDUPDATE
 40
2459579.5990393520332873
  9
$TDINDWG
 40
0.4392084491
  9
$TDUSRTIMER
 40
0.4392084491
  9
$USRTIMER
 70
     1
  9
$ANGBASE
 50
0.0
  9
$ANGDIR
 70
     0
  9
$PDMODE
 70
     0
  9
$PDSIZE
 40
0.3125
  9
$PLINEWID
 40
0.0
  9
$COORDS
 70
     1
  9
$SPLFRAME
 70
     0
  9
$SPLINETYPE
 70
     6
  9
$SPLINESEGS
 70
     8
  9
$ATTDIA
 70
     1
  9
$ATTREQ
 70
     1
  9
$HANDLING
 70
     1
  9
$HANDSEED
  5
E967
  9
$SURFTAB1
 70
     6
  9
$SURFTAB2
 70
     6
  9
$SURFTYPE
 70
     6
  9
$SURFU
 70
     6
  9
$SURFV
 70
     6
  9
$UCSNAME
  2

  9
$UCSORG
 10
0.0
 20
0.0
 30
0.0
  9
$UCSXDIR
 10
1.0
 20
0.0
 30
0.0
  9
$UCSYDIR
 10
0.0
 20
1.0
 30
0.0
  9
$PUCSNAME
  2

  9
$PUCSORG
 10
0.0
 20
0.0
 30
0.0
  9
$PUCSXDIR
 10
1.0
 20
0.0
 30
0.0
  9
$PUCSYDIR
 10
0.0
 20
1.0
 30
0.0
  9
$USERI1
 70
     0
  9
$USERI2
 70
     0
  9
$USERI3
 70
     0
  9
$USERI4
 70
     0
  9
$USERI5
 70
     0
  9
$USERR1
 40
0.0
  9
$USERR2
 40
0.0
  9
$USERR3
 40
0.0
  9
$USERR4
 40
0.0
  9
$USERR5
 40
0.0
  9
$WORLDVIEW
 70
     1
  9
$SHADEDGE
 70
     3
  9
$SHADEDIF
 70
    70
  9
$TILEMODE
 70
     1
  9
$MAXACTVP
 70
    64
  9
$PLIMCHECK
 70
     0
  9
$PEXTMIN
 10
1.0000000000000000E+20
 20
1.0000000000000000E+20
 30
1.0000000000000000E+20
  9
$PEXTMAX
 10
-1.0000000000000000E+20
 20
-1.0000000000000000E+20
 30
-1.0000000000000000E+20
  9
$PLIMMIN
 10
0.0
 20
0.0
  9
$PLIMMAX
 10
12.0
 20
9.0
  9
$UNITMODE
 70
     0
  9
$VISRETAIN
 70
     1
  9
$PLINEGEN
 70
     0
  9
$PSLTSCALE
 70
     1
  0
ENDSEC
  0
SECTION
  2
TABLES
  0
TABLE
  2
VPORT
 70
     1
  0
VPORT
  2
*ACTIVE
 70
     0
 10
0.0
 20
0.0
 11
1.0
 21
1.0
 12
528.1012354660979327
 22
73.8403414965862765
 13
0.0
 23
0.0
 14
1.0
 24
1.0
 15
0.0
 25
0.0
 16
0.0
 26
0.0
 36
17.1152628219792007
 17
3803.5440673828129547
 27
125.9952621967499056
 37
0.0
 40
3.7254844868735111
 41
2.2831541218637992
 42
50.0
 43
0.0
 44
0.0
 50
0.0
 51
0.0
 71
     0
 72
   100
 73
     1
 74
     1
 75
     0
 76
     0
 77
     0
 78
     0
  0
ENDTAB
  0
TABLE
  2
LTYPE
 70
     2
  0
LTYPE
  2
CONTINUOUS
 70
     0
  3
Solid line
 72
    65
 73
     0
 40
0.0
  0
LTYPE
  2
PHANTOM2
 70
     0
  3
___ _ _ ___ _ _ ___ _ _ ___ _ _
 72
    65
 73
     6
 40
1.25
 49
0.625
 49
-0.125
 49
0.125
 49
-0.125
 49
0.125
 49
-0.125
  0
ENDTAB
  0
TABLE
  2
LAYER
 70
     2
  0
LAYER
  2
0
 70
     0
 62
   255
  6
CONTINUOUS
  0
LAYER
  2
DEFPOINTS
 70
     0
 62
     7
  6
CONTINUOUS
  0
ENDTAB
  0
TABLE
  2
STYLE
 70
     1
  0
STYLE
  2
STANDARD
 70
     0
 40
0.0
 41
0.8
 50
0.0
 71
     0
 42
0.2
  3
txt
  4

  0
ENDTAB
  0
TABLE
  2
VIEW
 70
     0
  0
ENDTAB
  0
TABLE
  2
UCS
 70
     0
  0
ENDTAB
  0
TABLE
  2
APPID
 70
     9
  0
APPID
  2
ACAD
 70
     0
  0
APPID
  2
ACAD_MLEADERVER
 70
     0
  0
APPID
  2
ACAD_EXEMPT_FROM_CAD_STANDARDS
 70
     0
  0
APPID
  2
ACAD_NAV_VCDISPLAY
 70
     0
  0
APPID
  2
ACAECLAYERSTANDARD
 70
     0
  0
APPID
  2
ACCMTRANSPARENCY
 70
     0
  0
APPID
  2
ACAD_DSTYLE_DIMJAG
 70
     0
  0
APPID
  2
ACAD_DSTYLE_DIMTALN
 70
     0
  0
APPID
  2
ACDBATTR
 70
     0
  0
ENDTAB
  0
TABLE
  2
DIMSTYLE
 70
     1
  0
DIMSTYLE
  2
STANDARD
 70
     0
  3

  4

  5

  6

  7

 40
1.0
 41
0.1875
 42
0.0625
 43
0.38
 44
0.125
 45
0.0
 46
0.0
 47
0.01
 48
0.01
140
0.15625
141
0.09
142
0.0
143
25.3999999999999986
144
1.0
145
0.0
146
1.0
147
0.09
 71
     1
 72
     0
 73
     1
 74
     1
 75
     0
 76
     0
 77
     0
 78
     4
170
     0
171
     2
172
     0
173
     0
174
     0
175
     0
176
     0
177
     0
178
     0
  0
ENDTAB
  0
ENDSEC
  0
SECTION
  2
BLOCKS
  0
BLOCK
  8
0
  2
$MODEL_SPACE
 70
     0
 10
0.0
 20
0.0
 30
0.0
  3
$MODEL_SPACE
  1

  0
ENDBLK
  5
21
  8
0
  0
BLOCK
 67
     1
  8
0
  2
$PAPER_SPACE
 70
     0
 10
0.0
 20
0.0
 30
0.0
  3
$PAPER_SPACE
  1

  0
ENDBLK
  5
1D
 67
     1
  8
0
  0
ENDSEC
  0
SECTION
  2
ENTITIES
  0
ATTDEF
  5
3930
  8
DEFPOINTS
 10
4330.817975454230691
 20
197.9894527072279118
 30
0.0
 40
0.001
  1
P21248-LV
  3

  2
MODELNUMBER
 70
     0
1001
ACDBATTR
1070
     0
1070
     1
  0
ATTDEF
  5
3931
  8
DEFPOINTS
 10
4330.817975454230691
 20
197.9877860405613035
 30
0.0
 40
0.001
  1
CENTRAL PARK WEST
  3

  2
TRADENAME
 70
     0
1001
ACDBATTR
1070
     0
1070
     1
  0
ATTDEF
  5
3932
  8
DEFPOINTS
 10
4330.817975454230691
 20
197.9861193738946099
 30
0.0
 40
0.001
  1
BATH FAUCET HANDLES
  3

  2
PRODUCT
 70
     0
1001
ACDBATTR
1070
     0
1070
     1
  0
LINE
  5
E79B
  8
0
 10
4329.5664528489105578
 20
197.9861036933361902
 30
0.0
 11
4332.0694528489102595
 21
197.9861036933361902
 31
0.0
  0
LINE
  5
E79C
  8
0
 10
4329.5764528489098666
 20
198.1791036933362022
 30
0.0
 11
4332.0594528489100412
 21
198.1791036933362022
 31
0.0
  0
LINE
  5
E79D
  8
0
 10
4329.9132832129107555
 20
198.4811036933361947
 30
0.0
 11
4331.7226224849091523
 21
198.4811036933361947
 31
0.0
  0
LINE
  5
E79E
  8
0
 10
4329.5564528489103395
 20
198.159103693336192
 30
0.0
 11
4329.5564528489103395
 21
197.9961036933362095
 31
0.0
  0
ARC
  5
E79F
  8
0
 10
4329.5764528489098666
 20
198.159103693336192
 30
0.0
 40
0.0199999999999996
 50
90.0
 51
180.0000000000015916
  0
ARC
  5
E7A0
  8
0
 10
4329.5664528489105578
 20
197.9961036933362095
 30
0.0
 40
0.0100000000000007
 50
180.0000000000048885
 51
270.0
  0
LINE
  5
E7A1
  8
0
 10
4330.0506528489086122
 20
198.501103693336205
 30
0.0
 11
4330.0506528489086122
 21
200.1151036933362093
 31
0.0
  0
LINE
  5
E7A2
  8
0
 10
4330.0506528489086122
 20
200.1651036933361922
 30
0.0
 11
4330.0506528489086122
 21
200.2451036933362047
 31
0.0
  0
ARC
  5
E7A3
  8
0
 10
4330.0306528489099946
 20
198.501103693336205
 30
0.0
 40
0.0199999999999676
 50
270.0
 51
0.000000000043968
  0
ARC
  5
E7A4
  8
0
 10
4329.9132832129107555
 20
198.4611036933559092
 30
0.0
 40
0.0199999999803207
 50
89.9999999779573869
 51
175.3523317743236021
  0
ARC
  5
E7A5
  8
0
 10
4329.6453380449247561
 20
198.4810673798099003
 30
0.0
 40
0.2486883440016033
 50
328.5544907644970181
 51
355.7700517274279832
  0
ARC
  5
E7A6
  8
0
 10
4329.7392412828467059
 20
198.4216451113221069
 30
0.0
 40
0.1375867868985634
 50
280.123431125728473
 51
329.265435913242527
  0
ARC
  5
E7A7
  8
0
 10
4329.7664528489776785
 20
198.2664309135114138
 30
0.0
 40
0.0200000000669718
 50
98.7081529834180316
 51
179.999999928942799
  0
LINE
  5
E7A8
  8
0
 10
4329.76342481940992
 20
198.2862003606362009
 30
0.0
 11
4331.8724808784108973
 21
198.2862003606362009
 31
0.0
  0
LINE
  5
E7A9
  8
0
 10
4329.7464528489108488
 20
198.1991036933362125
 30
0.0
 11
4329.7464528489108488
 21
198.2664309135114138
 31
0.0
  0
ARC
  5
E7AA
  8
0
 10
4329.7264528489104123
 20
198.1991036933362125
 30
0.0
 40
0.0199999999999925
 50
270.0
 51
0.0000000000048853
  0
LINE
  5
E7AB
  8
0
 10
4330.0656528489107586
 20
200.2601036933361911
 30
0.0
 11
4331.5702528489100587
 21
200.2601036933361911
 31
0.0
  0
LINE
  5
E7AC
  8
0
 10
4330.0656528489107586
 20
200.1501036933362059
 30
0.0
 11
4331.5702528489100587
 21
200.1501036933362059
 31
0.0
  0
LINE
  5
E7AD
  8
0
 10
4330.0656528489107586
 20
200.1301036933361956
 30
0.0
 11
4331.5702528489100587
 21
200.1301036933361956
 31
0.0
  0
LINE
  5
E7AE
  8
0
 10
4330.1279528489103541
 20
200.1501036933362059
 30
0.0
 11
4330.1279528489103541
 21
200.1301036933361956
 31
0.0
  0
ARC
  5
E7AF
  8
0
 10
4330.0656528489107586
 20
200.1651036933361922
 30
0.0
 40
0.0149999999999997
 50
180.0
 51
270.0
  0
ARC
  5
E7B0
  8
0
 10
4330.0656528489107586
 20
200.1151036933362093
 30
0.0
 40
0.0149999999999961
 50
90.0
 51
180.0000000000129887
  0
ARC
  5
E7B1
  8
0
 10
4330.0656528489107586
 20
200.2451036933362047
 30
0.0
 40
0.0150000000000077
 50
90.0
 51
179.9999999999836859
  0
LINE
  5
E7B2
  8
0
 10
4330.2818522207526257
 20
200.3421036933362132
 30
0.0
 11
4331.3540534770672821
 21
200.3421036933362132
 31
0.0
  0
LINE
  5
E7B3
  8
0
 10
4330.2819214135070069
 20
200.5871036933361893
 30
0.0
 11
4331.3539842843119914
 21
200.5871036933361893
 31
0.0
  0
LINE
  5
E7B4
  8
0
 10
4330.3879528489096629
 20
200.6691036933362113
 30
0.0
 11
4331.2479528489111544
 21
200.6691036933362113
 31
0.0
  0
LINE
  5
E7B5
  8
0
 10
4330.4439528489101576
 20
200.7781036933361918
 30
0.0
 11
4331.1919528489097502
 21
200.7781036933361918
 31
0.0
  0
LINE
  5
E7B6
  8
0
 10
4330.3544528489110235
 20
200.8491036933361897
 30
0.0
 11
4331.2814528489097938
 21
200.8491036933361897
 31
0.0
  0
LINE
  5
E7B7
  8
0
 10
4330.3544528489110235
 20
201.6851036933362025
 30
0.0
 11
4331.2814528489097938
 21
201.6851036933362025
 31
0.0
  0
LINE
  5
E7B8
  8
0
 10
4329.8003624489101639
 20
201.6006036933362111
 30
0.0
 11
4330.3474230388219439
 21
201.6006036933362111
 31
0.0
  0
LINE
  5
E7B9
  8
0
 10
4331.2884826589979639
 20
201.6006036933362111
 30
0.0
 11
4333.7141528489100892
 21
201.6006036933362111
 31
0.0
  0
LINE
  5
E7BA
  8
0
 10
4329.8003624885541285
 20
200.9336036933362095
 30
0.0
 11
4330.3474230388219439
 21
200.9336036933362095
 31
0.0
  0
LINE
  5
E7BB
  8
0
 10
4331.2884826589979639
 20
200.9336036933362095
 30
0.0
 11
4333.7141528489100892
 21
200.9336036933362095
 31
0.0
  0
LINE
  5
E7BC
  8
0
 10
4329.7803624489097274
 20
201.5806036933362009
 30
0.0
 11
4329.7803624489097274
 21
200.9535564328541
 31
0.0
  0
ARC
  5
E7BD
  8
0
 10
4329.8003624489101639
 20
201.5806036933362009
 30
0.0
 40
0.0199999999999978
 50
90.0
 51
180.0000000000048885
  0
ARC
  5
E7BE
  8
0
 10
4329.8003624885541285
 20
200.9536037890451041
 30
0.0
 40
0.0200000957089006
 50
180.1356649721064116
 51
270.000000000208388
  0
LINE
  5
E7BF
  8
0
 10
4333.7341528489114353
 20
201.5806036933362009
 30
0.0
 11
4333.7341528489114353
 21
200.9536036933361913
 31
0.0
  0
ARC
  5
E7C0
  8
0
 10
4333.7141528489100892
 20
201.5806036933362009
 30
0.0
 40
0.0199999999999996
 50
0.0
 51
90.0
  0
LINE
  5
E7C1
  8
0
 10
4330.3394528489097866
 20
201.6701036933361877
 30
0.0
 11
4330.3394528489097866
 21
201.6145214966161916
 31
0.0
  0
LINE
  5
E7C2
  8
0
 10
4330.3394528489097866
 20
200.9196858900562006
 30
0.0
 11
4330.3394528489097866
 21
200.8641036933362045
 31
0.0
  0
ARC
  5
E7C3
  8
0
 10
4330.3544528489110235
 20
201.6701036933361877
 30
0.0
 40
0.0150000000000006
 50
90.0
 51
180.0
  0
ARC
  5
E7C4
  8
0
 10
4330.3544528489110235
 20
200.8641036933362045
 30
0.0
 40
0.0149999999999997
 50
179.9999999999967031
 51
270.0
  0
ARC
  5
E7C5
  8
0
 10
4330.1604503083772215
 20
201.2671036933361961
 30
0.0
 40
0.3332795778696924
 50
336.0101112077601897
 51
23.9898887922397392
  0
ARC
  5
E7C6
  8
0
 10
4329.8758801972153378
 20
201.1611382537192867
 30
0.0
 40
0.6366309091176767
 50
22.2898065038705191
 51
30.6293030503446992
  0
ARC
  5
E7C7
  8
0
 10
4329.2833281717730642
 20
200.8127874490836007
 30
0.0
 40
1.323991057669538
 50
30.5364830702752883
 51
36.9487888766408688
  0
ARC
  5
E7C8
  8
0
 10
4330.349327159114182
 20
201.6145624617759893
 30
0.0
 40
0.009874395178833
 50
180.2376993688014011
 51
216.8559688965627004
  0
ARC
  5
E7C9
  8
0
 10
4329.8758801972153378
 20
201.3730691329529918
 30
0.0
 40
0.6366309091176767
 50
329.3706969496553256
 51
337.7101934961294774
  0
ARC
  5
E7CA
  8
0
 10
4329.2833281717730642
 20
201.7214199375887915
 30
0.0
 40
1.323991057669538
 50
323.0512111233592236
 51
329.4635169297246762
  0
ARC
  5
E7CB
  8
0
 10
4330.349327159114182
 20
200.9196449248964029
 30
0.0
 40
0.0098743951788386
 50
143.1440311034463946
 51
179.7623006304202136
  0
ARC
  5
E7CC
  8
0
 10
4333.7141528489100892
 20
200.9536036933361913
 30
0.0
 40
0.019999999999996
 50
270.0
 51
0.0
  0
ARC
  5
E7CD
  8
0
 10
4330.4239528489097211
 20
200.8391036933361988
 30
0.0
 40
0.0099999999999972
 50
359.9999999999951115
 51
90.0
  0
LINE
  5
E7CE
  8
0
 10
4330.4339528489108488
 20
200.8391036933361988
 30
0.0
 11
4330.4339528489108488
 21
200.7881036933362111
 31
0.0
  0
ARC
  5
E7CF
  8
0
 10
4330.4439528489101576
 20
200.7881036933362111
 30
0.0
 40
0.0099999999999998
 50
180.0
 51
270.0
  0
ARC
  5
E7D0
  8
0
 10
4330.5044528489097502
 20
200.7681036933362009
 30
0.0
 40
0.0099999999999928
 50
359.9999999999789111
 51
90.0
  0
LINE
  5
E7D1
  8
0
 10
4330.5144528489108779
 20
200.7681036933362009
 30
0.0
 11
4330.5144528489108779
 21
200.6791036933362022
 31
0.0
  0
ARC
  5
E7D2
  8
0
 10
4330.5044528489097502
 20
200.6791036933362022
 30
0.0
 40
0.0099999999999752
 50
270.0
 51
0.0000000000667662
  0
ARC
  5
E7D3
  8
0
 10
4330.3879528489096629
 20
200.659103693336192
 30
0.0
 40
0.0100000000000007
 50
90.0
 51
180.0
  0
LINE
  5
E7D4
  8
0
 10
4330.3779528489103541
 20
200.659103693336192
 30
0.0
 11
4330.3779528489103541
 21
200.5971036933362086
 31
0.0
  0
ARC
  5
E7D5
  8
0
 10
4330.3679528489101358
 20
200.5971036933362086
 30
0.0
 40
0.0099999999999998
 50
270.0
 51
0.0
  0
ARC
  5
E7D6
  8
0
 10
4330.2819371312089061
 20
200.5684355758922095
 30
0.0
 40
0.0186681240607956
 50
90.0482404153987233
 51
110.1448043394439935
  0
ARC
  5
E7D7
  8
0
 10
4330.2823805508869555
 20
200.5671072001119057
 30
0.0
 40
0.0200679900829191
 50
110.0272005417807009
 51
179.9895024219358959
  0
ARC
  5
E7D8
  8
0
 10
4330.2824189761995513
 20
200.362120555400395
 30
0.0
 40
0.0201064221606124
 50
180.0481538751625123
 51
249.6431372921223897
  0
ARC
  5
E7D9
  8
0
 10
4330.2819208470837111
 20
200.3607780336602104
 30
0.0
 40
0.0186744664209933
 50
249.6431372921229865
 51
269.7894446984561228
  0
ARC
  5
E7DA
  8
0
 10
4330.3679528489101358
 20
200.3321036933361938
 30
0.0
 40
0.0099999999999953
 50
359.9999999999902229
 51
90.0
  0
LINE
  5
E7DB
  8
0
 10
4330.3779528489103541
 20
200.3321036933361938
 30
0.0
 11
4330.3779528489103541
 21
200.2701036933362104
 31
0.0
  0
ARC
  5
E7DC
  8
0
 10
4330.3879528489096629
 20
200.2701036933362104
 30
0.0
 40
0.0099999999999998
 50
180.0
 51
270.0
  0
LINE
  5
E7DD
  8
0
 10
4331.5007922484182927
 20
201.5984178915346092
 30
0.0
 11
4333.7143550825621787
 21
201.5984178915346092
 31
0.0
  0
LINE
  5
E7DE
  8
0
 10
4331.5080031409606818
 20
201.5914750876706876
 30
0.0
 11
4333.7141528489100892
 21
201.5914750876706876
 31
0.0
  0
LINE
  5
E7DF
  8
0
 10
4331.5004082727773493
 20
201.5586101187363113
 30
0.0
 11
4333.7141528489100892
 21
201.5586101187363113
 31
0.0
  0
LINE
  5
E7E0
  8
0
 10
4331.5064332144766013
 20
201.5371277983028904
 30
0.0
 11
4333.7141528501242647
 21
201.5371277983028904
 31
0.0
  0
LINE
  5
E7E1
  8
0
 10
4331.5045837649377063
 20
201.4744231351830877
 30
0.0
 11
4333.7164793056235794
 21
201.4744231351830877
 31
0.0
  0
LINE
  5
E7E2
  8
0
 10
4331.5070585943331025
 20
201.4416717867283921
 30
0.0
 11
4333.7141528489100892
 21
201.4416717867283921
 31
0.0
  0
LINE
  5
E7E3
  8
0
 10
4331.5252448443179674
 20
201.3586736459641031
 30
0.0
 11
4333.7233879201467062
 21
201.3586736459641031
 31
0.0
  0
LINE
  5
E7E4
  8
0
 10
4331.5252448444907714
 20
201.3196393653988139
 30
0.0
 11
4333.7141528476286112
 21
201.3196393653988139
 31
0.0
  0
ARC
  5
E7E5
  8
0
 10
4331.5374725487090473
 20
199.449578077720389
 30
0.0
 40
2.1491528540014699
 50
90.9779334397771606
 51
93.182566228425955
  0
ARC
  5
E7E6
  8
0
 10
4331.5410779958638159
 20
203.3715460181128094
 30
0.0
 40
1.7803781798909499
 50
266.0410158951240192
 51
268.9355303070774994
  0
ARC
  5
E7E7
  8
0
 10
4331.5372805608431008
 20
200.9297253142271984
 30
0.0
 40
0.6299648108979616
 50
93.3554804472080235
 51
100.900051946734294
  0
ARC
  5
E7E8
  8
0
 10
4331.5402930313875913
 20
202.1576691722401904
 30
0.0
 40
0.6214644671816344
 50
258.6658752913601802
 51
266.8767551208146074
  0
ARC
  5
E7E9
  8
0
 10
4331.5393683072534259
 20
201.0439348958526864
 30
0.0
 40
0.4318912925561384
 50
94.6196079620544452
 51
106.2992086404596961
  0
ARC
  5
E7EA
  8
0
 10
4331.5406057215732289
 20
201.8629099828750952
 30
0.0
 40
0.4225719200786519
 50
253.1557379737967892
 51
265.4466128463337782
  0
ARC
  5
E7EB
  8
0
 10
4331.5465327201109176
 20
201.7353104637174113
 30
0.0
 40
0.416215852203877
 50
252.0349630616026957
 51
267.068257186135213
  0
ARC
  5
E7EC
  8
0
 10
4331.5496988463610251
 20
200.9159934723273011
 30
0.0
 40
0.4433550883288326
 50
93.1618505005954347
 51
107.2583524485286972
  0
ARC
  5
E7ED
  8
0
 10
4333.7142539655869768
 20
201.5787504541522139
 30
0.0
 40
0.0196676973191245
 50
12.8269217562256497
 51
89.7054255344832683
  0
ARC
  5
E7EE
  8
0
 10
4333.7042076316583916
 20
201.5765240278443002
 30
0.0
 40
0.029957667013542
 50
1.651882652405507
 51
12.7131493885309208
  0
ARC
  5
E7EF
  8
0
 10
4333.7140273014310878
 20
201.5703378126353016
 30
0.0
 40
0.0211376478500985
 50
32.774511213033243
 51
89.6596885771654257
  0
ARC
  5
E7F0
  8
0
 10
4333.7184571572770437
 20
201.5731898715656882
 30
0.0
 40
0.0158690747066809
 50
8.4773749320789786
 51
32.7745112130359928
  0
ARC
  5
E7F1
  8
0
 10
4333.7136854940854391
 20
201.5373344446826138
 30
0.0
 40
0.0212808065395016
 50
15.8928825049781608
 51
88.7416072840564567
  0
ARC
  5
E7F2
  8
0
 10
4333.7133770937252848
 20
201.5088855714350871
 30
0.0
 40
0.0282528790822843
 50
42.663199422817307
 51
88.4265973630995461
  0
ARC
  5
E7F3
  8
0
 10
4333.7153160768057205
 20
201.4542455313294909
 30
0.0
 40
0.0202111058221119
 50
21.2510759895483687
 51
86.7005787713171259
  0
ARC
  5
E7F4
  8
0
 10
4333.7098732089352779
 20
201.3679033893970995
 30
0.0
 40
0.0738924337341511
 50
70.8173374563832283
 51
86.6797331016981616
  0
ARC
  5
E7F5
  8
0
 10
4333.7187703845784199
 20
201.3422765058863888
 30
0.0
 40
0.0170349005708286
 50
25.4451488818219715
 51
74.272453590839703
  0
ARC
  5
E7F6
  8
0
 10
4333.7127293898483913
 20
201.3683774494529075
 30
0.0
 40
0.0487588665713322
 50
271.6729206067694804
 51
296.0640524215978076
  0
LINE
  5
E7F7
  8
0
 10
4331.5007922484182927
 20
200.9357894951376977
 30
0.0
 11
4333.7143550825621787
 21
200.9357894951376977
 31
0.0
  0
LINE
  5
E7F8
  8
0
 10
4331.5080031409606818
 20
200.9427322990017046
 30
0.0
 11
4333.7141528489100892
 21
200.9427322990017046
 31
0.0
  0
LINE
  5
E7F9
  8
0
 10
4331.5004082727773493
 20
200.9755972679361093
 30
0.0
 11
4333.7141528489100892
 21
200.9755972679361093
 31
0.0
  0
LINE
  5
E7FA
  8
0
 10
4331.5064332144766013
 20
200.9970795883695018
 30
0.0
 11
4333.7141528501242647
 21
200.9970795883695018
 31
0.0
  0
LINE
  5
E7FB
  8
0
 10
4331.5045837649377063
 20
201.0597842514893046
 30
0.0
 11
4333.7164793056235794
 21
201.0597842514893046
 31
0.0
  0
LINE
  5
E7FC
  8
0
 10
4331.5070585943331025
 20
201.0925355999440001
 30
0.0
 11
4333.7141528489100892
 21
201.0925355999440001
 31
0.0
  0
LINE
  5
E7FD
  8
0
 10
4331.5252448443179674
 20
201.1755337407082891
 30
0.0
 11
4333.7233879201467062
 21
201.1755337407082891
 31
0.0
  0
LINE
  5
E7FE
  8
0
 10
4331.5252448444907714
 20
201.2145680212736067
 30
0.0
 11
4333.7141528476286112
 21
201.2145680212736067
 31
0.0
  0
ARC
  5
E7FF
  8
0
 10
4331.5374725487090473
 20
203.0846293089520032
 30
0.0
 40
2.1491528540014699
 50
266.8174337715740876
 51
269.0220665602228109
  0
ARC
  5
E800
  8
0
 10
4331.5410779958638159
 20
199.1626613685596112
 30
0.0
 40
1.7803781798909499
 50
91.0644696929225432
 51
93.9589841048760093
  0
ARC
  5
E801
  8
0
 10
4331.5372805608431008
 20
201.6044820724451938
 30
0.0
 40
0.6299648108979616
 50
259.0999480532656207
 51
266.6445195527920191
  0
ARC
  5
E802
  8
0
 10
4331.5402930313875913
 20
200.3765382144320881
 30
0.0
 40
0.6214644671816344
 50
93.1232448791854353
 51
101.3341247086398056
  0
ARC
  5
E803
  8
0
 10
4331.5393683072534259
 20
201.4902724908197058
 30
0.0
 40
0.4318912925561384
 50
253.7007913595402044
 51
265.3803920379456258
  0
ARC
  5
E804
  8
0
 10
4331.5406057215732289
 20
200.671297403797297
 30
0.0
 40
0.4225719200786519
 50
94.5533871536661508
 51
106.8442620262031966
  0
ARC
  5
E805
  8
0
 10
4331.5465327201109176
 20
200.7988969229550094
 30
0.0
 40
0.416215852203877
 50
92.9317428138648722
 51
107.9650369383972048
  0
ARC
  5
E806
  8
0
 10
4331.5496988463610251
 20
201.6182139143450911
 30
0.0
 40
0.4433550883288326
 50
252.7416475514712886
 51
266.8381494994044942
  0
ARC
  5
E807
  8
0
 10
4333.7142539655869768
 20
200.9554569325202067
 30
0.0
 40
0.0196676973191245
 50
270.2945744655166891
 51
347.1730782437742846
  0
ARC
  5
E808
  8
0
 10
4333.7042076316583916
 20
200.957683358828092
 30
0.0
 40
0.029957667013542
 50
347.2868506114691058
 51
358.3481173475944956
  0
ARC
  5
E809
  8
0
 10
4333.7140273014310878
 20
200.9638695740370906
 30
0.0
 40
0.0211376478500985
 50
270.3403114228344748
 51
327.225488786966821
  0
ARC
  5
E80A
  8
0
 10
4333.7184571572770437
 20
200.961017515106704
 30
0.0
 40
0.0158690747066809
 50
327.2254887869639788
 51
351.5226250679210125
  0
ARC
  5
E80B
  8
0
 10
4333.7136854940854391
 20
200.9968729419898068
 30
0.0
 40
0.0212808065395016
 50
271.2583927159435007
 51
344.1071174950217824
  0
ARC
  5
E80C
  8
0
 10
4333.7133770937252848
 20
201.0253218152373051
 30
0.0
 40
0.0282528790822843
 50
271.5734026369004255
 51
317.3368005771827143
  0
ARC
  5
E80D
  8
0
 10
4333.7153160768057205
 20
201.0799618553429013
 30
0.0
 40
0.0202111058221119
 50
273.2994212286828883
 51
338.7489240104516171
  0
ARC
  5
E80E
  8
0
 10
4333.7098732089352779
 20
201.1663039972752927
 30
0.0
 40
0.0738924337341511
 50
273.3202668983017816
 51
289.1826625436166864
  0
ARC
  5
E80F
  8
0
 10
4333.7187703845784199
 20
201.1919308807860034
 30
0.0
 40
0.0170349005708286
 50
285.7275464091603112
 51
334.5548511181794993
  0
ARC
  5
E810
  8
0
 10
4333.7127293898483913
 20
201.1658299372195131
 30
0.0
 40
0.0487588665713322
 50
63.9359475784021924
 51
88.3270793932305054
  0
LINE
  5
E811
  8
0
 10
4330.7865962933537958
 20
200.3506649111911884
 30
0.0
 11
4330.7865962933537958
 21
200.5785424754812993
 31
0.0
  0
LINE
  5
E812
  8
0
 10
4330.7467733689036322
 20
200.3503187832488948
 30
0.0
 11
4330.7467733689036322
 21
200.5788886034235077
 31
0.0
  0
LINE
  5
E813
  8
0
 10
4330.6851280676382885
 20
200.3621036927891055
 30
0.0
 11
4330.6851280676382885
 21
200.567103693883297
 31
0.0
  0
LINE
  5
E814
  8
0
 10
4330.6466612651165633
 20
200.3620440138055017
 30
0.0
 11
4330.6466612651165633
 21
200.5671633728669008
 31
0.0
  0
LINE
  5
E815
  8
0
 10
4330.5881830305406766
 20
200.362103693336195
 30
0.0
 11
4330.5881830305406766
 21
200.5671036933362075
 31
0.0
  0
LINE
  5
E816
  8
0
 10
4330.5523822907744034
 20
200.3616033491759936
 30
0.0
 11
4330.5523822907744034
 21
200.5676040374964089
 31
0.0
  0
LINE
  5
E817
  8
0
 10
4330.4990625290311073
 20
200.362103693336195
 30
0.0
 11
4330.4990625290311073
 21
200.5671036933362075
 31
0.0
  0
LINE
  5
E818
  8
0
 10
4330.4671470032708385
 20
200.3594708240194109
 30
0.0
 11
4330.4671470032708385
 21
200.5697365626529916
 31
0.0
  0
LINE
  5
E819
  8
0
 10
4330.4208014548967185
 20
200.362103693336195
 30
0.0
 11
4330.4208014548967185
 21
200.5671036933362075
 31
0.0
  0
LINE
  5
E81A
  8
0
 10
4330.3938579880968973
 20
200.362103693336195
 30
0.0
 11
4330.3938579880968973
 21
200.5671036933362927
 31
0.0
  0
LINE
  5
E81B
  8
0
 10
4330.3560648951561234
 20
200.362103693336195
 30
0.0
 11
4330.3560648951561234
 21
200.5671037295838914
 31
0.0
  0
LINE
  5
E81C
  8
0
 10
4330.3350110147621308
 20
200.362103693336195
 30
0.0
 11
4330.3350110147621308
 21
200.5671037295869894
 31
0.0
  0
LINE
  5
E81D
  8
0
 10
4330.307057375705881
 20
200.362103693336195
 30
0.0
 11
4330.307057375705881
 21
200.5671036933362075
 31
0.0
  0
LINE
  5
E81E
  8
0
 10
4330.2926100463628245
 20
200.362103693336195
 30
0.0
 11
4330.2926100463628245
 21
200.5671036933362075
 31
0.0
  0
LINE
  5
E81F
  8
0
 10
4330.2754477888447582
 20
200.362103693336195
 30
0.0
 11
4330.2754477888447582
 21
200.5671036933362075
 31
0.0
  0
LINE
  5
E820
  8
0
 10
4330.2680989970258452
 20
200.362103693336195
 30
0.0
 11
4330.2680989970258452
 21
200.5671036933362075
 31
0.0
  0
LINE
  5
E821
  8
0
 10
4330.2623125611407886
 20
200.5671108769147963
 30
0.0
 11
4330.2623125611407886
 21
200.3621036570872036
 31
0.0
  0
ARC
  5
E822
  8
0
 10
4330.2882054121173496
 20
200.362120555400395
 30
0.0
 40
0.0201064221606124
 50
180.0481538751608923
 51
264.5901048721564734
  0
ARC
  5
E823
  8
0
 10
4330.2955542039344436
 20
200.362120555400395
 30
0.0
 40
0.0201064221606124
 50
180.0481538751608923
 51
264.5901048721564734
  0
ARC
  5
E824
  8
0
 10
4330.3127164614534195
 20
200.362120555400395
 30
0.0
 40
0.0201064221606124
 50
180.0481538751608923
 51
264.5901048721564734
  0
ARC
  5
E825
  8
0
 10
4330.327163790794657
 20
200.362120555400395
 30
0.0
 40
0.0201064221606124
 50
180.0481538751608923
 51
264.5901048721564734
  0
ARC
  5
E826
  8
0
 10
4330.3551174298518163
 20
200.362120555400395
 30
0.0
 40
0.0201064221606124
 50
180.0481538751608923
 51
264.5901048721564734
  0
ARC
  5
E827
  8
0
 10
4330.3761713102458089
 20
200.362120555400395
 30
0.0
 40
0.0201064221606124
 50
180.0481538751608923
 51
264.5901048721564734
  0
ARC
  5
E828
  8
0
 10
4330.4142749256370735
 20
200.3623661695841918
 30
0.0
 40
0.0204186246422069
 50
180.736543019111906
 51
262.9096070500502833
  0
ARC
  5
E829
  8
0
 10
4330.4591943451832776
 20
200.3639383179165065
 30
0.0
 40
0.0384366995459632
 50
182.7358280303396043
 51
214.6155486948136968
  0
ARC
  5
E82A
  8
0
 10
4330.4867349330979778
 20
200.3607872591319961
 30
0.0
 40
0.0196321164508832
 50
183.8448638568762021
 51
252.1166590450920921
  0
ARC
  5
E82B
  8
0
 10
4330.5619356121724195
 20
200.3657475649903006
 30
0.0
 40
0.0629785867132675
 50
183.3169230984370017
 51
202.0507160976301009
  0
ARC
  5
E82C
  8
0
 10
4330.5730253170404467
 20
200.3618535212561085
 30
0.0
 40
0.0206445421240691
 50
180.6943314650496006
 51
253.069948719290494
  0
ARC
  5
E82D
  8
0
 10
4330.7117150587428114
 20
200.3683294861899924
 30
0.0
 40
0.123688813109454
 50
182.8851635146814942
 51
192.2413675208943005
  0
ARC
  5
E82E
  8
0
 10
4330.6670684908303883
 20
200.3620738558207108
 30
0.0
 40
0.0204072475323024
 50
180.0837850441556043
 51
258.1202692173263245
  0
LINE
  5
E82F
  8
0
 10
4330.6851280676091847
 20
200.362103693336195
 30
0.0
 11
4330.6861266064752272
 21
200.3421036933362132
 31
0.0
  0
ARC
  5
E830
  8
0
 10
4330.7614168246782356
 20
200.3562112382851979
 30
0.0
 40
0.0157845438116747
 50
201.9196132881421875
 51
243.349201306180106
  0
ARC
  5
E831
  8
0
 10
4330.7745248201172217
 20
200.3527727595838996
 30
0.0
 40
0.0122541213874428
 50
299.4655912738302845
 51
350.0952141292918895
  0
ARC
  5
E832
  8
0
 10
4330.2819208470837111
 20
200.568429353012192
 30
0.0
 40
0.0186744664209933
 50
90.2105553015438772
 51
110.3568627078768998
  0
ARC
  5
E833
  8
0
 10
4330.3679528489101358
 20
200.5971036933362086
 30
0.0
 40
0.0099999999999953
 50
270.0
 51
0.0000000000097707
  0
ARC
  5
E834
  8
0
 10
4330.2882054121319015
 20
200.5670868312415109
 30
0.0
 40
0.0201064221923761
 50
95.4098951628089651
 51
179.9519493341366001
  0
ARC
  5
E835
  8
0
 10
4330.2955542039344436
 20
200.5670868312718937
 30
0.0
 40
0.0201064221606122
 50
95.4098951278433276
 51
179.9519494208643096
  0
ARC
  5
E836
  8
0
 10
4330.3127164614534195
 20
200.5670868312718937
 30
0.0
 40
0.0201064221606124
 50
95.4098951278434839
 51
179.9519494208643096
  0
ARC
  5
E837
  8
0
 10
4330.327163790794657
 20
200.5670868312718937
 30
0.0
 40
0.0201064221606116
 50
95.4098951278434839
 51
179.9519494208676065
  0
ARC
  5
E838
  8
0
 10
4330.3551174298800106
 20
200.5670868312157893
 30
0.0
 40
0.0201064222191325
 50
95.409895192278384
 51
179.9518459650381885
  0
ARC
  5
E839
  8
0
 10
4330.3761713102730937
 20
200.5670868312157893
 30
0.0
 40
0.0201064222191308
 50
95.409895192278384
 51
179.9518459650431055
  0
ARC
  5
E83A
  8
0
 10
4330.4142749256370735
 20
200.5668412170882107
 30
0.0
 40
0.0204186246422096
 50
97.0903929499496456
 51
179.2634569808799085
  0
ARC
  5
E83B
  8
0
 10
4330.4591943451832776
 20
200.5652690687558959
 30
0.0
 40
0.0384366995459632
 50
145.3844513051863032
 51
177.2641719696603104
  0
ARC
  5
E83C
  8
0
 10
4330.4867349330979778
 20
200.5684201275404064
 30
0.0
 40
0.0196321164508832
 50
107.8833409549089026
 51
176.1551361431253042
  0
ARC
  5
E83D
  8
0
 10
4330.5619356121724195
 20
200.5634598216821018
 30
0.0
 40
0.0629785867132658
 50
157.9492839023668012
 51
176.6830769015597014
  0
ARC
  5
E83E
  8
0
 10
4330.5730253170404467
 20
200.567353865416294
 30
0.0
 40
0.0206445421240691
 50
106.9300512807094066
 51
179.3056685349503994
  0
ARC
  5
E83F
  8
0
 10
4330.7117150587428114
 20
200.56087790048241
 30
0.0
 40
0.123688813109454
 50
167.7586324791056995
 51
177.1148364853185058
  0
ARC
  5
E840
  8
0
 10
4330.6670684908303883
 20
200.5671335308516916
 30
0.0
 40
0.0204072475323024
 50
101.8797307826736045
 51
179.9162149558443105
  0
LINE
  5
E841
  8
0
 10
4330.6851280676091847
 20
200.5671036933362075
 30
0.0
 11
4330.6861266064752272
 21
200.5871036933361893
 31
0.0
  0
ARC
  5
E842
  8
0
 10
4330.7614168246782356
 20
200.5729961483872046
 30
0.0
 40
0.0157845438116747
 50
116.650798693819894
 51
158.0803867118576989
  0
ARC
  5
E843
  8
0
 10
4330.7745248201172217
 20
200.5764346270885028
 30
0.0
 40
0.0122541213874428
 50
9.9047858707080323
 51
60.5344087261696728
  0
LINE
  5
E844
  8
0
 10
4332.0794528489095683
 20
198.159103693336192
 30
0.0
 11
4332.0794528489095683
 21
197.9961036933362095
 31
0.0
  0
ARC
  5
E845
  8
0
 10
4332.0594528489100412
 20
198.159103693336192
 30
0.0
 40
0.0199999999999996
 50
359.9999999999984084
 51
90.0
  0
ARC
  5
E846
  8
0
 10
4332.0694528489102595
 20
197.9961036933362095
 30
0.0
 40
0.0100000000000007
 50
270.0
 51
359.9999999999951115
  0
LINE
  5
E847
  8
0
 10
4331.5852528489103861
 20
198.501103693336205
 30
0.0
 11
4331.5852528489103861
 21
200.1151036933362093
 31
0.0
  0
LINE
  5
E848
  8
0
 10
4331.5852528489103861
 20
200.1651036933361922
 30
0.0
 11
4331.5852528489103861
 21
200.2451036933362047
 31
0.0
  0
ARC
  5
E849
  8
0
 10
4331.6052528489108226
 20
198.501103693336205
 30
0.0
 40
0.0199999999999676
 50
179.9999999999560032
 51
270.0
  0
ARC
  5
E84A
  8
0
 10
4331.7226224849091523
 20
198.4611036933559092
 30
0.0
 40
0.0199999999803207
 50
4.6476682256763553
 51
90.0000000220426273
  0
ARC
  5
E84B
  8
0
 10
4331.9905676528960612
 20
198.4810673798099003
 30
0.0
 40
0.2486883440016033
 50
184.2299482725719031
 51
211.4455092355028967
  0
ARC
  5
E84C
  8
0
 10
4331.8966644149732019
 20
198.4216451113221069
 30
0.0
 40
0.1375867868985634
 50
210.7345640867573877
 51
259.876568874271527
  0
ARC
  5
E84D
  8
0
 10
4331.8694528488431388
 20
198.2664309135114138
 30
0.0
 40
0.0200000000669718
 50
0.0000000710571538
 51
81.2918470165819969
  0
LINE
  5
E84E
  8
0
 10
4331.8894528489108779
 20
198.1991036933362125
 30
0.0
 11
4331.8894528489108779
 21
198.2664309135114138
 31
0.0
  0
ARC
  5
E84F
  8
0
 10
4331.909452848910405
 20
198.1991036933362125
 30
0.0
 40
0.0199999999999925
 50
179.9999999999951115
 51
270.0
  0
LINE
  5
E850
  8
0
 10
4331.5079528489113727
 20
200.1501036933362059
 30
0.0
 11
4331.5079528489113727
 21
200.1301036933361956
 31
0.0
  0
ARC
  5
E851
  8
0
 10
4331.5702528489100587
 20
200.1651036933361922
 30
0.0
 40
0.0149999999999997
 50
270.0
 51
0.0
  0
ARC
  5
E852
  8
0
 10
4331.5702528489100587
 20
200.1151036933362093
 30
0.0
 40
0.0149999999999961
 50
359.9999999999869829
 51
90.0
  0
ARC
  5
E853
  8
0
 10
4331.5702528489100587
 20
200.2451036933362047
 30
0.0
 40
0.0150000000000077
 50
0.0000000000162844
 51
90.0
  0
LINE
  5
E854
  8
0
 10
4331.2964528489101212
 20
201.6701036933361877
 30
0.0
 11
4331.2964528489101212
 21
201.6145214966161916
 31
0.0
  0
LINE
  5
E855
  8
0
 10
4331.2964528489101212
 20
200.9196858900562006
 30
0.0
 11
4331.2964528489101212
 21
200.8641036933362045
 31
0.0
  0
ARC
  5
E856
  8
0
 10
4331.2814528489097938
 20
201.6701036933361877
 30
0.0
 40
0.0150000000000006
 50
0.0
 51
90.0
  0
ARC
  5
E857
  8
0
 10
4331.2814528489097938
 20
200.8641036933362045
 30
0.0
 40
0.0149999999999997
 50
270.0
 51
0.0000000000032569
  0
ARC
  5
E858
  8
0
 10
4331.4754553894426863
 20
201.2671036933361961
 30
0.0
 40
0.3332795778696924
 50
156.0101112077601897
 51
203.9898887922396966
  0
ARC
  5
E859
  8
0
 10
4331.760025500606389
 20
201.1611382537192867
 30
0.0
 40
0.6366309091176767
 50
149.3706969496552972
 51
157.7101934961295058
  0
ARC
  5
E85A
  8
0
 10
4332.3525775260468436
 20
200.8127874490836007
 30
0.0
 40
1.323991057669538
 50
143.0512111233591099
 51
149.4635169297247046
  0
ARC
  5
E85B
  8
0
 10
4331.2865785387066353
 20
201.6145624617759893
 30
0.0
 40
0.0098743951788315
 50
323.1440311034307911
 51
359.7623006311985137
  0
ARC
  5
E85C
  8
0
 10
4331.760025500606389
 20
201.3730691329529918
 30
0.0
 40
0.6366309091176767
 50
202.2898065038704942
 51
210.6293030503447028
  0
ARC
  5
E85D
  8
0
 10
4332.3525775260468436
 20
201.7214199375887915
 30
0.0
 40
1.323991057669538
 50
210.5364830702752954
 51
216.9487888766408901
  0
ARC
  5
E85E
  8
0
 10
4331.2865785387066353
 20
200.9196449248964029
 30
0.0
 40
0.0098743951788386
 50
0.2376993695798333
 51
36.8559688965535628
  0
ARC
  5
E85F
  8
0
 10
4331.2119528489101867
 20
200.8391036933361988
 30
0.0
 40
0.0099999999999972
 50
90.0
 51
180.0000000000048885
  0
LINE
  5
E860
  8
0
 10
4331.2019528489099685
 20
200.8391036933361988
 30
0.0
 11
4331.2019528489099685
 21
200.7881036933362111
 31
0.0
  0
ARC
  5
E861
  8
0
 10
4331.1919528489097502
 20
200.7881036933362111
 30
0.0
 40
0.0099999999999998
 50
270.0
 51
0.0
  0
ARC
  5
E862
  8
0
 10
4331.1314528489101576
 20
200.7681036933362009
 30
0.0
 40
0.0099999999999928
 50
90.0
 51
180.0000000000194973
  0
LINE
  5
E863
  8
0
 10
4331.1214528489099393
 20
200.7681036933362009
 30
0.0
 11
4331.1214528489099393
 21
200.6791036933362022
 31
0.0
  0
ARC
  5
E864
  8
0
 10
4331.1314528489101576
 20
200.6791036933362022
 30
0.0
 40
0.0099999999999752
 50
179.999999999933209
 51
270.0
  0
ARC
  5
E865
  8
0
 10
4331.2479528489111544
 20
200.659103693336192
 30
0.0
 40
0.0100000000000007
 50
0.0
 51
90.0
  0
LINE
  5
E866
  8
0
 10
4331.2579528489095537
 20
200.659103693336192
 30
0.0
 11
4331.2579528489095537
 21
200.5971036933362086
 31
0.0
  0
ARC
  5
E867
  8
0
 10
4331.267952848909772
 20
200.5971036933362086
 30
0.0
 40
0.0099999999999998
 50
180.0
 51
270.0
  0
ARC
  5
E868
  8
0
 10
4331.3539685666119112
 20
200.5684355758922095
 30
0.0
 40
0.0186681240607956
 50
69.8551956605560207
 51
89.9517595846012767
  0
ARC
  5
E869
  8
0
 10
4331.3535251469329523
 20
200.5671072001119057
 30
0.0
 40
0.0200679900829191
 50
0.0104975780640987
 51
69.9727994582192849
  0
ARC
  5
E86A
  8
0
 10
4331.3534867216203565
 20
200.362120555400395
 30
0.0
 40
0.0201064221606124
 50
290.3568627078776103
 51
359.9518461248374024
  0
ARC
  5
E86B
  8
0
 10
4331.3539848507371062
 20
200.3607780336602104
 30
0.0
 40
0.0186744664209933
 50
270.2105553015438772
 51
290.356862707876985
  0
ARC
  5
E86C
  8
0
 10
4331.267952848909772
 20
200.3321036933361938
 30
0.0
 40
0.0099999999999953
 50
90.0
 51
180.0000000000098055
  0
LINE
  5
E86D
  8
0
 10
4331.2579528489095537
 20
200.3321036933361938
 30
0.0
 11
4331.2579528489095537
 21
200.2701036933362104
 31
0.0
  0
ARC
  5
E86E
  8
0
 10
4331.2479528489111544
 20
200.2701036933362104
 30
0.0
 40
0.0099999999999998
 50
270.0
 51
0.0
  0
LINE
  5
E86F
  8
0
 10
4330.849309404466112
 20
200.3506649111911884
 30
0.0
 11
4330.849309404466112
 21
200.5785424754812993
 31
0.0
  0
LINE
  5
E870
  8
0
 10
4330.8891323289162756
 20
200.3503187832488948
 30
0.0
 11
4330.8891323289162756
 21
200.5788886034235077
 31
0.0
  0
LINE
  5
E871
  8
0
 10
4330.9507776301834383
 20
200.3621036927891055
 30
0.0
 11
4330.9507776301834383
 21
200.567103693883297
 31
0.0
  0
LINE
  5
E872
  8
0
 10
4330.989244432704254
 20
200.3620440138055017
 30
0.0
 11
4330.989244432704254
 21
200.5671633728669008
 31
0.0
  0
LINE
  5
E873
  8
0
 10
4331.0477226672801407
 20
200.362103693336195
 30
0.0
 11
4331.0477226672801407
 21
200.5671036933362075
 31
0.0
  0
LINE
  5
E874
  8
0
 10
4331.0835234070473234
 20
200.3616033491759936
 30
0.0
 11
4331.0835234070473234
 21
200.5676040374964089
 31
0.0
  0
LINE
  5
E875
  8
0
 10
4331.1368431687906195
 20
200.362103693336195
 30
0.0
 11
4331.1368431687906195
 21
200.5671036933362075
 31
0.0
  0
LINE
  5
E876
  8
0
 10
4331.1687586945481598
 20
200.3594708240194109
 30
0.0
 11
4331.1687586945481598
 21
200.5697365626529916
 31
0.0
  0
LINE
  5
E877
  8
0
 10
4331.2151042429240988
 20
200.362103693336195
 30
0.0
 11
4331.2151042429240988
 21
200.5671036933362075
 31
0.0
  0
LINE
  5
E878
  8
0
 10
4331.24204770972392
 20
200.362103693336195
 30
0.0
 11
4331.24204770972392
 21
200.5671036933362927
 31
0.0
  0
LINE
  5
E879
  8
0
 10
4331.2798408026656034
 20
200.362103693336195
 30
0.0
 11
4331.2798408026656034
 21
200.5671037295838914
 31
0.0
  0
LINE
  5
E87A
  8
0
 10
4331.300894683057777
 20
200.362103693336195
 30
0.0
 11
4331.300894683057777
 21
200.5671037295869894
 31
0.0
  0
LINE
  5
E87B
  8
0
 10
4331.3288483221140268
 20
200.362103693336195
 30
0.0
 11
4331.3288483221140268
 21
200.5671036933362075
 31
0.0
  0
LINE
  5
E87C
  8
0
 10
4331.3432956514570833
 20
200.362103693336195
 30
0.0
 11
4331.3432956514570833
 21
200.5671036933362075
 31
0.0
  0
LINE
  5
E87D
  8
0
 10
4331.3604579089760591
 20
200.362103693336195
 30
0.0
 11
4331.3604579089760591
 21
200.5671036933362075
 31
0.0
  0
LINE
  5
E87E
  8
0
 10
4331.3678067007940626
 20
200.362103693336195
 30
0.0
 11
4331.3678067007940626
 21
200.5671036933362075
 31
0.0
  0
LINE
  5
E87F
  8
0
 10
4331.3735931366800287
 20
200.5671108769147963
 30
0.0
 11
4331.3735931366800287
 21
200.3621036570872036
 31
0.0
  0
ARC
  5
E880
  8
0
 10
4331.3477002857043772
 20
200.362120555400395
 30
0.0
 40
0.0201064221606124
 50
275.4098951278435266
 51
359.9518461248374024
  0
ARC
  5
E881
  8
0
 10
4331.3403514938863736
 20
200.362120555400395
 30
0.0
 40
0.0201064221606124
 50
275.4098951278435266
 51
359.9518461248374024
  0
ARC
  5
E882
  8
0
 10
4331.3231892363673978
 20
200.362120555400395
 30
0.0
 40
0.0201064221606124
 50
275.4098951278435266
 51
359.9518461248374024
  0
ARC
  5
E883
  8
0
 10
4331.3087419070252508
 20
200.362120555400395
 30
0.0
 40
0.0201064221606124
 50
275.4098951278435266
 51
359.9518461248374024
  0
ARC
  5
E884
  8
0
 10
4331.280788267969001
 20
200.362120555400395
 30
0.0
 40
0.0201064221606124
 50
275.4098951278435266
 51
359.9518461248374024
  0
ARC
  5
E885
  8
0
 10
4331.2597343875740989
 20
200.362120555400395
 30
0.0
 40
0.0201064221606124
 50
275.4098951278435266
 51
359.9518461248374024
  0
ARC
  5
E886
  8
0
 10
4331.2216307721837438
 20
200.3623661695841918
 30
0.0
 40
0.0204186246422069
 50
277.0903929499497167
 51
359.2634569808881224
  0
ARC
  5
E887
  8
0
 10
4331.1767113526357207
 20
200.3639383179165065
 30
0.0
 40
0.0384366995459632
 50
325.3844513051863032
 51
357.2641719696603104
  0
ARC
  5
E888
  8
0
 10
4331.14917076472193
 20
200.3607872591319961
 30
0.0
 40
0.0196321164508832
 50
287.8833409549080216
 51
356.1551361431236842
  0
ARC
  5
E889
  8
0
 10
4331.0739700856493073
 20
200.3657475649903006
 30
0.0
 40
0.0629785867132675
 50
337.9492839023698139
 51
356.6830769015630267
  0
ARC
  5
E88A
  8
0
 10
4331.0628803807803706
 20
200.3618535212561085
 30
0.0
 40
0.0206445421240691
 50
286.930051280709506
 51
359.3056685349504278
  0
ARC
  5
E88B
  8
0
 10
4330.9241906390770964
 20
200.3683294861899924
 30
0.0
 40
0.123688813109454
 50
347.7586324791056995
 51
357.1148364853185058
  0
ARC
  5
E88C
  8
0
 10
4330.9688372069913385
 20
200.3620738558207108
 30
0.0
 40
0.0204072475323024
 50
281.8797307826736755
 51
359.9162149558443957
  0
LINE
  5
E88D
  8
0
 10
4330.9507776302098137
 20
200.362103693336195
 30
0.0
 11
4330.9497790913446806
 21
200.3421036933362132
 31
0.0
  0
ARC
  5
E88E
  8
0
 10
4330.8744888731416722
 20
200.3562112382851979
 30
0.0
 40
0.0157845438116747
 50
296.6507986938199224
 51
338.0803867118577273
  0
ARC
  5
E88F
  8
0
 10
4330.8613808777035956
 20
200.3527727595838996
 30
0.0
 40
0.0122541213874428
 50
189.9047858707079968
 51
240.5344087261696018
  0
ARC
  5
E890
  8
0
 10
4331.267952848909772
 20
200.5971036933362086
 30
0.0
 40
0.0099999999999953
 50
179.9999999999901945
 51
270.0
  0
ARC
  5
E891
  8
0
 10
4331.3477002856889158
 20
200.5670868312415109
 30
0.0
 40
0.0201064221923761
 50
0.0480506658633768
 51
84.5901048371910349
  0
ARC
  5
E892
  8
0
 10
4331.3403514938863736
 20
200.5670868312718937
 30
0.0
 40
0.0201064221606122
 50
0.0480505791356495
 51
84.5901048721566582
  0
ARC
  5
E893
  8
0
 10
4331.3231892363673978
 20
200.5670868312718937
 30
0.0
 40
0.0201064221606124
 50
0.0480505791356495
 51
84.5901048721565161
  0
ARC
  5
E894
  8
0
 10
4331.3087419070252508
 20
200.5670868312718937
 30
0.0
 40
0.0201064221606116
 50
0.0480505791323926
 51
84.5901048721565161
  0
ARC
  5
E895
  8
0
 10
4331.2807882679408067
 20
200.5670868312157893
 30
0.0
 40
0.0201064222191325
 50
0.0481540349618133
 51
84.5901048077216018
  0
ARC
  5
E896
  8
0
 10
4331.2597343875459046
 20
200.5670868312157893
 30
0.0
 40
0.0201064222191308
 50
0.0481540349569279
 51
84.5901048077216018
  0
ARC
  5
E897
  8
0
 10
4331.2216307721837438
 20
200.5668412170882107
 30
0.0
 40
0.0204186246422096
 50
0.7365430191200704
 51
82.9096070500503686
  0
ARC
  5
E898
  8
0
 10
4331.1767113526357207
 20
200.5652690687558959
 30
0.0
 40
0.0384366995459632
 50
2.7358280303396758
 51
34.6155486948136613
  0
ARC
  5
E899
  8
0
 10
4331.14917076472193
 20
200.5684201275404064
 30
0.0
 40
0.0196321164508832
 50
3.844863856874646
 51
72.1166590450910832
  0
ARC
  5
E89A
  8
0
 10
4331.0739700856493073
 20
200.5634598216821018
 30
0.0
 40
0.0629785867132658
 50
3.3169230984402911
 51
22.0507160976331988
  0
ARC
  5
E89B
  8
0
 10
4331.0628803807803706
 20
200.567353865416294
 30
0.0
 40
0.0206445421240691
 50
0.6943314650495664
 51
73.069948719290565
  0
ARC
  5
E89C
  8
0
 10
4330.9241906390770964
 20
200.56087790048241
 30
0.0
 40
0.123688813109454
 50
2.8851635146814729
 51
12.2413675208943005
  0
ARC
  5
E89D
  8
0
 10
4330.9688372069913385
 20
200.5671335308516916
 30
0.0
 40
0.0204072475323024
 50
0.0837850441540086
 51
78.1202692173263245
  0
LINE
  5
E89E
  8
0
 10
4330.9507776302098137
 20
200.5671036933362075
 30
0.0
 11
4330.9497790913446806
 21
200.5871036933361893
 31
0.0
  0
ARC
  5
E89F
  8
0
 10
4330.8744888731416722
 20
200.5729961483872046
 30
0.0
 40
0.0157845438116747
 50
21.9196132881422692
 51
63.3492013061800989
  0
ARC
  5
E8A0
  8
0
 10
4330.8613808777035956
 20
200.5764346270885028
 30
0.0
 40
0.0122541213874428
 50
119.4655912738302987
 51
170.0952141292920032
  0
ENDSEC
  0
EOF
