  0
SECTION
  2
HEADER
  9
$ACADVER
  1
AC1009
  9
$INSBASE
 10
4332.2639520582306432
 20
207.5497279665744088
 30
0.0
  9
$EXTMIN
 10
4328.9856882448693796
 20
204.4180743553501998
 30
-0.0015258207003583
  9
$EXTMAX
 10
4335.5894781178194535
 20
210.6900433250577009
 30
0.0000000349246037
  9
$LIMMIN
 10
0.0
 20
0.0
  9
$LIMMAX
 10
11.6929133858000007
 20
8.2677165353999982
  9
$ORTHOMODE
 70
     0
  9
$REGENMODE
 70
     1
  9
$FILLMODE
 70
     1
  9
$QTEXTMODE
 70
     0
  9
$MIRRTEXT
 70
     0
  9
$DRAGMODE
 70
     2
  9
$LTSCALE
 40
0.6431102362
  9
$OSMODE
 70
     7
  9
$ATTMODE
 70
     1
  9
$TEXTSIZE
 40
0.2
  9
$TRACEWID
 40
0.05
  9
$TEXTSTYLE
  7
STANDARD
  9
$CLAYER
  8
0
  9
$CELTYPE
  6
BYLAYER
  9
$CECOLOR
 62
   256
  9
$DIMSCALE
 40
1.0
  9
$DIMASZ
 40
0.1875
  9
$DIMEXO
 40
0.0625
  9
$DIMDLI
 40
0.4443307087
  9
$DIMRND
 40
0.0
  9
$DIMDLE
 40
0.0
  9
$DIMEXE
 40
0.125
  9
$DIMTP
 40
0.01
  9
$DIMTM
 40
0.01
  9
$DIMTXT
 40
2.0
  9
$DIMCEN
 40
0.1052362205
  9
$DIMTSZ
 40
0.0
  9
$DIMTOL
 70
     1
  9
$DIMLIM
 70
     0
  9
$DIMTIH
 70
     1
  9
$DIMTOH
 70
     1
  9
$DIMSE1
 70
     0
  9
$DIMSE2
 70
     0
  9
$DIMTAD
 70
     0
  9
$DIMZIN
 70
     0
  9
$DIMBLK
  1

  9
$DIMASO
 70
     1
  9
$DIMSHO
 70
     1
  9
$DIMPOST
  1
\X
  9
$DIMAPOST
  1

  9
$DIMALT
 70
     1
  9
$DIMALTD
 70
     2
  9
$DIMALTF
 40
25.3999999999999986
  9
$DIMLFAC
 40
1.0
  9
$DIMTOFL
 70
     0
  9
$DIMTVP
 40
0.0
  9
$DIMTIX
 70
     0
  9
$DIMSOXD
 70
     0
  9
$DIMSAH
 70
     0
  9
$DIMBLK1
  1

  9
$DIMBLK2
  1

  9
$DIMSTYLE
  2
STANDARD
  9
$DIMCLRD
 70
     0
  9
$DIMCLRE
 70
     0
  9
$DIMCLRT
 70
     0
  9
$DIMTFAC
 40
1.0
  9
$DIMGAP
 40
0.09
  9
$LUNITS
 70
     2
  9
$LUPREC
 70
     4
  9
$SKETCHINC
 40
0.1
  9
$FILLETRAD
 40
0.0
  9
$AUNITS
 70
     0
  9
$AUPREC
 70
     0
  9
$MENU
  1
.
  9
$ELEVATION
 40
0.0
  9
$PELEVATION
 40
0.0
  9
$THICKNESS
 40
0.0
  9
$LIMCHECK
 70
     0
  9
$BLIPMODE
 70
     0
  9
$CHAMFERA
 40
0.0
  9
$CHAMFERB
 40
0.0
  9
$SKPOLY
 70
     0
  9
$TDCREATE
 40
2458060.468368056230247
  9
$TDUPDATE
 40
2459579.6531597222201526
  9
$TDINDWG
 40
0.4523450231
  9
$TDUSRTIMER
 40
0.4523450231
  9
$USRTIMER
 70
     1
  9
$ANGBASE
 50
0.0
  9
$ANGDIR
 70
     0
  9
$PDMODE
 70
     0
  9
$PDSIZE
 40
0.3125
  9
$PLINEWID
 40
0.0
  9
$COORDS
 70
     1
  9
$SPLFRAME
 70
     0
  9
$SPLINETYPE
 70
     6
  9
$SPLINESEGS
 70
     8
  9
$ATTDIA
 70
     1
  9
$ATTREQ
 70
     1
  9
$HANDLING
 70
     1
  9
$HANDSEED
  5
F518
  9
$SURFTAB1
 70
     6
  9
$SURFTAB2
 70
     6
  9
$SURFTYPE
 70
     6
  9
$SURFU
 70
     6
  9
$SURFV
 70
     6
  9
$UCSNAME
  2

  9
$UCSORG
 10
0.0
 20
0.0
 30
0.0
  9
$UCSXDIR
 10
1.0
 20
0.0
 30
0.0
  9
$UCSYDIR
 10
0.0
 20
1.0
 30
0.0
  9
$PUCSNAME
  2

  9
$PUCSORG
 10
0.0
 20
0.0
 30
0.0
  9
$PUCSXDIR
 10
1.0
 20
0.0
 30
0.0
  9
$PUCSYDIR
 10
0.0
 20
1.0
 30
0.0
  9
$USERI1
 70
     0
  9
$USERI2
 70
     0
  9
$USERI3
 70
     0
  9
$USERI4
 70
     0
  9
$USERI5
 70
     0
  9
$USERR1
 40
0.0
  9
$USERR2
 40
0.0
  9
$USERR3
 40
0.0
  9
$USERR4
 40
0.0
  9
$USERR5
 40
0.0
  9
$WORLDVIEW
 70
     1
  9
$SHADEDGE
 70
     3
  9
$SHADEDIF
 70
    70
  9
$TILEMODE
 70
     1
  9
$MAXACTVP
 70
    64
  9
$PLIMCHECK
 70
     0
  9
$PEXTMIN
 10
1.0000000000000000E+20
 20
1.0000000000000000E+20
 30
1.0000000000000000E+20
  9
$PEXTMAX
 10
-1.0000000000000000E+20
 20
-1.0000000000000000E+20
 30
-1.0000000000000000E+20
  9
$PLIMMIN
 10
0.0
 20
0.0
  9
$PLIMMAX
 10
12.0
 20
9.0
  9
$UNITMODE
 70
     0
  9
$VISRETAIN
 70
     1
  9
$PLINEGEN
 70
     0
  9
$PSLTSCALE
 70
     1
  0
ENDSEC
  0
SECTION
  2
TABLES
  0
TABLE
  2
VPORT
 70
     1
  0
VPORT
  2
*ACTIVE
 70
     0
 10
0.0
 20
0.0
 11
1.0
 21
1.0
 12
528.7435157985319165
 22
81.5587966434540164
 13
0.0
 23
0.0
 14
1.0
 24
1.0
 15
0.0
 25
0.0
 16
0.0
 26
0.0
 36
17.1152628219792007
 17
3803.5440673828129547
 27
125.9952621967499056
 37
0.0
 40
6.3168756687745988
 41
2.2831541218637992
 42
50.0
 43
0.0
 44
0.0
 50
0.0
 51
0.0
 71
     0
 72
   100
 73
     1
 74
     1
 75
     0
 76
     0
 77
     0
 78
     0
  0
ENDTAB
  0
TABLE
  2
LTYPE
 70
     3
  0
LTYPE
  2
CONTINUOUS
 70
     0
  3
Solid line
 72
    65
 73
     0
 40
0.0
  0
LTYPE
  2
PHANTOM2
 70
     0
  3
___ _ _ ___ _ _ ___ _ _ ___ _ _
 72
    65
 73
     6
 40
1.25
 49
0.625
 49
-0.125
 49
0.125
 49
-0.125
 49
0.125
 49
-0.125
  0
ENDTAB
  0
TABLE
  2
LAYER
 70
     2
  0
LAYER
  2
0
 70
     0
 62
   255
  6
CONTINUOUS
  0
LAYER
  2
DEFPOINTS
 70
     0
 62
     7
  6
CONTINUOUS
  0
ENDTAB
  0
TABLE
  2
STYLE
 70
     1
  0
STYLE
  2
STANDARD
 70
     0
 40
0.0
 41
0.8
 50
0.0
 71
     0
 42
0.2
  3
txt
  4

  0
ENDTAB
  0
TABLE
  2
VIEW
 70
     0
  0
ENDTAB
  0
TABLE
  2
UCS
 70
     0
  0
ENDTAB
  0
TABLE
  2
APPID
 70
     9
  0
APPID
  2
ACAD
 70
     0
  0
APPID
  2
ACAD_MLEADERVER
 70
     0
  0
APPID
  2
ACAD_EXEMPT_FROM_CAD_STANDARDS
 70
     0
  0
APPID
  2
ACAD_NAV_VCDISPLAY
 70
     0
  0
APPID
  2
ACAECLAYERSTANDARD
 70
     0
  0
APPID
  2
ACCMTRANSPARENCY
 70
     0
  0
APPID
  2
ACAD_DSTYLE_DIMJAG
 70
     0
  0
APPID
  2
ACAD_DSTYLE_DIMTALN
 70
     0
  0
APPID
  2
ACDBATTR
 70
     0
  0
ENDTAB
  0
TABLE
  2
DIMSTYLE
 70
     2
  0
DIMSTYLE
  2
STANDARD
 70
     0
  3

  4

  5

  6

  7

 40
1.0
 41
0.1875
 42
0.0625
 43
0.38
 44
0.125
 45
0.0
 46
0.0
 47
0.01
 48
0.01
140
0.15625
141
0.09
142
0.0
143
25.3999999999999986
144
1.0
145
0.0
146
1.0
147
0.09
 71
     1
 72
     0
 73
     1
 74
     1
 75
     0
 76
     0
 77
     0
 78
     4
170
     0
171
     2
172
     0
173
     0
174
     0
175
     0
176
     0
177
     0
178
     0
  0
ENDTAB
  0
ENDSEC
  0
SECTION
  2
BLOCKS
  0
BLOCK
  8
0
  2
$MODEL_SPACE
 70
     0
 10
0.0
 20
0.0
 30
0.0
  3
$MODEL_SPACE
  1

  0
ENDBLK
  5
21
  8
0
  0
BLOCK
 67
     1
  8
0
  2
$PAPER_SPACE
 70
     0
 10
0.0
 20
0.0
 30
0.0
  3
$PAPER_SPACE
  1

  0
ENDBLK
  5
1D
 67
     1
  8
0
  0
ENDSEC
  0
SECTION
  2
ENTITIES
  0
ATTDEF
  5
3930
  8
DEFPOINTS
 10
4332.2639770031473745
 20
207.5530950452661898
 30
0.0
 40
0.001
  1
P21375-LV
  3

  2
MODELNUMBER
 70
     0
1001
ACDBATTR
1070
     0
1070
     1
  0
ATTDEF
  5
3931
  8
DEFPOINTS
 10
4332.2639770031473745
 20
207.5514283785996099
 30
0.0
 40
0.001
  1
CENTRAL PARK WEST
  3

  2
TRADENAME
 70
     0
1001
ACDBATTR
1070
     0
1070
     1
  0
ATTDEF
  5
3932
  8
DEFPOINTS
 10
4332.2639770031473745
 20
207.5497617119328879
 30
0.0
 40
0.001
  1
VALVE TRIM
  3

  2
PRODUCT
 70
     0
1001
ACDBATTR
1070
     0
1070
     1
  0
ARC
  5
F220
  8
0
 10
4332.2639520582306432
 20
207.5497279665752046
 30
0.0
 40
3.1236035948008278
 50
268.5324118519969829
 51
271.4675881480030171
  0
LINE
  5
F221
  8
0
 10
4332.1839520582343539
 20
204.4271489976052862
 30
0.0
 11
4332.1839520582343539
 21
204.4257521344015061
 31
0.0
  0
LINE
  5
F222
  8
0
 10
4332.3439520582296609
 20
204.4271489976052862
 30
0.0
 11
4332.3439520582296609
 21
204.4257521344015061
 31
0.0
  0
CIRCLE
  5
F3E4
  8
0
 10
4332.2639520582306432
 20
207.5497279665744088
 30
0.0
 40
0.3885000000000005
  0
ARC
  5
F3E5
  8
0
 10
4332.2639520582306432
 20
207.5497279665744088
 30
0.0
 40
0.4620000000000001
 50
128.4805304899809073
 51
135.5194695052626059
  0
ARC
  5
F3E6
  8
0
 10
4332.2639520582306432
 20
207.5497279665744088
 30
0.0
 40
0.4620000000000001
 50
140.4805304899832095
 51
147.5194695052898908
  0
ARC
  5
F3E7
  8
0
 10
4332.2639520582306432
 20
207.5497279665744088
 30
0.0
 40
0.4620000000000001
 50
152.4805304899838916
 51
159.5194695052676934
  0
ARC
  5
F3E8
  8
0
 10
4332.2639520582306432
 20
207.5497279665744088
 30
0.0
 40
0.4620000000000001
 50
164.4805304899788894
 51
171.5194695052778968
  0
ARC
  5
F3E9
  8
0
 10
4332.2639520582306432
 20
207.5497279665744088
 30
0.0
 40
0.4620000000000001
 50
176.4805304899782072
 51
183.5194695052759926
  0
ARC
  5
F3EA
  8
0
 10
4332.2639520582306432
 20
207.5497279665744088
 30
0.0
 40
0.4620000000000001
 50
188.4805304899803104
 51
195.5194695052821032
  0
ARC
  5
F3EB
  8
0
 10
4332.2639520582306432
 20
207.5497279665744088
 30
0.0
 40
0.4620000000000001
 50
200.4805304899857106
 51
207.5194695052730083
  0
ARC
  5
F3EC
  8
0
 10
4332.2639520582306432
 20
207.5497279665744088
 30
0.0
 40
0.4620000000000001
 50
212.4805304899902012
 51
219.5194695052709051
  0
ARC
  5
F3ED
  8
0
 10
4332.2639520582306432
 20
207.5497279665744088
 30
0.0
 40
0.4620000000000001
 50
224.4805304899851137
 51
231.5194695052855991
  0
ARC
  5
F3EE
  8
0
 10
4332.2639520582306432
 20
207.5497279665744088
 30
0.0
 40
0.4620000000000001
 50
308.4805304899809926
 51
315.5194695052625775
  0
ARC
  5
F3EF
  8
0
 10
4332.2639520582306432
 20
207.5497279665744088
 30
0.0
 40
0.4620000000000001
 50
320.4805304899830958
 51
327.5194695052620091
  0
ARC
  5
F3F0
  8
0
 10
4332.2639520582306432
 20
207.5497279665744088
 30
0.0
 40
0.4620000000000001
 50
332.4805304899840053
 51
339.5194695052676934
  0
ARC
  5
F3F1
  8
0
 10
4332.2639520582306432
 20
207.5497279665744088
 30
0.0
 40
0.4620000000000001
 50
344.4805304899788894
 51
351.5194695052779821
  0
ARC
  5
F3F2
  8
0
 10
4332.2639520582306432
 20
207.5497279665744088
 30
0.0
 40
0.4620000000000001
 50
356.4805304899782072
 51
3.5194695052759979
  0
ARC
  5
F3F3
  8
0
 10
4332.2639520582306432
 20
207.5497279665744088
 30
0.0
 40
0.4620000000000001
 50
8.4805304899803016
 51
15.5194695052820908
  0
ARC
  5
F3F4
  8
0
 10
4332.2639520582306432
 20
207.5497279665744088
 30
0.0
 40
0.4620000000000001
 50
20.4805304899857283
 51
27.5194695052730296
  0
ARC
  5
F3F5
  8
0
 10
4332.2639520582306432
 20
207.5497279665744088
 30
0.0
 40
0.4620000000000001
 50
32.4805304899902225
 51
39.5194695052709122
  0
ARC
  5
F3F6
  8
0
 10
4332.2639520582306432
 20
207.5497279665744088
 30
0.0
 40
0.4620000000000001
 50
44.4805304899862008
 51
51.5194695052856275
  0
ARC
  5
F3F7
  8
0
 10
4331.920619148932019
 20
207.8588663066744004
 30
0.0
 40
0.0200000000000002
 50
229.2402650212013953
 51
46.7597349740533872
  0
ARC
  5
F3F8
  8
0
 10
4331.8638483217600879
 20
207.7807279665520923
 30
0.0
 40
0.0200000000000002
 50
241.2402650212229105
 51
58.7597349740456281
  0
ARC
  5
F3F9
  8
0
 10
4331.8245639477818258
 20
207.6924938179697051
 30
0.0
 40
0.0200000000000002
 50
253.2402650211801927
 51
70.7597349740386932
  0
ARC
  5
F3FA
  8
0
 10
4331.8044829426507931
 20
207.5980201166148902
 30
0.0
 40
0.0200000000000002
 50
265.2402650212197273
 51
82.7597349740338188
  0
ARC
  5
F3FB
  8
0
 10
4331.8044829426462456
 20
207.5014358165718988
 30
0.0
 40
0.0200000000000002
 50
277.2402650211867012
 51
94.7597349740739645
  0
ARC
  5
F3FC
  8
0
 10
4331.8245639477709119
 20
207.4069621152152934
 30
0.0
 40
0.0200000000000002
 50
289.2402650212150093
 51
106.7597349740340036
  0
ARC
  5
F3FD
  8
0
 10
4331.8638483217409885
 20
207.3187279666298082
 30
0.0
 40
0.0200000000000002
 50
301.2402650212030153
 51
118.7597349740698007
  0
ARC
  5
F3FE
  8
0
 10
4331.9206191489047342
 20
207.2405896265028105
 30
0.0
 40
0.0200000000000002
 50
313.240265021214384
 51
130.7597349740528898
  0
ARC
  5
F3FF
  8
0
 10
4331.9923952717017528
 20
207.1759621152473017
 30
0.0
 40
0.0200000000000002
 50
101.3709718479960031
 51
142.7597349740456991
  0
ARC
  5
F400
  8
0
 10
4332.5355088447286107
 20
207.1759621152247917
 30
0.0
 40
0.0200000000000003
 50
37.2402650212121884
 51
78.6290280615376389
  0
ARC
  5
F401
  8
0
 10
4332.6072849675319958
 20
207.2405896264743888
 30
0.0
 40
0.0200000000000003
 50
49.2402650212014024
 51
226.7597349740534014
  0
ARC
  5
F402
  8
0
 10
4332.6640557947030175
 20
207.3187279665966969
 30
0.0
 40
0.0200000000000003
 50
61.2402650212228394
 51
238.7597349740456991
  0
ARC
  5
F403
  8
0
 10
4332.70334016868037
 20
207.4069621151789988
 30
0.0
 40
0.0200000000000003
 50
73.2402650211806474
 51
250.7597349740387074
  0
ARC
  5
F404
  8
0
 10
4332.7234211738123122
 20
207.5014358165338137
 30
0.0
 40
0.0200000000000003
 50
85.2402650212197557
 51
262.7597349740337904
  0
ARC
  5
F405
  8
0
 10
4332.7234211738168597
 20
207.5980201165768904
 30
0.0
 40
0.0200000000000003
 50
97.2402650211866444
 51
274.7597349740739787
  0
ARC
  5
F406
  8
0
 10
4332.7033401686921934
 20
207.6924938179334106
 30
0.0
 40
0.0200000000000003
 50
109.240265021214995
 51
286.7597349740340178
  0
ARC
  5
F407
  8
0
 10
4332.6640557947221168
 20
207.7807279665190094
 30
0.0
 40
0.0200000000000003
 50
121.2402650212030011
 51
298.7597349740697723
  0
ARC
  5
F408
  8
0
 10
4332.6072849675565521
 20
207.8588663066458935
 30
0.0
 40
0.0200000000000003
 50
133.2402650212144124
 51
310.7597349740528898
  0
ARC
  5
F409
  8
0
 10
4332.5355088447613525
 20
207.9234938179014875
 30
0.0
 40
0.0200000000000003
 50
281.3709718479963726
 51
322.7597349740457275
  0
ARC
  5
F40A
  8
0
 10
4331.9923952717335851
 20
207.9234938179239975
 30
0.0
 40
0.0200000000000004
 50
217.2402650212121955
 51
258.6290280615378947
  0
LINE
  5
F40B
  8
0
 10
4332.5394520582312907
 20
208.4356379661581968
 30
0.0
 11
4332.5394520582312907
 21
207.8236476628358957
 31
0.0
  0
LINE
  5
F40C
  8
0
 10
4332.5394520582312907
 20
207.2758082703128935
 30
0.0
 11
4332.5394520582312907
 21
204.8926379665743127
 31
0.0
  0
LINE
  5
F40D
  8
0
 10
4331.9891780110310719
 20
206.936175794844786
 30
0.0
 11
4331.9891780110310719
 21
204.8926379665743127
 31
0.0
  0
LINE
  5
F40E
  8
0
 10
4332.5194520582317637
 20
204.8726379665743877
 30
0.0
 11
4332.009178011030599
 21
204.8726379665743877
 31
0.0
  0
LINE
  5
F40F
  8
0
 10
4332.5368771268313139
 20
206.899485574218204
 30
0.0
 11
4332.5368771268313139
 21
204.8926379564526883
 31
0.0
  0
LINE
  5
F410
  8
0
 10
4332.5285661395319039
 20
206.8854681479660087
 30
0.0
 11
4332.5285661395319039
 21
204.892127032199113
 31
0.0
  0
LINE
  5
F411
  8
0
 10
4332.4979968903317058
 20
206.9087956910651087
 30
0.0
 11
4332.4979968903317058
 21
204.8926379665743127
 31
0.0
  0
LINE
  5
F412
  8
0
 10
4332.4745009736307111
 20
206.9070504640610011
 30
0.0
 11
4332.4745009736307111
 21
204.8926379665743127
 31
0.0
  0
LINE
  5
F413
  8
0
 10
4332.4186481760307288
 20
206.9051742787482908
 30
0.0
 11
4332.4186481760307288
 21
204.8921617083991009
 31
0.0
  0
LINE
  5
F414
  8
0
 10
4332.3840299875319033
 20
206.9051742837652057
 30
0.0
 11
4332.3840299875319033
 21
204.8926379665743127
 31
0.0
  0
LINE
  5
F415
  8
0
 10
4332.3125510976324222
 20
206.9037300918679136
 30
0.0
 11
4332.3125510976324222
 21
204.8926379665751938
 31
0.0
  0
LINE
  5
F416
  8
0
 10
4332.2727964365312801
 20
206.9037300918679136
 30
0.0
 11
4332.2727964365312801
 21
204.892637965861411
 31
0.0
  0
ARC
  5
F417
  8
0
 10
4329.8733339927066481
 20
206.8911794207294008
 30
0.0
 40
2.663556085298008
 50
0.1786740338842707
 51
2.8717174080592431
  0
ARC
  5
F418
  8
0
 10
4334.5118754559080116
 20
206.8841707170236077
 30
0.0
 40
1.983309740750212
 50
175.9390664802641027
 51
179.9625185511945062
  0
ARC
  5
F419
  8
0
 10
4331.7899527503923309
 20
206.8990448801874038
 30
0.0
 40
0.7081112782711866
 50
0.7889974142538857
 51
10.2150324321471295
  0
ARC
  5
F41A
  8
0
 10
4333.1254360156335679
 20
206.898171091659492
 30
0.0
 40
0.6509956007231722
 50
168.7994055413689978
 51
179.2184796044400912
  0
ARC
  5
F41B
  8
0
 10
4331.9499378245891421
 20
206.8982332498956964
 30
0.0
 40
0.46876174271208
 50
0.8484186237368225
 51
15.64199028339549
  0
ARC
  5
F41C
  8
0
 10
4332.8527403388989114
 20
206.8982332498956964
 30
0.0
 40
0.46876174271208
 50
164.3580097166044993
 51
179.151580762997412
  0
ARC
  5
F41D
  8
0
 10
4331.9040441621182254
 20
206.8986440032869041
 30
0.0
 40
0.4085385962919077
 50
0.7133204566168632
 51
17.9607870042214586
  0
ARC
  5
F41E
  8
0
 10
4332.6813033725447895
 20
206.898644003169295
 30
0.0
 40
0.4085385967934255
 50
162.0392130012328096
 51
179.2866795277633116
  0
ARC
  5
F41F
  8
0
 10
4332.5194520582317637
 20
204.8926379665743127
 30
0.0
 40
0.0200000000000005
 50
270.0
 51
359.9999999999968168
  0
ARC
  5
F420
  8
0
 10
4332.5168344593448637
 20
204.8926728951940959
 30
0.0
 40
0.0200426979396476
 50
271.5953834082940261
 51
359.900121059275989
  0
ARC
  5
F421
  8
0
 10
4332.5080981195951608
 20
204.8923824997322072
 30
0.0
 40
0.0204696141577849
 50
285.2955975483541238
 51
359.2849112181518763
  0
ARC
  5
F422
  8
0
 10
4332.476327657955153
 20
204.8941716980860974
 30
0.0
 40
0.0217234427323317
 50
277.5776820424550806
 51
355.9514007767087946
  0
ARC
  5
F423
  8
0
 10
4332.4477094258609213
 20
204.8930271589910035
 30
0.0
 40
0.0267943744597213
 50
310.4519370749533209
 51
359.1677407096321986
  0
ARC
  5
F424
  8
0
 10
4332.3980853128041417
 20
204.8923998365486909
 30
0.0
 40
0.0205642420021944
 50
286.0580009996090212
 51
359.3365161289999037
  0
ARC
  5
F425
  8
0
 10
4332.3319792649199371
 20
204.8942440229637043
 30
0.0
 40
0.0520754946356884
 50
341.6089660905332721
 51
358.2326649537562275
  0
ARC
  5
F426
  8
0
 10
4332.3851380270671143
 20
204.8765696951853101
 30
0.0
 40
0.0039444648030117
 50
161.6089658905823967
 51
265.3944626008329237
  0
ARC
  5
F427
  8
0
 10
4332.2922051936548087
 20
204.8927076786731902
 30
0.0
 40
0.0203460234055779
 50
279.4534409455554282
 51
359.8036856255430962
  0
LINE
  5
F428
  8
0
 10
4332.2727964365312801
 20
204.892637965861411
 30
0.0
 11
4332.272464450951702
 21
204.8811362809744026
 31
0.0
  0
ARC
  5
F429
  8
0
 10
4332.2821297297359706
 20
204.8802610798674095
 30
0.0
 40
0.0097048230773271
 50
174.8259180405428026
 51
231.7667050922217129
  0
LINE
  5
F42A
  8
0
 10
4332.0048041032314359
 20
206.9297199450670064
 30
0.0
 11
4332.0048041032314359
 21
204.8926379665743127
 31
0.0
  0
LINE
  5
F42B
  8
0
 10
4332.0210628477316277
 20
206.9279747180628988
 30
0.0
 11
4332.0210628477316277
 21
204.8926379665743127
 31
0.0
  0
LINE
  5
F42C
  8
0
 10
4332.0652392311312724
 20
206.9142990765191996
 30
0.0
 11
4332.0652392311312724
 21
204.8921617083991009
 31
0.0
  0
LINE
  5
F42D
  8
0
 10
4332.0949454356314163
 20
206.9142990815360008
 30
0.0
 11
4332.0949454356314163
 21
204.8926379665743127
 31
0.0
  0
LINE
  5
F42E
  8
0
 10
4332.1600336121318833
 20
206.9064422107354915
 30
0.0
 11
4332.1600336121318833
 21
204.892637966574398
 31
0.0
  0
LINE
  5
F42F
  8
0
 10
4332.1980508038313928
 20
206.9064422107354915
 30
0.0
 11
4332.1980508038313928
 21
204.892637965861411
 31
0.0
  0
ARC
  5
F430
  8
0
 10
4332.7128482431708107
 20
206.9199691341893015
 30
0.0
 40
0.7081112782711866
 50
171.5009179168912112
 51
179.2110025857460869
  0
ARC
  5
F431
  8
0
 10
4331.3701278057287709
 20
206.9190953456613897
 30
0.0
 40
0.6509956007231722
 50
0.7815203955598219
 51
9.3289597912575797
  0
ARC
  5
F432
  8
0
 10
4332.5339495825737686
 20
206.9073580476664915
 30
0.0
 40
0.46876174271208
 50
165.5130271892869018
 51
179.1515813762632092
  0
ARC
  5
F433
  8
0
 10
4331.6262350842644082
 20
206.9073580476664915
 30
0.0
 40
0.46876174271208
 50
0.8484192370025848
 51
14.4869728107130893
  0
ARC
  5
F434
  8
0
 10
4332.5685405476460801
 20
206.9013561221545956
 30
0.0
 40
0.4085385962919077
 50
162.4386134709235137
 51
179.2866795433830873
  0
ARC
  5
F435
  8
0
 10
4331.7895438678169739
 20
206.9013561220369866
 30
0.0
 40
0.4085385967934255
 50
0.7133204722366542
 51
17.5613865241292189
  0
ARC
  5
F436
  8
0
 10
4332.009178011030599
 20
204.8926379665743127
 30
0.0
 40
0.0200000000000005
 50
180.0000000000015916
 51
270.0
  0
ARC
  5
F437
  8
0
 10
4332.0264733356079887
 20
204.8941716980860974
 30
0.0
 40
0.0217234427323317
 50
184.0485992232895001
 51
262.4223179575448057
  0
ARC
  5
F438
  8
0
 10
4332.047854395502327
 20
204.8930271589910035
 30
0.0
 40
0.0267943744597213
 50
180.8322592903678014
 51
229.5480629250465938
  0
ARC
  5
F439
  8
0
 10
4332.085802094358769
 20
204.8923998365486909
 30
0.0
 40
0.0205642420021944
 50
180.6634838710000963
 51
253.9419990003910073
  0
ARC
  5
F43A
  8
0
 10
4332.1469961582433825
 20
204.8942440229637043
 30
0.0
 40
0.0520754946356884
 50
181.7673350462436872
 51
198.3910339094651079
  0
ARC
  5
F43B
  8
0
 10
4332.0938373960952958
 20
204.8765696951853101
 30
0.0
 40
0.0039444648030117
 50
274.6055373991670194
 51
18.3910341094176317
  0
ARC
  5
F43C
  8
0
 10
4332.1803795161085873
 20
204.8927076786731902
 30
0.0
 40
0.0203460234055779
 50
180.1963143744567901
 51
260.5465590544445718
  0
LINE
  5
F43D
  8
0
 10
4332.1980508038313928
 20
204.892637965861411
 30
0.0
 11
4332.1983827894100614
 21
204.8811362809744026
 31
0.0
  0
ARC
  5
F43E
  8
0
 10
4332.1887175106267023
 20
204.8802610798674095
 30
0.0
 40
0.0097048230773271
 50
308.2332949077783155
 51
5.1740819594571814
  0
ARC
  5
F43F
  8
0
 10
4332.2639520582306432
 20
207.5497279665744088
 30
0.0
 40
3.125
 50
271.4669322133573246
 51
268.5330677866426754
  0
ARC
  5
F440
  8
0
 10
4332.2639520582306432
 20
207.5497279665744088
 30
0.0
 40
0.9000000000000004
 50
287.8250234986501255
 51
72.1749765013499598
  0
ARC
  5
F441
  8
0
 10
4332.2639520582306432
 20
207.5497279665744088
 30
0.0
 40
0.9000000000000004
 50
107.8250234986499976
 51
252.2235158990004038
  0
ARC
  5
F442
  8
0
 10
4324.0682418117230554
 20
206.915406880709412
 30
0.0
 40
7.9209634275958507
 50
0.1502307767751867
 51
0.7901358565946754
  0
LINE
  5
F443
  8
0
 10
4331.9884520582318146
 20
207.024637244674409
 30
0.0
 11
4331.9884520582318146
 21
207.2758082703128935
 31
0.0
  0
LINE
  5
F444
  8
0
 10
4331.9884520582318146
 20
207.8236476628358957
 30
0.0
 11
4331.9884520582318146
 21
208.4356379661581968
 31
0.0
  0
LINE
  5
F445
  8
0
 10
4332.0084472073340294
 20
208.4556379665743862
 30
0.0
 11
4332.5194569091290759
 21
208.4556379665743862
 31
0.0
  0
ARC
  5
F446
  8
0
 10
4332.0084520592372428
 20
208.4356379661581968
 30
0.0
 40
0.0200000010046671
 50
90.0138996758985854
 51
180.0000000000194973
  0
ARC
  5
F447
  8
0
 10
4332.5194520572258625
 20
208.4356379661581968
 30
0.0
 40
0.0200000010046697
 50
359.9999999999869829
 51
89.9861003241014146
  0
ARC
  5
F448
  8
0
 10
4332.2639520582306432
 20
207.5497279665744088
 30
0.0
 40
0.6200000000000001
 50
116.382068920540604
 51
243.6552740836428086
  0
ARC
  5
F449
  8
0
 10
4332.2639520582306432
 20
207.5497279665744088
 30
0.0
 40
0.6200000000000001
 50
296.3820689205405756
 51
63.6179310794593533
  0
ENDSEC
  0
EOF
