  0
SECTION
  2
HEADER
  9
$ACADVER
  1
AC1009
  9
$INSBASE
 10
4356.7493682581043686
 20
207.3547907671027133
 30
0.0
  9
$EXTMIN
 10
4353.3117446298820141
 20
203.5836270948636866
 30
-0.0000000349181948
  9
$EXTMAX
 10
4359.9648224547781865
 20
207.3649447962094996
 30
0.0000000814935746
  9
$LIMMIN
 10
0.0
 20
0.0
  9
$LIMMAX
 10
11.6929133858000007
 20
8.2677165353999982
  9
$ORTHOMODE
 70
     0
  9
$REGENMODE
 70
     1
  9
$FILLMODE
 70
     1
  9
$QTEXTMODE
 70
     0
  9
$MIRRTEXT
 70
     0
  9
$DRAGMODE
 70
     2
  9
$LTSCALE
 40
0.6431102362
  9
$OSMODE
 70
     7
  9
$ATTMODE
 70
     1
  9
$TEXTSIZE
 40
0.2
  9
$TRACEWID
 40
0.05
  9
$TEXTSTYLE
  7
STANDARD
  9
$CLAYER
  8
0
  9
$CELTYPE
  6
BYLAYER
  9
$CECOLOR
 62
   256
  9
$DIMSCALE
 40
1.0
  9
$DIMASZ
 40
0.1875
  9
$DIMEXO
 40
0.0625
  9
$DIMDLI
 40
0.4443307087
  9
$DIMRND
 40
0.0
  9
$DIMDLE
 40
0.0
  9
$DIMEXE
 40
0.125
  9
$DIMTP
 40
0.01
  9
$DIMTM
 40
0.01
  9
$DIMTXT
 40
2.0
  9
$DIMCEN
 40
0.1052362205
  9
$DIMTSZ
 40
0.0
  9
$DIMTOL
 70
     1
  9
$DIMLIM
 70
     0
  9
$DIMTIH
 70
     1
  9
$DIMTOH
 70
     1
  9
$DIMSE1
 70
     0
  9
$DIMSE2
 70
     0
  9
$DIMTAD
 70
     0
  9
$DIMZIN
 70
     0
  9
$DIMBLK
  1

  9
$DIMASO
 70
     1
  9
$DIMSHO
 70
     1
  9
$DIMPOST
  1
\X
  9
$DIMAPOST
  1

  9
$DIMALT
 70
     1
  9
$DIMALTD
 70
     2
  9
$DIMALTF
 40
25.3999999999999986
  9
$DIMLFAC
 40
1.0
  9
$DIMTOFL
 70
     0
  9
$DIMTVP
 40
0.0
  9
$DIMTIX
 70
     0
  9
$DIMSOXD
 70
     0
  9
$DIMSAH
 70
     0
  9
$DIMBLK1
  1

  9
$DIMBLK2
  1

  9
$DIMSTYLE
  2
STANDARD
  9
$DIMCLRD
 70
     0
  9
$DIMCLRE
 70
     0
  9
$DIMCLRT
 70
     0
  9
$DIMTFAC
 40
1.0
  9
$DIMGAP
 40
0.09
  9
$LUNITS
 70
     2
  9
$LUPREC
 70
     4
  9
$SKETCHINC
 40
0.1
  9
$FILLETRAD
 40
0.0
  9
$AUNITS
 70
     0
  9
$AUPREC
 70
     0
  9
$MENU
  1
.
  9
$ELEVATION
 40
0.0
  9
$PELEVATION
 40
0.0
  9
$THICKNESS
 40
0.0
  9
$LIMCHECK
 70
     0
  9
$BLIPMODE
 70
     0
  9
$CHAMFERA
 40
0.0
  9
$CHAMFERB
 40
0.0
  9
$SKPOLY
 70
     0
  9
$TDCREATE
 40
2458060.468368056230247
  9
$TDUPDATE
 40
2459579.7985763889737427
  9
$TDINDWG
 40
0.4577385417
  9
$TDUSRTIMER
 40
0.4577385417
  9
$USRTIMER
 70
     1
  9
$ANGBASE
 50
0.0
  9
$ANGDIR
 70
     0
  9
$PDMODE
 70
     0
  9
$PDSIZE
 40
0.3125
  9
$PLINEWID
 40
0.0
  9
$COORDS
 70
     1
  9
$SPLFRAME
 70
     0
  9
$SPLINETYPE
 70
     6
  9
$SPLINESEGS
 70
     8
  9
$ATTDIA
 70
     1
  9
$ATTREQ
 70
     1
  9
$HANDLING
 70
     1
  9
$HANDSEED
  5
FB3B
  9
$SURFTAB1
 70
     6
  9
$SURFTAB2
 70
     6
  9
$SURFTYPE
 70
     6
  9
$SURFU
 70
     6
  9
$SURFV
 70
     6
  9
$UCSNAME
  2

  9
$UCSORG
 10
0.0
 20
0.0
 30
0.0
  9
$UCSXDIR
 10
1.0
 20
0.0
 30
0.0
  9
$UCSYDIR
 10
0.0
 20
1.0
 30
0.0
  9
$PUCSNAME
  2

  9
$PUCSORG
 10
0.0
 20
0.0
 30
0.0
  9
$PUCSXDIR
 10
1.0
 20
0.0
 30
0.0
  9
$PUCSYDIR
 10
0.0
 20
1.0
 30
0.0
  9
$USERI1
 70
     0
  9
$USERI2
 70
     0
  9
$USERI3
 70
     0
  9
$USERI4
 70
     0
  9
$USERI5
 70
     0
  9
$USERR1
 40
0.0
  9
$USERR2
 40
0.0
  9
$USERR3
 40
0.0
  9
$USERR4
 40
0.0
  9
$USERR5
 40
0.0
  9
$WORLDVIEW
 70
     1
  9
$SHADEDGE
 70
     3
  9
$SHADEDIF
 70
    70
  9
$TILEMODE
 70
     1
  9
$MAXACTVP
 70
    64
  9
$PLIMCHECK
 70
     0
  9
$PEXTMIN
 10
1.0000000000000000E+20
 20
1.0000000000000000E+20
 30
1.0000000000000000E+20
  9
$PEXTMAX
 10
-1.0000000000000000E+20
 20
-1.0000000000000000E+20
 30
-1.0000000000000000E+20
  9
$PLIMMIN
 10
0.0
 20
0.0
  9
$PLIMMAX
 10
12.0
 20
9.0
  9
$UNITMODE
 70
     0
  9
$VISRETAIN
 70
     1
  9
$PLINEGEN
 70
     0
  9
$PSLTSCALE
 70
     1
  0
ENDSEC
  0
SECTION
  2
TABLES
  0
TABLE
  2
VPORT
 70
     1
  0
VPORT
  2
*ACTIVE
 70
     0
 10
0.0
 20
0.0
 11
1.0
 21
1.0
 12
553.0942161595174866
 22
79.4790237487866449
 13
0.0
 23
0.0
 14
1.0
 24
1.0
 15
0.0
 25
0.0
 16
0.0
 26
0.0
 36
17.1152628219792007
 17
3803.5440673828129547
 27
125.9952621967499056
 37
0.0
 40
3.8083915751024051
 41
2.2831541218637992
 42
50.0
 43
0.0
 44
0.0
 50
0.0
 51
0.0
 71
     0
 72
   100
 73
     1
 74
     1
 75
     0
 76
     0
 77
     0
 78
     0
  0
ENDTAB
  0
TABLE
  2
LTYPE
 70
     2
  0
LTYPE
  2
CONTINUOUS
 70
     0
  3
Solid line
 72
    65
 73
     0
 40
0.0
  0
LTYPE
  2
PHANTOM2
 70
     0
  3
___ _ _ ___ _ _ ___ _ _ ___ _ _
 72
    65
 73
     6
 40
1.25
 49
0.625
 49
-0.125
 49
0.125
 49
-0.125
 49
0.125
 49
-0.125
  0
ENDTAB
  0
TABLE
  2
LAYER
 70
     2
  0
LAYER
  2
0
 70
     0
 62
   255
  6
CONTINUOUS
  0
LAYER
  2
DEFPOINTS
 70
     0
 62
     7
  6
CONTINUOUS
  0
ENDTAB
  0
TABLE
  2
STYLE
 70
     1
  0
STYLE
  2
STANDARD
 70
     0
 40
0.0
 41
0.8
 50
0.0
 71
     0
 42
0.2
  3
txt
  4

  0
ENDTAB
  0
TABLE
  2
VIEW
 70
     0
  0
ENDTAB
  0
TABLE
  2
UCS
 70
     0
  0
ENDTAB
  0
TABLE
  2
APPID
 70
     9
  0
APPID
  2
ACAD
 70
     0
  0
APPID
  2
ACAD_MLEADERVER
 70
     0
  0
APPID
  2
ACAD_EXEMPT_FROM_CAD_STANDARDS
 70
     0
  0
APPID
  2
ACAD_NAV_VCDISPLAY
 70
     0
  0
APPID
  2
ACAECLAYERSTANDARD
 70
     0
  0
APPID
  2
ACCMTRANSPARENCY
 70
     0
  0
APPID
  2
ACAD_DSTYLE_DIMJAG
 70
     0
  0
APPID
  2
ACAD_DSTYLE_DIMTALN
 70
     0
  0
APPID
  2
ACDBATTR
 70
     0
  0
ENDTAB
  0
TABLE
  2
DIMSTYLE
 70
     1
  0
DIMSTYLE
  2
STANDARD
 70
     0
  3

  4

  5

  6

  7

 40
1.0
 41
0.1875
 42
0.0625
 43
0.38
 44
0.125
 45
0.0
 46
0.0
 47
0.01
 48
0.01
140
0.15625
141
0.09
142
0.0
143
25.3999999999999986
144
1.0
145
0.0
146
1.0
147
0.09
 71
     1
 72
     0
 73
     1
 74
     1
 75
     0
 76
     0
 77
     0
 78
     4
170
     0
171
     2
172
     0
173
     0
174
     0
175
     0
176
     0
177
     0
178
     0
  0
ENDTAB
  0
ENDSEC
  0
SECTION
  2
BLOCKS
  0
BLOCK
  8
0
  2
$MODEL_SPACE
 70
     0
 10
0.0
 20
0.0
 30
0.0
  3
$MODEL_SPACE
  1

  0
ENDBLK
  5
21
  8
0
  0
BLOCK
 67
     1
  8
0
  2
$PAPER_SPACE
 70
     0
 10
0.0
 20
0.0
 30
0.0
  3
$PAPER_SPACE
  1

  0
ENDBLK
  5
1D
 67
     1
  8
0
  0
ENDSEC
  0
SECTION
  2
ENTITIES
  0
ATTDEF
  5
3930
  8
DEFPOINTS
 10
4356.7493932030201904
 20
207.358157845794608
 30
0.0
 40
0.001
  1
P21376-LV
  3

  2
MODELNUMBER
 70
     0
1001
ACDBATTR
1070
     0
1070
     1
  0
ATTDEF
  5
3931
  8
DEFPOINTS
 10
4356.7493932030201904
 20
207.356491179127886
 30
0.0
 40
0.001
  1
CENTRAL PARK WEST
  3

  2
TRADENAME
 70
     0
1001
ACDBATTR
1070
     0
1070
     1
  0
ATTDEF
  5
3932
  8
DEFPOINTS
 10
4356.7493932030201904
 20
207.3548245124613061
 30
0.0
 40
0.001
  1
VALVE TRIM
  3

  2
PRODUCT
 70
     0
1001
ACDBATTR
1070
     0
1070
     1
  0
LINE
  5
F934
  8
0
 10
4356.3808046953399753
 20
204.3317907671026887
 30
0.0
 11
4357.1179318208687619
 21
204.3317907671026887
 31
0.0
  0
LINE
  5
F935
  8
0
 10
4356.422368258104143
 20
204.3907907671027999
 30
0.0
 11
4357.0763682581045941
 21
204.3907907671027999
 31
0.0
  0
LINE
  5
F936
  8
0
 10
4356.3818682581040775
 20
204.5187907671027006
 30
0.0
 11
4357.1168682581037501
 21
204.5187907671027006
 31
0.0
  0
LINE
  5
F937
  8
0
 10
4356.3059212191119514
 20
204.5787907671027028
 30
0.0
 11
4357.1928152970958763
 21
204.5787907671027028
 31
0.0
  0
LINE
  5
F938
  8
0
 10
4356.3059212191119514
 20
204.7587907671027097
 30
0.0
 11
4357.1928152970958763
 21
204.7587907671027097
 31
0.0
  0
LINE
  5
F939
  8
0
 10
4356.3818682581040775
 20
204.8187907671027972
 30
0.0
 11
4357.1168682581037501
 21
204.8187907671027972
 31
0.0
  0
LINE
  5
F93A
  8
0
 10
4356.3718682581038593
 20
204.7687907671027006
 30
0.0
 11
4356.3718682581038593
 21
204.8087907671026926
 31
0.0
  0
LINE
  5
F93B
  8
0
 10
4356.3718682581038593
 20
204.5687907671027119
 30
0.0
 11
4356.3718682581038593
 21
204.5287907671026915
 31
0.0
  0
ARC
  5
F93C
  8
0
 10
4356.3818682581040775
 20
204.5287907671026915
 30
0.0
 40
0.009999999999998
 50
179.9999999999901945
 51
270.0
  0
ARC
  5
F93D
  8
0
 10
4356.361868258103641
 20
204.5687907671027119
 30
0.0
 40
0.0099999999999989
 50
0.0
 51
90.0
  0
ARC
  5
F93E
  8
0
 10
4356.361868258103641
 20
204.7687907671027006
 30
0.0
 40
0.0100000000000016
 50
270.0
 51
0.0
  0
ARC
  5
F93F
  8
0
 10
4356.3818682581040775
 20
204.8087907671026926
 30
0.0
 40
0.0100000000000007
 50
90.0
 51
179.9999999999951115
  0
LINE
  5
F940
  8
0
 10
4356.4708682581040193
 20
204.4007907671027056
 30
0.0
 11
4356.4708682581040193
 21
204.5087907671027097
 31
0.0
  0
LINE
  5
F941
  8
0
 10
4356.4123682581039247
 20
204.3417907671027081
 30
0.0
 11
4356.4123682581039247
 21
204.3807907671026953
 31
0.0
  0
ARC
  5
F942
  8
0
 10
4356.402368258104616
 20
204.3417907671027081
 30
0.0
 40
0.0100000000000041
 50
270.0
 51
359.9999999999852776
  0
ARC
  5
F943
  8
0
 10
4356.422368258104143
 20
204.3807907671026953
 30
0.0
 40
0.009999999999998
 50
90.0
 51
180.0000000000098055
  0
ARC
  5
F944
  8
0
 10
4356.4608682581038011
 20
204.4007907671027056
 30
0.0
 40
0.0099999999999985
 50
270.0
 51
0.0
  0
ARC
  5
F945
  8
0
 10
4356.4608682581038011
 20
204.5087907671027097
 30
0.0
 40
0.0100000000000007
 50
0.0
 51
90.0
  0
LINE
  5
F946
  8
0
 10
4356.3596370815048431
 20
204.5987907671027131
 30
0.0
 11
4356.3596370815048431
 21
204.7387907671028131
 31
0.0
  0
LINE
  5
F947
  8
0
 10
4356.3929775796041213
 20
204.5987907671027131
 30
0.0
 11
4356.3929775796041213
 21
204.7387907671028131
 31
0.0
  0
LINE
  5
F948
  8
0
 10
4356.4197365332038316
 20
204.5987907671027131
 30
0.0
 11
4356.4197365332038316
 21
204.7387907671028131
 31
0.0
  0
LINE
  5
F949
  8
0
 10
4356.5433653768031945
 20
204.5987907671027131
 30
0.0
 11
4356.5433653768031945
 21
204.7387907671026994
 31
0.0
  0
LINE
  5
F94A
  8
0
 10
4356.5798986340041665
 20
204.5987907671027131
 30
0.0
 11
4356.5798986340041665
 21
204.7387907671026994
 31
0.0
  0
LINE
  5
F94B
  8
0
 10
4356.6338446932040824
 20
204.5987907671027131
 30
0.0
 11
4356.6338446932040824
 21
204.7387907671026142
 31
0.0
  0
LINE
  5
F94C
  8
0
 10
4356.6729614307041629
 20
204.5937613633313958
 30
0.0
 11
4356.6729614307041629
 21
204.7438201708741019
 31
0.0
  0
LINE
  5
F94D
  8
0
 10
4356.7293729437033107
 20
204.5987907698093977
 30
0.0
 11
4356.7293729437033107
 21
204.7387907643961
 31
0.0
  0
ARC
  5
F94E
  8
0
 10
4356.7500890475375854
 20
204.5994827857560949
 30
0.0
 40
0.0207276589146577
 50
181.9132388636035103
 51
266.639567380302708
  0
ARC
  5
F94F
  8
0
 10
4356.6549339925877575
 20
204.5962760655378077
 30
0.0
 40
0.0182019848419872
 50
286.1316293480044237
 51
352.0588796961432081
  0
ARC
  5
F950
  8
0
 10
4356.6545415279915687
 20
204.5990231038784088
 30
0.0
 40
0.0206981388197154
 50
180.6431590953419004
 51
257.8215918424646134
  0
ARC
  5
F951
  8
0
 10
4356.6276181442035522
 20
204.5991735058485119
 30
0.0
 40
0.0477210450707086
 50
180.4595362458248076
 51
190.8686005786489943
  0
ARC
  5
F952
  8
0
 10
4356.5665854832268451
 20
204.5874551516915005
 30
0.0
 40
0.0144264048376814
 50
323.0876854699343994
 51
10.86860116087467
  0
ARC
  5
F953
  8
0
 10
4356.5656830687930778
 20
204.6006709896714142
 30
0.0
 40
0.0223967545106538
 50
184.8156870686181037
 51
257.6708851165810756
  0
ARC
  5
F954
  8
0
 10
4356.4569516272676992
 20
204.5996038129430872
 30
0.0
 40
0.0372239743946374
 50
181.251553622511409
 51
205.2667045239900858
  0
ARC
  5
F955
  8
0
 10
4356.4202457930086894
 20
204.5820243871970945
 30
0.0
 40
0.0034813394778096
 50
291.7447260827722744
 51
29.0609860080736908
  0
ARC
  5
F956
  8
0
 10
4356.4151145204987188
 20
204.6001963934930075
 30
0.0
 40
0.0221815224399663
 50
183.633224851291601
 51
254.8009001205820141
  0
ARC
  5
F957
  8
0
 10
4356.3898606773682332
 20
204.5997240175709067
 30
0.0
 40
0.0302380009814091
 50
181.7686290107305069
 51
223.8110915431697947
  0
LINE
  5
F958
  8
0
 10
4356.3396417671046947
 20
204.598790767102912
 30
0.0
 11
4356.3396417671046947
 21
204.7387907671025005
 31
0.0
  0
LINE
  5
F959
  8
0
 10
4356.31657075230396
 20
204.5979454839448977
 30
0.0
 11
4356.31657075230396
 21
204.7396360502604864
 31
0.0
  0
LINE
  5
F95A
  8
0
 10
4356.2924197508036741
 20
204.5987907671027983
 30
0.0
 11
4356.2924197508036741
 21
204.7387907671026994
 31
0.0
  0
LINE
  5
F95B
  8
0
 10
4356.2882395919032206
 20
204.5987907671025994
 30
0.0
 11
4356.2882395919032206
 21
204.7387907671028984
 31
0.0
  0
LINE
  5
F95C
  8
0
 10
4356.2873682581039247
 20
204.5987907671006951
 30
0.0
 11
4356.2873682581039247
 21
204.738790767103211
 31
0.0
  0
ARC
  5
F95D
  8
0
 10
4356.3074159072393741
 20
204.5987826206834939
 30
0.0
 40
0.0200476507898201
 50
179.9767176983046966
 51
265.7242440972070767
  0
ARC
  5
F95E
  8
0
 10
4356.3083631541912837
 20
204.5988765053070892
 30
0.0
 40
0.0201237449340625
 50
180.2441122232579005
 51
266.4780607912887263
  0
ARC
  5
F95F
  8
0
 10
4356.3137340163739282
 20
204.5989250398772867
 30
0.0
 40
0.0213146885018345
 50
180.3609395543871869
 51
235.375166359572205
  0
ARC
  5
F960
  8
0
 10
4356.3108164063860386
 20
204.5946996427848887
 30
0.0
 40
0.016179863419184
 50
235.3751663595731998
 51
259.4989424060913734
  0
ARC
  5
F961
  8
0
 10
4356.3357767301877175
 20
204.5983681255237912
 30
0.0
 40
0.019210627588701
 50
181.2606320377591089
 51
230.4628044188208094
  0
ARC
  5
F962
  8
0
 10
4356.3377848754807928
 20
204.602041634265305
 30
0.0
 40
0.0233353914486624
 50
232.4023198401108061
 51
265.1218851880968828
  0
ARC
  5
F963
  8
0
 10
4356.3629353827909654
 20
204.5989758092746911
 30
0.0
 40
0.0232943506536603
 50
180.4551424141791074
 51
240.0568308655404905
  0
ARC
  5
F964
  8
0
 10
4356.7500890475375854
 20
204.7380987484494028
 30
0.0
 40
0.0207276589146577
 50
93.3604326196973062
 51
178.0867611363964045
  0
ARC
  5
F965
  8
0
 10
4356.6549339925877575
 20
204.7413054686676048
 30
0.0
 40
0.0182019848419872
 50
7.9411203038568399
 51
73.8683706519956189
  0
ARC
  5
F966
  8
0
 10
4356.6545415279915687
 20
204.7385584303270889
 30
0.0
 40
0.0206981388197154
 50
102.1784081575354008
 51
179.3568409046580996
  0
ARC
  5
F967
  8
0
 10
4356.6276181442035522
 20
204.7384080283569858
 30
0.0
 40
0.0477210450707086
 50
169.1313994213510057
 51
179.5404637541751924
  0
ARC
  5
F968
  8
0
 10
4356.5665854832268451
 20
204.7501263825139972
 30
0.0
 40
0.0144264048376814
 50
349.1313988391253247
 51
36.9123145300655509
  0
ARC
  5
F969
  8
0
 10
4356.5656830687930778
 20
204.736910544534112
 30
0.0
 40
0.0223967545106538
 50
102.3291148834188959
 51
175.1843129313818963
  0
ARC
  5
F96A
  8
0
 10
4356.4569516272676992
 20
204.7379777212624106
 30
0.0
 40
0.0372239743946374
 50
154.7332954760113921
 51
178.7484463774869141
  0
ARC
  5
F96B
  8
0
 10
4356.4202457930086894
 20
204.7555571470084033
 30
0.0
 40
0.0034813394778096
 50
330.9390139919262879
 51
68.2552739172277541
  0
ARC
  5
F96C
  8
0
 10
4356.4151145204987188
 20
204.737385140712405
 30
0.0
 40
0.0221815224399663
 50
105.1990998794180001
 51
176.3667751487083137
  0
ARC
  5
F96D
  8
0
 10
4356.3898606773682332
 20
204.7378575166345058
 30
0.0
 40
0.0302380009814091
 50
136.1889084568302053
 51
178.2313709892694078
  0
ARC
  5
F96E
  8
0
 10
4356.3074159072393741
 20
204.7387989135220039
 30
0.0
 40
0.0200476507898201
 50
94.2757559027929375
 51
180.0232823016951897
  0
ARC
  5
F96F
  8
0
 10
4356.3083631541912837
 20
204.7387050288984085
 30
0.0
 40
0.0201237449340625
 50
93.5219392087113164
 51
179.7558877767403942
  0
ARC
  5
F970
  8
0
 10
4356.3137340163739282
 20
204.738656494328211
 30
0.0
 40
0.0213146885018345
 50
124.6248336404276955
 51
179.6390604456128131
  0
ARC
  5
F971
  8
0
 10
4356.3108164063860386
 20
204.7428818914204953
 30
0.0
 40
0.016179863419184
 50
100.5010575939084987
 51
124.6248336404268002
  0
ARC
  5
F972
  8
0
 10
4356.3357767301877175
 20
204.7392134086817066
 30
0.0
 40
0.019210627588701
 50
129.5371955811791054
 51
178.7393679622408058
  0
ARC
  5
F973
  8
0
 10
4356.3377848754807928
 20
204.7355398999401075
 30
0.0
 40
0.0233353914486624
 50
94.8781148119031315
 51
127.5976801598890944
  0
ARC
  5
F974
  8
0
 10
4356.3629353827909654
 20
204.738605724930693
 30
0.0
 40
0.0232943506536603
 50
119.9431691344594952
 51
179.5448575858208073
  0
LINE
  5
F975
  8
0
 10
4356.3608682581043468
 20
203.6067907671026944
 30
0.0
 11
4356.3608682581043468
 21
204.3117907671027069
 31
0.0
  0
LINE
  5
F976
  8
0
 10
4356.3808103813407797
 20
203.5867907671027126
 30
0.0
 11
4357.1179261348670479
 21
203.5867907671027126
 31
0.0
  0
ARC
  5
F977
  8
0
 10
4356.3808684017722044
 20
203.6067908266120128
 30
0.0
 40
0.0200001436680536
 50
180.0001704801393885
 51
269.8337846710023769
  0
ARC
  5
F978
  8
0
 10
4356.3808684314726634
 20
204.3117906952913927
 30
0.0
 40
0.0200001733681151
 50
90.1825892961135906
 51
179.9997942773541126
  0
LINE
  5
F979
  8
0
 10
4356.3042129684035899
 20
204.5979454839448977
 30
0.0
 11
4356.3042129684035899
 21
204.7396360502604864
 31
0.0
  0
ARC
  5
F97A
  8
0
 10
4356.3234189462882568
 20
204.5983681255237912
 30
0.0
 40
0.019210627588701
 50
181.2606320377591089
 51
230.4628044188208094
  0
ARC
  5
F97B
  8
0
 10
4356.3254270915813322
 20
204.602041634265305
 30
0.0
 40
0.0233353914486624
 50
232.4023198401108061
 51
265.1218851880968828
  0
ARC
  5
F97C
  8
0
 10
4356.3234189462882568
 20
204.7392134086817066
 30
0.0
 40
0.019210627588701
 50
129.5371955811791054
 51
178.7393679622408058
  0
ARC
  5
F97D
  8
0
 10
4356.3254270915813322
 20
204.7355398999401075
 30
0.0
 40
0.0233353914486624
 50
94.8781148119031315
 51
127.5976801598890944
  0
LINE
  5
F97E
  8
0
 10
4356.4618893748047412
 20
204.5987907671027131
 30
0.0
 11
4356.4618893748047412
 21
204.7387907671026994
 31
0.0
  0
ARC
  5
F97F
  8
0
 10
4356.4842070667928056
 20
204.6006709896714142
 30
0.0
 40
0.0223967545106538
 50
184.8156870686181037
 51
257.6708851165810756
  0
ARC
  5
F980
  8
0
 10
4356.4842070667928056
 20
204.736910544534112
 30
0.0
 40
0.0223967545106538
 50
102.3291148834188959
 51
175.1843129313818963
  0
LINE
  5
F981
  8
0
 10
4356.4942424731043502
 20
204.5987907671027131
 30
0.0
 11
4356.4942424731043502
 21
204.7387907671026994
 31
0.0
  0
ARC
  5
F982
  8
0
 10
4356.5419619833028264
 20
204.5991735058485119
 30
0.0
 40
0.0477210450707086
 50
180.4595362458248076
 51
190.8686005786489943
  0
ARC
  5
F983
  8
0
 10
4356.4809293223270288
 20
204.5874551516915005
 30
0.0
 40
0.0144264048376814
 50
323.0876854699343994
 51
10.86860116087467
  0
ARC
  5
F984
  8
0
 10
4356.5419619833028264
 20
204.7384080283569858
 30
0.0
 40
0.0477210450707086
 50
169.1313994213510057
 51
179.5404637541751924
  0
ARC
  5
F985
  8
0
 10
4356.4809293223270288
 20
204.7501263825139972
 30
0.0
 40
0.0144264048376814
 50
349.1313988391253247
 51
36.9123145300655509
  0
CIRCLE
  5
F986
  8
0
 10
4356.7493682581043686
 20
203.9603174671026977
 30
0.0
 40
0.2755000000000001
  0
CIRCLE
  5
F987
  8
0
 10
4356.7493682581043686
 20
203.9603174671026977
 30
0.0
 40
0.2795905515000001
  0
LINE
  5
F988
  8
0
 10
4357.1268682581039684
 20
204.7687907671027006
 30
0.0
 11
4357.1268682581039684
 21
204.8087907671026926
 31
0.0
  0
LINE
  5
F989
  8
0
 10
4357.1268682581039684
 20
204.5687907671027119
 30
0.0
 11
4357.1268682581039684
 21
204.5287907671026915
 31
0.0
  0
ARC
  5
F98A
  8
0
 10
4357.1168682581037501
 20
204.5287907671026915
 30
0.0
 40
0.009999999999998
 50
270.0
 51
0.0000000000097707
  0
ARC
  5
F98B
  8
0
 10
4357.1368682581050962
 20
204.5687907671027119
 30
0.0
 40
0.0099999999999989
 50
90.0
 51
180.0
  0
ARC
  5
F98C
  8
0
 10
4357.1368682581050962
 20
204.7687907671027006
 30
0.0
 40
0.0100000000000016
 50
180.0
 51
270.0
  0
ARC
  5
F98D
  8
0
 10
4357.1168682581037501
 20
204.8087907671026926
 30
0.0
 40
0.0100000000000007
 50
0.0000000000048853
 51
90.0
  0
LINE
  5
F98E
  8
0
 10
4357.0278682581038083
 20
204.4007907671027056
 30
0.0
 11
4357.0278682581038083
 21
204.5087907671027097
 31
0.0
  0
LINE
  5
F98F
  8
0
 10
4357.0863682581039029
 20
204.3417907671027081
 30
0.0
 11
4357.0863682581039029
 21
204.3807907671026953
 31
0.0
  0
ARC
  5
F990
  8
0
 10
4357.0963682581041212
 20
204.3417907671027081
 30
0.0
 40
0.0100000000000041
 50
180.0000000000146088
 51
270.0
  0
ARC
  5
F991
  8
0
 10
4357.0763682581045941
 20
204.3807907671026953
 30
0.0
 40
0.009999999999998
 50
359.9999999999902229
 51
90.0
  0
ARC
  5
F992
  8
0
 10
4357.0378682581040266
 20
204.4007907671027056
 30
0.0
 40
0.0099999999999985
 50
180.0
 51
270.0
  0
ARC
  5
F993
  8
0
 10
4357.0378682581040266
 20
204.5087907671027097
 30
0.0
 40
0.0100000000000007
 50
90.0
 51
180.0
  0
LINE
  5
F994
  8
0
 10
4357.1390994347048036
 20
204.5987907671027131
 30
0.0
 11
4357.1390994347048036
 21
204.7387907671028131
 31
0.0
  0
LINE
  5
F995
  8
0
 10
4357.1057589366037064
 20
204.5987907671027131
 30
0.0
 11
4357.1057589366037064
 21
204.7387907671028131
 31
0.0
  0
LINE
  5
F996
  8
0
 10
4357.078999983003996
 20
204.5987907671027131
 30
0.0
 11
4357.078999983003996
 21
204.7387907671028131
 31
0.0
  0
LINE
  5
F997
  8
0
 10
4356.9553711394046331
 20
204.5987907671027131
 30
0.0
 11
4356.9553711394046331
 21
204.7387907671026994
 31
0.0
  0
LINE
  5
F998
  8
0
 10
4356.9188378822036611
 20
204.5987907671027131
 30
0.0
 11
4356.9188378822036611
 21
204.7387907671026994
 31
0.0
  0
LINE
  5
F999
  8
0
 10
4356.8648918230037452
 20
204.5987907671027131
 30
0.0
 11
4356.8648918230037452
 21
204.7387907671026142
 31
0.0
  0
LINE
  5
F99A
  8
0
 10
4356.8257750855036647
 20
204.5937613633313958
 30
0.0
 11
4356.8257750855036647
 21
204.7438201708741019
 31
0.0
  0
LINE
  5
F99B
  8
0
 10
4356.7693635725036074
 20
204.5987907698093977
 30
0.0
 11
4356.7693635725036074
 21
204.7387907643961
 31
0.0
  0
ARC
  5
F99C
  8
0
 10
4356.7486474686711517
 20
204.5994827857560949
 30
0.0
 40
0.0207276589146577
 50
273.360432619697292
 51
358.0867611363963761
  0
ARC
  5
F99D
  8
0
 10
4356.8438025236200701
 20
204.5962760655378077
 30
0.0
 40
0.0182019848419872
 50
187.9411203038567919
 51
253.86837065199569
  0
ARC
  5
F99E
  8
0
 10
4356.8441949882171684
 20
204.5990231038784088
 30
0.0
 40
0.0206981388197154
 50
282.1784081575355003
 51
359.3568409046580996
  0
ARC
  5
F99F
  8
0
 10
4356.8711183720051849
 20
204.5991735058485119
 30
0.0
 40
0.0477210450707086
 50
349.1313994213509773
 51
359.5404637541752209
  0
ARC
  5
F9A0
  8
0
 10
4356.9321510329818921
 20
204.5874551516915005
 30
0.0
 40
0.0144264048376814
 50
169.1313988391252963
 51
216.9123145300654869
  0
ARC
  5
F9A1
  8
0
 10
4356.9330534474147498
 20
204.6006709896714142
 30
0.0
 40
0.0223967545106538
 50
282.3291148834189244
 51
355.1843129313803047
  0
ARC
  5
F9A2
  8
0
 10
4357.0417848889401284
 20
204.5996038129430872
 30
0.0
 40
0.0372239743946374
 50
334.7332954760099142
 51
358.7484463774869141
  0
ARC
  5
F9A3
  8
0
 10
4357.0784907231991383
 20
204.5820243871970945
 30
0.0
 40
0.0034813394778096
 50
150.9390139919262879
 51
248.2552739172276972
  0
ARC
  5
F9A4
  8
0
 10
4357.0836219957091089
 20
204.6001963934930075
 30
0.0
 40
0.0221815224399663
 50
285.1990998794179859
 51
356.3667751487084274
  0
ARC
  5
F9A5
  8
0
 10
4357.1088758388414135
 20
204.5997240175709067
 30
0.0
 40
0.0302380009814091
 50
316.1889084568301769
 51
358.2313709892695215
  0
LINE
  5
F9A6
  8
0
 10
4357.1590947491031329
 20
204.598790767102912
 30
0.0
 11
4357.1590947491031329
 21
204.7387907671025005
 31
0.0
  0
LINE
  5
F9A7
  8
0
 10
4357.1821657639038676
 20
204.5979454839448977
 30
0.0
 11
4357.1821657639038676
 21
204.7396360502604864
 31
0.0
  0
LINE
  5
F9A8
  8
0
 10
4357.2063167654041536
 20
204.5987907671027983
 30
0.0
 11
4357.2063167654041536
 21
204.7387907671026994
 31
0.0
  0
LINE
  5
F9A9
  8
0
 10
4357.2104969243046071
 20
204.5987907671025994
 30
0.0
 11
4357.2104969243046071
 21
204.7387907671028984
 31
0.0
  0
LINE
  5
F9AA
  8
0
 10
4357.2113682581048124
 20
204.5987907671006951
 30
0.0
 11
4357.2113682581048124
 21
204.738790767103211
 31
0.0
  0
ARC
  5
F9AB
  8
0
 10
4357.1913206089693631
 20
204.5987826206834939
 30
0.0
 40
0.0200476507898201
 50
274.2757559027929233
 51
0.0232823016952486
  0
ARC
  5
F9AC
  8
0
 10
4357.1903733620174535
 20
204.5988765053070892
 30
0.0
 40
0.0201237449340625
 50
273.5219392087112737
 51
359.7558877767403942
  0
ARC
  5
F9AD
  8
0
 10
4357.185002499834809
 20
204.5989250398772867
 30
0.0
 40
0.0213146885018345
 50
304.6248336404277097
 51
359.6390604456128131
  0
ARC
  5
F9AE
  8
0
 10
4357.1879201098217891
 20
204.5946996427848887
 30
0.0
 40
0.016179863419184
 50
280.5010575938574107
 51
304.6248336404268002
  0
ARC
  5
F9AF
  8
0
 10
4357.1629597860210197
 20
204.5983681255237912
 30
0.0
 40
0.019210627588701
 50
309.5371955811791054
 51
358.7393679622409195
  0
ARC
  5
F9B0
  8
0
 10
4357.1609516407270348
 20
204.602041634265305
 30
0.0
 40
0.0233353914486624
 50
274.8781148119031172
 51
307.5976801598891939
  0
ARC
  5
F9B1
  8
0
 10
4357.1358011334168623
 20
204.5989758092746911
 30
0.0
 40
0.0232943506536603
 50
299.943169134459481
 51
359.544857585820921
  0
ARC
  5
F9B2
  8
0
 10
4356.7486474686711517
 20
204.7380987484494028
 30
0.0
 40
0.0207276589146577
 50
1.913238863603544
 51
86.6395673803026938
  0
ARC
  5
F9B3
  8
0
 10
4356.8438025236200701
 20
204.7413054686676048
 30
0.0
 40
0.0182019848419872
 50
106.1316293480042958
 51
172.0588796961432081
  0
ARC
  5
F9B4
  8
0
 10
4356.8441949882171684
 20
204.7385584303270889
 30
0.0
 40
0.0206981388197154
 50
0.643159095341897
 51
77.8215918424645565
  0
ARC
  5
F9B5
  8
0
 10
4356.8711183720051849
 20
204.7384080283569858
 30
0.0
 40
0.0477210450707086
 50
0.459536245824816
 51
10.8686005786490103
  0
ARC
  5
F9B6
  8
0
 10
4356.9321510329818921
 20
204.7501263825139972
 30
0.0
 40
0.0144264048376814
 50
143.0876854699345131
 51
190.8686011608747037
  0
ARC
  5
F9B7
  8
0
 10
4356.9330534474147498
 20
204.736910544534112
 30
0.0
 40
0.0223967545106538
 50
4.8156870686181081
 51
77.6708851165811041
  0
ARC
  5
F9B8
  8
0
 10
4357.0417848889401284
 20
204.7379777212624106
 30
0.0
 40
0.0372239743946374
 50
1.2515536225130901
 51
25.2667045239900609
  0
ARC
  5
F9B9
  8
0
 10
4357.0784907231991383
 20
204.7555571470084033
 30
0.0
 40
0.0034813394778096
 50
111.7447260827722033
 51
209.0609860080737121
  0
ARC
  5
F9BA
  8
0
 10
4357.0836219957091089
 20
204.737385140712405
 30
0.0
 40
0.0221815224399663
 50
3.6332248512916521
 51
74.8009001205820567
  0
ARC
  5
F9BB
  8
0
 10
4357.1088758388414135
 20
204.7378575166345058
 30
0.0
 40
0.0302380009814091
 50
1.768629010730542
 51
43.8110915431697876
  0
ARC
  5
F9BC
  8
0
 10
4357.1913206089693631
 20
204.7387989135220039
 30
0.0
 40
0.0200476507898201
 50
359.9767176983048103
 51
85.7242440972070625
  0
ARC
  5
F9BD
  8
0
 10
4357.1903733620174535
 20
204.7387050288984085
 30
0.0
 40
0.0201237449340625
 50
0.2441122232595845
 51
86.4780607912886836
  0
ARC
  5
F9BE
  8
0
 10
4357.185002499834809
 20
204.738656494328211
 30
0.0
 40
0.0213146885018345
 50
0.3609395543872172
 51
55.3751663595722476
  0
ARC
  5
F9BF
  8
0
 10
4357.1879201098217891
 20
204.7428818914204953
 30
0.0
 40
0.016179863419184
 50
55.3751663595731927
 51
79.498942406091416
  0
ARC
  5
F9C0
  8
0
 10
4357.1629597860210197
 20
204.7392134086817066
 30
0.0
 40
0.019210627588701
 50
1.2606320377591369
 51
50.4628044188208804
  0
ARC
  5
F9C1
  8
0
 10
4357.1609516407270348
 20
204.7355398999401075
 30
0.0
 40
0.0233353914486624
 50
52.4023198401108488
 51
85.1218851880968828
  0
ARC
  5
F9C2
  8
0
 10
4357.1358011334168623
 20
204.738605724930693
 30
0.0
 40
0.0232943506536603
 50
0.45514241417914
 51
60.0568308655405403
  0
LINE
  5
F9C3
  8
0
 10
4357.1378682581043904
 20
203.6067907671026944
 30
0.0
 11
4357.1378682581043904
 21
204.3117907671027069
 31
0.0
  0
ARC
  5
F9C4
  8
0
 10
4357.1178681144356233
 20
203.6067908266120128
 30
0.0
 40
0.0200001436680536
 50
270.1662153289976231
 51
359.9998295198606115
  0
ARC
  5
F9C5
  8
0
 10
4357.1178680847360738
 20
204.3117906952913927
 30
0.0
 40
0.0200001733681151
 50
0.0002057226459127
 51
89.8174107038864236
  0
LINE
  5
F9C6
  8
0
 10
4357.1945235478042378
 20
204.5979454839448977
 30
0.0
 11
4357.1945235478042378
 21
204.7396360502604864
 31
0.0
  0
ARC
  5
F9C7
  8
0
 10
4357.1753175699213898
 20
204.5983681255237912
 30
0.0
 40
0.019210627588701
 50
309.5371955811791054
 51
358.7393679622409195
  0
ARC
  5
F9C8
  8
0
 10
4357.173309424627405
 20
204.602041634265305
 30
0.0
 40
0.0233353914486624
 50
274.8781148119031172
 51
307.5976801598891939
  0
ARC
  5
F9C9
  8
0
 10
4357.1753175699213898
 20
204.7392134086817066
 30
0.0
 40
0.019210627588701
 50
1.2606320377591369
 51
50.4628044188208804
  0
ARC
  5
F9CA
  8
0
 10
4357.173309424627405
 20
204.7355398999401075
 30
0.0
 40
0.0233353914486624
 50
52.4023198401108488
 51
85.1218851880968828
  0
LINE
  5
F9CB
  8
0
 10
4357.0368471414039959
 20
204.5987907671027131
 30
0.0
 11
4357.0368471414039959
 21
204.7387907671026994
 31
0.0
  0
ARC
  5
F9CC
  8
0
 10
4357.0145294494159316
 20
204.6006709896714142
 30
0.0
 40
0.0223967545106538
 50
282.3291148834189244
 51
355.1843129313803047
  0
ARC
  5
F9CD
  8
0
 10
4357.0145294494159316
 20
204.736910544534112
 30
0.0
 40
0.0223967545106538
 50
4.8156870686181081
 51
77.6708851165811041
  0
LINE
  5
F9CE
  8
0
 10
4357.0044940431043869
 20
204.5987907671027131
 30
0.0
 11
4357.0044940431043869
 21
204.7387907671026994
 31
0.0
  0
ARC
  5
F9CF
  8
0
 10
4356.9567745329050013
 20
204.5991735058485119
 30
0.0
 40
0.0477210450707086
 50
349.1313994213509773
 51
359.5404637541752209
  0
ARC
  5
F9D0
  8
0
 10
4357.0178071938817084
 20
204.5874551516915005
 30
0.0
 40
0.0144264048376814
 50
169.1313988391252963
 51
216.9123145300654869
  0
ARC
  5
F9D1
  8
0
 10
4356.9567745329050013
 20
204.7384080283569858
 30
0.0
 40
0.0477210450707086
 50
0.459536245824816
 51
10.8686005786490103
  0
ARC
  5
F9D2
  8
0
 10
4357.0178071938817084
 20
204.7501263825139972
 30
0.0
 40
0.0144264048376814
 50
143.0876854699345131
 51
190.8686011608747037
  0
LINE
  5
F9D3
  8
0
 10
4353.6243682581043686
 20
207.3547907671027133
 30
0.0
 11
4359.8743682581043686
 21
207.3547907671027133
 31
0.0
  0
LINE
  5
F9D4
  8
0
 10
4353.6943575968316509
 20
206.294790767102711
 30
0.0
 11
4359.8043789193761768
 21
206.294790767102711
 31
0.0
  0
LINE
  5
F9D5
  8
0
 10
4355.9623682581031971
 20
205.3187907671027119
 30
0.0
 11
4357.5263682581044122
 21
205.3187907671027119
 31
0.0
  0
LINE
  5
F9D6
  8
0
 10
4356.1488682581048124
 20
204.8187907671027972
 30
0.0
 11
4357.359868258104143
 21
204.8187907671027972
 31
0.0
  0
LINE
  5
F9D7
  8
0
 10
4353.6243682581043686
 20
207.3547907671027133
 30
0.0
 11
4353.6243682581043686
 21
206.3635690986027953
 31
0.0
  0
ARC
  5
F9D8
  8
0
 10
4353.6943575968316509
 20
206.3647907671723942
 30
0.0
 40
0.0700000000695877
 50
181.0000000964041931
 51
269.9999999767068175
  0
LINE
  5
F9D9
  8
0
 10
4357.5363682581046305
 20
206.234790767102794
 30
0.0
 11
4357.5363682581046305
 21
205.608790767102704
 31
0.0
  0
LINE
  5
F9DA
  8
0
 10
4357.5363682581046305
 20
205.5987907671027131
 30
0.0
 11
4357.5363682581046305
 21
205.3287907671027028
 31
0.0
  0
LINE
  5
F9DB
  8
0
 10
4357.3698682581043613
 20
205.3087907671026926
 30
0.0
 11
4357.3698682581043613
 21
204.8287907671027028
 31
0.0
  0
ARC
  5
F9DC
  8
0
 10
4357.5263682581044122
 20
205.3287907671027028
 30
0.0
 40
0.0099999999999962
 50
270.0000028647586987
 51
0.0000000000195413
  0
ARC
  5
F9DD
  8
0
 10
4357.3798682581045796
 20
205.3087907671026926
 30
0.0
 40
0.0100000000000087
 50
90.0
 51
179.9999999999787974
  0
ARC
  5
F9DE
  8
0
 10
4357.359868258104143
 20
204.8287907671027028
 30
0.0
 40
0.0100000000000016
 50
270.0000045836659979
 51
359.9999999999902229
  0
LINE
  5
F9DF
  8
0
 10
4357.7193682581046232
 20
206.234790767102794
 30
0.0
 11
4355.7793682581041139
 21
206.234790767102794
 31
0.0
  0
LINE
  5
F9E0
  8
0
 10
4357.7493682581043686
 20
206.2847907671026917
 30
0.0
 11
4357.7493682581043686
 21
206.2647907671027099
 31
0.0
  0
ARC
  5
F9E1
  8
0
 10
4357.7393682581041503
 20
206.2847907671026917
 30
0.0
 40
0.0099999999999909
 50
359.999999999949523
 51
90.0
  0
ARC
  5
F9E2
  8
0
 10
4357.7193682581046232
 20
206.2647907671027099
 30
0.0
 40
0.0299999999999994
 50
270.0
 51
0.0
  0
LINE
  5
F9E3
  8
0
 10
4357.5363682581046305
 20
205.608790767102704
 30
0.0
 11
4355.9623682581031971
 21
205.608790767102704
 31
0.0
  0
ARC
  5
F9E4
  8
0
 10
4357.5263682581044122
 20
205.5987907671027131
 30
0.0
 40
0.0099999999999953
 50
0.0000000000097707
 51
90.0
  0
LINE
  5
F9E5
  8
0
 10
4359.8743682581043686
 20
207.3547907671027133
 30
0.0
 11
4359.8743682581043686
 21
206.3635690986027953
 31
0.0
  0
ARC
  5
F9E6
  8
0
 10
4359.8043789193761768
 20
206.3647907671723942
 30
0.0
 40
0.0700000000695877
 50
270.0000000232931825
 51
358.9999999035957785
  0
LINE
  5
F9E7
  8
0
 10
4355.9623682581031971
 20
206.234790767102794
 30
0.0
 11
4355.9623682581031971
 21
205.608790767102704
 31
0.0
  0
LINE
  5
F9E8
  8
0
 10
4355.9623682581031971
 20
205.5987907671027131
 30
0.0
 11
4355.9623682581031971
 21
205.3287907671027028
 31
0.0
  0
LINE
  5
F9E9
  8
0
 10
4356.1288682581043759
 20
205.3087907671026926
 30
0.0
 11
4356.1288682581043759
 21
204.8287907671027028
 31
0.0
  0
ARC
  5
F9EA
  8
0
 10
4355.9723682581043249
 20
205.3287907671027028
 30
0.0
 40
0.0099999999999962
 50
179.9999999999787974
 51
269.9999971352413013
  0
ARC
  5
F9EB
  8
0
 10
4356.1188682581041576
 20
205.3087907671026926
 30
0.0
 40
0.0100000000000087
 50
0.0000000000195413
 51
90.0
  0
ARC
  5
F9EC
  8
0
 10
4356.1388682581045941
 20
204.8287907671027028
 30
0.0
 40
0.0100000000000016
 50
180.0000000000098055
 51
269.9999954163340021
  0
LINE
  5
F9ED
  8
0
 10
4355.7493682581052781
 20
206.2847907671026917
 30
0.0
 11
4355.7493682581052781
 21
206.2647907671027099
 31
0.0
  0
ARC
  5
F9EE
  8
0
 10
4355.7593682581036774
 20
206.2847907671026917
 30
0.0
 40
0.0099999999999909
 50
90.0
 51
180.0000000000505054
  0
ARC
  5
F9EF
  8
0
 10
4355.7793682581041139
 20
206.2647907671027099
 30
0.0
 40
0.0299999999999994
 50
180.0
 51
270.0
  0
ARC
  5
F9F0
  8
0
 10
4355.9723682581043249
 20
205.5987907671027131
 30
0.0
 40
0.0099999999999953
 50
90.0
 51
179.9999999999901945
  0
ENDSEC
  0
EOF
