  0
SECTION
  2
HEADER
  9
$ACADVER
  1
AC1009
  9
$INSBASE
 10
5398.8785798046546915
 20
-28.2313638185976785
 30
0.0
  9
$EXTMIN
 10
5397.6335798046548007
 20
-30.26200615509768
 30
0.0
  9
$EXTMAX
 10
5400.1235798046564014
 20
-28.2266265551108191
 30
0.0
  9
$LIMMIN
 10
0.0
 20
0.0
  9
$LIMMAX
 10
11.6929133858000007
 20
8.2677165353999982
  9
$ORTHOMODE
 70
     0
  9
$REGENMODE
 70
     1
  9
$FILLMODE
 70
     1
  9
$QTEXTMODE
 70
     0
  9
$MIRRTEXT
 70
     0
  9
$DRAGMODE
 70
     2
  9
$LTSCALE
 40
0.6431102362
  9
$OSMODE
 70
  4095
  9
$ATTMODE
 70
     1
  9
$TEXTSIZE
 40
0.2
  9
$TRACEWID
 40
0.05
  9
$TEXTSTYLE
  7
STANDARD
  9
$CLAYER
  8
0
  9
$CELTYPE
  6
BYLAYER
  9
$CECOLOR
 62
   256
  9
$DIMSCALE
 40
1.0
  9
$DIMASZ
 40
0.1875
  9
$DIMEXO
 40
0.0625
  9
$DIMDLI
 40
0.4443307087
  9
$DIMRND
 40
0.0
  9
$DIMDLE
 40
0.0
  9
$DIMEXE
 40
0.125
  9
$DIMTP
 40
0.01
  9
$DIMTM
 40
0.01
  9
$DIMTXT
 40
2.0
  9
$DIMCEN
 40
0.1052362205
  9
$DIMTSZ
 40
0.0
  9
$DIMTOL
 70
     1
  9
$DIMLIM
 70
     0
  9
$DIMTIH
 70
     1
  9
$DIMTOH
 70
     1
  9
$DIMSE1
 70
     0
  9
$DIMSE2
 70
     0
  9
$DIMTAD
 70
     0
  9
$DIMZIN
 70
     0
  9
$DIMBLK
  1

  9
$DIMASO
 70
     1
  9
$DIMSHO
 70
     1
  9
$DIMPOST
  1
\X
  9
$DIMAPOST
  1

  9
$DIMALT
 70
     1
  9
$DIMALTD
 70
     2
  9
$DIMALTF
 40
25.3999999999999986
  9
$DIMLFAC
 40
1.0
  9
$DIMTOFL
 70
     0
  9
$DIMTVP
 40
0.0
  9
$DIMTIX
 70
     0
  9
$DIMSOXD
 70
     0
  9
$DIMSAH
 70
     0
  9
$DIMBLK1
  1

  9
$DIMBLK2
  1

  9
$DIMSTYLE
  2
STANDARD
  9
$DIMCLRD
 70
     0
  9
$DIMCLRE
 70
     0
  9
$DIMCLRT
 70
     0
  9
$DIMTFAC
 40
1.0
  9
$DIMGAP
 40
0.09
  9
$LUNITS
 70
     2
  9
$LUPREC
 70
     4
  9
$SKETCHINC
 40
0.1
  9
$FILLETRAD
 40
0.0
  9
$AUNITS
 70
     0
  9
$AUPREC
 70
     0
  9
$MENU
  1
.
  9
$ELEVATION
 40
0.0
  9
$PELEVATION
 40
0.0
  9
$THICKNESS
 40
0.0
  9
$LIMCHECK
 70
     0
  9
$BLIPMODE
 70
     0
  9
$CHAMFERA
 40
0.0
  9
$CHAMFERB
 40
0.0
  9
$SKPOLY
 70
     0
  9
$TDCREATE
 40
2458060.468368056230247
  9
$TDUPDATE
 40
2460111.7155324080958962
  9
$TDINDWG
 40
0.6068010417
  9
$TDUSRTIMER
 40
0.6068010417
  9
$USRTIMER
 70
     1
  9
$ANGBASE
 50
0.0
  9
$ANGDIR
 70
     0
  9
$PDMODE
 70
     0
  9
$PDSIZE
 40
0.3125
  9
$PLINEWID
 40
0.0
  9
$COORDS
 70
     1
  9
$SPLFRAME
 70
     0
  9
$SPLINETYPE
 70
     6
  9
$SPLINESEGS
 70
     8
  9
$ATTDIA
 70
     1
  9
$ATTREQ
 70
     1
  9
$HANDLING
 70
     1
  9
$HANDSEED
  5
23251
  9
$SURFTAB1
 70
     6
  9
$SURFTAB2
 70
     6
  9
$SURFTYPE
 70
     6
  9
$SURFU
 70
     6
  9
$SURFV
 70
     6
  9
$UCSNAME
  2

  9
$UCSORG
 10
0.0
 20
0.0
 30
0.0
  9
$UCSXDIR
 10
1.0
 20
0.0
 30
0.0
  9
$UCSYDIR
 10
0.0
 20
1.0
 30
0.0
  9
$PUCSNAME
  2

  9
$PUCSORG
 10
0.0
 20
0.0
 30
0.0
  9
$PUCSXDIR
 10
1.0
 20
0.0
 30
0.0
  9
$PUCSYDIR
 10
0.0
 20
1.0
 30
0.0
  9
$USERI1
 70
     0
  9
$USERI2
 70
     0
  9
$USERI3
 70
     0
  9
$USERI4
 70
     0
  9
$USERI5
 70
     0
  9
$USERR1
 40
0.0
  9
$USERR2
 40
0.0
  9
$USERR3
 40
0.0
  9
$USERR4
 40
0.0
  9
$USERR5
 40
0.0
  9
$WORLDVIEW
 70
     1
  9
$SHADEDGE
 70
     3
  9
$SHADEDIF
 70
    70
  9
$TILEMODE
 70
     1
  9
$MAXACTVP
 70
    64
  9
$PLIMCHECK
 70
     0
  9
$PEXTMIN
 10
1.0000000000000000E+20
 20
1.0000000000000000E+20
 30
1.0000000000000000E+20
  9
$PEXTMAX
 10
-1.0000000000000000E+20
 20
-1.0000000000000000E+20
 30
-1.0000000000000000E+20
  9
$PLIMMIN
 10
0.0
 20
0.0
  9
$PLIMMAX
 10
12.0
 20
9.0
  9
$UNITMODE
 70
     0
  9
$VISRETAIN
 70
     1
  9
$PLINEGEN
 70
     0
  9
$PSLTSCALE
 70
     1
  0
ENDSEC
  0
SECTION
  2
TABLES
  0
TABLE
  2
VPORT
 70
     1
  0
VPORT
  2
*ACTIVE
 70
     0
 10
0.0
 20
0.0
 11
1.0
 21
1.0
 12
1606.5206696484060558
 22
-149.4249727882096863
 13
0.0
 23
0.0
 14
1.0
 24
1.0
 15
0.0
 25
0.0
 16
0.0
 26
0.0
 36
5.1040778033513332
 17
3792.35791015625
 27
120.1806564331053977
 37
0.0
 40
2.0536341255472621
 41
2.8398203592814371
 42
50.0
 43
0.0
 44
0.0
 50
0.0
 51
0.0
 71
     0
 72
   100
 73
     1
 74
     1
 75
     0
 76
     0
 77
     0
 78
     0
  0
ENDTAB
  0
TABLE
  2
LTYPE
 70
     2
  0
LTYPE
  2
CONTINUOUS
 70
     0
  3
Solid line
 72
    65
 73
     0
 40
0.0
  0
LTYPE
  2
PHANTOM2
 70
     0
  3
___ _ _ ___ _ _ ___ _ _ ___ _ _
 72
    65
 73
     6
 40
1.25
 49
0.625
 49
-0.125
 49
0.125
 49
-0.125
 49
0.125
 49
-0.125
  0
ENDTAB
  0
TABLE
  2
LAYER
 70
     2
  0
LAYER
  2
0
 70
     0
 62
   255
  6
CONTINUOUS
  0
LAYER
  2
DEFPOINTS
 70
     0
 62
     7
  6
CONTINUOUS
  0
ENDTAB
  0
TABLE
  2
STYLE
 70
     1
  0
STYLE
  2
STANDARD
 70
     0
 40
0.0
 41
0.8
 50
0.0
 71
     0
 42
0.2
  3
txt
  4

  0
ENDTAB
  0
TABLE
  2
VIEW
 70
     0
  0
ENDTAB
  0
TABLE
  2
UCS
 70
     0
  0
ENDTAB
  0
TABLE
  2
APPID
 70
     9
  0
APPID
  2
ACAD
 70
     0
  0
APPID
  2
ACAD_MLEADERVER
 70
     0
  0
APPID
  2
ACAD_EXEMPT_FROM_CAD_STANDARDS
 70
     0
  0
APPID
  2
ACAD_NAV_VCDISPLAY
 70
     0
  0
APPID
  2
ACAECLAYERSTANDARD
 70
     0
  0
APPID
  2
ACCMTRANSPARENCY
 70
     0
  0
APPID
  2
ACAD_DSTYLE_DIMJAG
 70
     0
  0
APPID
  2
ACAD_DSTYLE_DIMTALN
 70
     0
  0
APPID
  2
ACDBATTR
 70
     0
  0
ENDTAB
  0
TABLE
  2
DIMSTYLE
 70
     1
  0
DIMSTYLE
  2
STANDARD
 70
     0
  3

  4

  5

  6

  7

 40
1.0
 41
0.1875
 42
0.0625
 43
0.38
 44
0.125
 45
0.0
 46
0.0
 47
0.01
 48
0.01
140
0.15625
141
0.09
142
0.0
143
25.3999999999999986
144
1.0
145
0.0
146
1.0
147
0.09
 71
     1
 72
     0
 73
     1
 74
     1
 75
     0
 76
     0
 77
     0
 78
     4
170
     0
171
     2
172
     0
173
     0
174
     0
175
     0
176
     0
177
     0
178
     0
  0
ENDTAB
  0
ENDSEC
  0
SECTION
  2
BLOCKS
  0
BLOCK
  8
0
  2
$MODEL_SPACE
 70
     0
 10
0.0
 20
0.0
 30
0.0
  3
$MODEL_SPACE
  1

  0
ENDBLK
  5
21
  8
0
  0
BLOCK
 67
     1
  8
0
  2
$PAPER_SPACE
 70
     0
 10
0.0
 20
0.0
 30
0.0
  3
$PAPER_SPACE
  1

  0
ENDBLK
  5
1D
 67
     1
  8
0
  0
BLOCK
  8
0
  2
_FILLED
 70
     0
 10
0.0
 20
0.0
 30
0.0
  3
_FILLED
  1

  0
SOLID
  5
1CA7B
  8
0
  6
BYBLOCK
 62
     0
 10
0.0
 20
0.0
 30
0.0
 11
-1.0
 21
0.1666666667
 31
0.0
 12
-1.0
 22
-0.1666666667
 32
0.0
 13
-1.0
 23
-0.1666666667
 33
0.0
  0
ENDBLK
  5
1CA7C
  8
0
  6
BYBLOCK
 62
     0
  0
ENDSEC
  0
SECTION
  2
ENTITIES
  0
ATTDEF
  5
3930
  8
DEFPOINTS
 10
5398.8685447340212704
 20
-28.2276265551108203
 30
0.0
 40
0.001
  1
P21435-00
  3

  2
MODELNUMBER
 70
     0
1001
ACDBATTR
1070
     0
1070
     1
  0
ATTDEF
  5
3931
  8
DEFPOINTS
 10
5398.8685447340212704
 20
-28.2292932217774784
 30
0.0
 40
0.001
  1

  3

  2
TRADENAME
 70
     0
1001
ACDBATTR
1070
     0
1070
     1
  0
ATTDEF
  5
3932
  8
DEFPOINTS
 10
5398.8685447340212704
 20
-28.2309598884441506
 30
0.0
 40
0.001
  1
DIVERTER VALVE
  3

  2
PRODUCT
 70
     0
1001
ACDBATTR
1070
     0
1070
     1
  0
LINE
  5
22C79
  8
0
 10
5397.6835798046558921
 20
-28.2313638185976785
 30
0.0
 11
5400.0735798046562195
 21
-28.2313638185976785
 31
0.0
  0
LINE
  5
22C7A
  8
0
 10
5397.6335798046548007
 20
-28.3836861160931306
 30
0.0
 11
5397.6335798046548007
 21
-28.2813638185976792
 31
0.0
  0
LINE
  5
22C7B
  8
0
 10
5397.6697979361588295
 20
-28.4317492006976806
 30
0.0
 11
5400.087361673153282
 21
-28.4317492006976806
 31
0.0
  0
LINE
  5
22C7C
  8
0
 10
5398.1035748055937802
 20
-28.6720061550976801
 30
0.0
 11
5399.6535848037192409
 21
-28.6720061550976801
 31
0.0
  0
LINE
  5
22C7D
  8
0
 10
5398.0585798046558921
 20
-29.7364517379976796
 30
0.0
 11
5398.0585798046558921
 21
-28.7170061552940616
 31
0.0
  0
LINE
  5
22C7E
  8
0
 10
5398.108579804656074
 20
-30.0220061550976816
 30
0.0
 11
5399.6485798046560376
 21
-30.0220061550976816
 31
0.0
  0
LINE
  5
22C7F
  8
0
 10
5398.2085798046618947
 20
-30.1120061550976814
 30
0.0
 11
5399.5485798046502168
 21
-30.1120061550976814
 31
0.0
  0
LINE
  5
22C80
  8
0
 10
5398.2635798046549098
 20
-30.1549495282976814
 30
0.0
 11
5399.4935798046562923
 21
-30.1549495282976814
 31
0.0
  0
LINE
  5
22C81
  8
0
 10
5398.0979484915569628
 20
-29.9959095652976799
 30
0.0
 11
5399.6592111177560582
 21
-29.9959095652976799
 31
0.0
  0
LINE
  5
22C82
  8
0
 10
5397.6697979368727829
 20
-28.4317492009026083
 30
0.0
 11
5398.1158871667539643
 21
-28.5596632292257802
 31
0.0
  0
ARC
  5
22C83
  8
0
 10
5397.683579804668625
 20
-28.3836861160931306
 30
0.0
 40
0.0500000000136202
 50
180.0000000052230007
 51
253.9999999773503134
  0
ARC
  5
22C84
  8
0
 10
5397.6835798046558921
 20
-28.2813638185976792
 30
0.0
 40
0.0500000000000007
 50
90.0
 51
179.9999999999978968
  0
ARC
  5
22C85
  8
0
 10
5398.0910798047543722
 20
-28.646176781764769
 30
0.0
 40
0.0899999999016649
 50
359.9999999790518928
 51
74.0000000627349692
  0
LINE
  5
22C86
  8
0
 10
5398.1810798046572017
 20
-28.646176781764769
 30
0.0
 11
5398.1810798046572017
 21
-28.6720061550976801
 31
0.0
  0
ARC
  5
22C87
  8
0
 10
5398.1035798051298116
 20
-28.7170061552940616
 30
0.0
 40
0.0450000004741007
 50
90.0063656076073357
 51
179.9999997499683104
  0
ARC
  5
22C88
  8
0
 10
5398.0285798046561467
 20
-29.7364517379976796
 30
0.0
 40
0.0299999999999994
 50
284.4775121861989078
 51
0.0
  0
ARC
  5
22C89
  8
0
 10
5398.0635798046450873
 20
-29.872006155106309
 30
0.0
 40
0.1099999999888619
 50
104.4775121813557064
 51
255.5224878188053879
  0
LINE
  5
22C8A
  8
0
 10
5398.0360798046558557
 20
-29.9785131970976799
 30
0.0
 11
5398.0979484915569628
 21
-29.9959095652976799
 31
0.0
  0
ARC
  5
22C8B
  8
0
 10
5398.0935798045520642
 20
-30.0102592892323017
 30
0.0
 40
0.0150000001048785
 50
0.0000001322363699
 51
73.0674451269053407
  0
LINE
  5
22C8C
  8
0
 10
5398.108579804656074
 20
-30.0102592892323017
 30
0.0
 11
5398.108579804656074
 21
-30.0220061550976816
 31
0.0
  0
ARC
  5
22C8D
  8
0
 10
5398.0764441198743953
 20
-30.1582680270853096
 30
0.0
 40
0.1399999999783654
 50
19.2956018106365406
 51
76.7299732030664501
  0
LINE
  5
22C8E
  8
0
 10
5398.2635798046549098
 20
-30.1549495282976814
 30
0.0
 11
5398.2635798046549098
 21
-30.1120061550976814
 31
0.0
  0
LINE
  5
22C8F
  8
0
 10
5400.1235798046564014
 20
-28.3836861160931306
 30
0.0
 11
5400.1235798046564014
 21
-28.2813638185976792
 31
0.0
  0
LINE
  5
22C90
  8
0
 10
5399.6985798046562195
 20
-29.7364517379976796
 30
0.0
 11
5399.6985798046562195
 21
-28.7170061552940616
 31
0.0
  0
LINE
  5
22C91
  8
0
 10
5400.0873616724384192
 20
-28.4317492009026083
 30
0.0
 11
5399.6412724425581473
 21
-28.5596632292257802
 31
0.0
  0
ARC
  5
22C92
  8
0
 10
5400.0735798046425771
 20
-28.3836861160931306
 30
0.0
 40
0.0500000000136202
 50
286.0000000226494876
 51
359.9999999947767719
  0
ARC
  5
22C93
  8
0
 10
5400.0735798046562195
 20
-28.2813638185976792
 30
0.0
 40
0.0500000000000007
 50
0.0000000000020356
 51
90.0
  0
ARC
  5
22C94
  8
0
 10
5399.6660798045577394
 20
-28.646176781764769
 30
0.0
 40
0.0899999999016649
 50
105.9999999372650024
 51
180.0000000209479083
  0
LINE
  5
22C95
  8
0
 10
5399.5760798046558193
 20
-28.646176781764769
 30
0.0
 11
5399.5760798046558193
 21
-28.6720061550976801
 31
0.0
  0
ARC
  5
22C96
  8
0
 10
5399.6535798041832095
 20
-28.7170061552940616
 30
0.0
 40
0.0450000004741007
 50
0.0000002500316984
 51
89.9936343923926643
  0
ARC
  5
22C97
  8
0
 10
5399.7285798046559648
 20
-29.7364517379976796
 30
0.0
 40
0.0299999999999994
 50
180.0
 51
255.5224878138010922
  0
ARC
  5
22C98
  8
0
 10
5399.6935798046670243
 20
-29.872006155106309
 30
0.0
 40
0.1099999999888619
 50
284.4775121811945837
 51
75.5224878186442368
  0
LINE
  5
22C99
  8
0
 10
5399.7210798046562559
 20
-29.9785131970976799
 30
0.0
 11
5399.6592111177560582
 21
-29.9959095652976799
 31
0.0
  0
ARC
  5
22C9A
  8
0
 10
5399.6635798047609569
 20
-30.0102592892323017
 30
0.0
 40
0.0150000001048785
 50
106.932554873094702
 51
179.9999998677635915
  0
LINE
  5
22C9B
  8
0
 10
5399.6485798046560376
 20
-30.0102592892323017
 30
0.0
 11
5399.6485798046560376
 21
-30.0220061550976816
 31
0.0
  0
ARC
  5
22C9C
  8
0
 10
5399.6807154894377163
 20
-30.1582680270853096
 30
0.0
 40
0.1399999999783654
 50
103.2700267969334931
 51
160.7043981893635021
  0
LINE
  5
22C9D
  8
0
 10
5399.4935798046562923
 20
-30.1549495282976814
 30
0.0
 11
5399.4935798046562923
 21
-30.1120061550976814
 31
0.0
  0
LINE
  5
22C9E
  8
0
 10
5398.0360798046558557
 20
-29.7654991130942008
 30
0.0
 11
5399.7210798046562559
 21
-29.7654991130942008
 31
0.0
  0
ARC
  5
22C9F
  8
0
 10
5398.8785798046546915
 20
-28.4420061560794402
 30
0.0
 40
1.8199999990182401
 50
250.2502818537620044
 51
289.749718146238024
  0
ENDSEC
  0
EOF
