  0
SECTION
  2
HEADER
  9
$ACADVER
  1
AC1009
  9
$INSBASE
 10
4258.0732491634653343
 20
98.5806419215680165
 30
0.0
  9
$EXTMIN
 10
4248.6632969794427481
 20
93.1190608673430091
 30
-0.0000000000000058
  9
$EXTMAX
 10
4258.0848399609849366
 20
99.7717270959388998
 30
0.0000000000000104
  9
$LIMMIN
 10
0.0
 20
0.0
  9
$LIMMAX
 10
11.6929133858000007
 20
8.2677165353999982
  9
$ORTHOMODE
 70
     0
  9
$REGENMODE
 70
     1
  9
$FILLMODE
 70
     1
  9
$QTEXTMODE
 70
     0
  9
$MIRRTEXT
 70
     0
  9
$DRAGMODE
 70
     2
  9
$LTSCALE
 40
0.6431102362
  9
$OSMODE
 70
  4095
  9
$ATTMODE
 70
     1
  9
$TEXTSIZE
 40
0.2
  9
$TRACEWID
 40
0.05
  9
$TEXTSTYLE
  7
STANDARD
  9
$CLAYER
  8
0
  9
$CELTYPE
  6
BYLAYER
  9
$CECOLOR
 62
   256
  9
$DIMSCALE
 40
1.0
  9
$DIMASZ
 40
0.1875
  9
$DIMEXO
 40
0.0625
  9
$DIMDLI
 40
0.4443307087
  9
$DIMRND
 40
0.0
  9
$DIMDLE
 40
0.0
  9
$DIMEXE
 40
0.125
  9
$DIMTP
 40
0.01
  9
$DIMTM
 40
0.01
  9
$DIMTXT
 40
2.0
  9
$DIMCEN
 40
0.1052362205
  9
$DIMTSZ
 40
0.0
  9
$DIMTOL
 70
     1
  9
$DIMLIM
 70
     0
  9
$DIMTIH
 70
     1
  9
$DIMTOH
 70
     1
  9
$DIMSE1
 70
     0
  9
$DIMSE2
 70
     0
  9
$DIMTAD
 70
     0
  9
$DIMZIN
 70
     0
  9
$DIMBLK
  1

  9
$DIMASO
 70
     1
  9
$DIMSHO
 70
     1
  9
$DIMPOST
  1
\X
  9
$DIMAPOST
  1

  9
$DIMALT
 70
     1
  9
$DIMALTD
 70
     2
  9
$DIMALTF
 40
25.3999999999999986
  9
$DIMLFAC
 40
1.0
  9
$DIMTOFL
 70
     0
  9
$DIMTVP
 40
0.0
  9
$DIMTIX
 70
     0
  9
$DIMSOXD
 70
     0
  9
$DIMSAH
 70
     0
  9
$DIMBLK1
  1

  9
$DIMBLK2
  1

  9
$DIMSTYLE
  2
STANDARD
  9
$DIMCLRD
 70
     0
  9
$DIMCLRE
 70
     0
  9
$DIMCLRT
 70
     0
  9
$DIMTFAC
 40
1.0
  9
$DIMGAP
 40
0.09
  9
$LUNITS
 70
     2
  9
$LUPREC
 70
     4
  9
$SKETCHINC
 40
0.1
  9
$FILLETRAD
 40
0.0
  9
$AUNITS
 70
     0
  9
$AUPREC
 70
     0
  9
$MENU
  1
.
  9
$ELEVATION
 40
0.0
  9
$PELEVATION
 40
0.0
  9
$THICKNESS
 40
0.0
  9
$LIMCHECK
 70
     0
  9
$BLIPMODE
 70
     0
  9
$CHAMFERA
 40
0.0
  9
$CHAMFERB
 40
0.0
  9
$SKPOLY
 70
     0
  9
$TDCREATE
 40
2458060.468368056230247
  9
$TDUPDATE
 40
2459480.694328703917563
  9
$TDINDWG
 40
0.3333982639
  9
$TDUSRTIMER
 40
0.3333982639
  9
$USRTIMER
 70
     1
  9
$ANGBASE
 50
0.0
  9
$ANGDIR
 70
     0
  9
$PDMODE
 70
     0
  9
$PDSIZE
 40
0.3125
  9
$PLINEWID
 40
0.0
  9
$COORDS
 70
     1
  9
$SPLFRAME
 70
     0
  9
$SPLINETYPE
 70
     6
  9
$SPLINESEGS
 70
     8
  9
$ATTDIA
 70
     1
  9
$ATTREQ
 70
     1
  9
$HANDLING
 70
     1
  9
$HANDSEED
  5
AB59
  9
$SURFTAB1
 70
     6
  9
$SURFTAB2
 70
     6
  9
$SURFTYPE
 70
     6
  9
$SURFU
 70
     6
  9
$SURFV
 70
     6
  9
$UCSNAME
  2

  9
$UCSORG
 10
0.0
 20
0.0
 30
0.0
  9
$UCSXDIR
 10
1.0
 20
0.0
 30
0.0
  9
$UCSYDIR
 10
0.0
 20
1.0
 30
0.0
  9
$PUCSNAME
  2

  9
$PUCSORG
 10
0.0
 20
0.0
 30
0.0
  9
$PUCSXDIR
 10
1.0
 20
0.0
 30
0.0
  9
$PUCSYDIR
 10
0.0
 20
1.0
 30
0.0
  9
$USERI1
 70
     0
  9
$USERI2
 70
     0
  9
$USERI3
 70
     0
  9
$USERI4
 70
     0
  9
$USERI5
 70
     0
  9
$USERR1
 40
0.0
  9
$USERR2
 40
0.0
  9
$USERR3
 40
0.0
  9
$USERR4
 40
0.0
  9
$USERR5
 40
0.0
  9
$WORLDVIEW
 70
     1
  9
$SHADEDGE
 70
     3
  9
$SHADEDIF
 70
    70
  9
$TILEMODE
 70
     1
  9
$MAXACTVP
 70
    64
  9
$PLIMCHECK
 70
     0
  9
$PEXTMIN
 10
1.0000000000000000E+20
 20
1.0000000000000000E+20
 30
1.0000000000000000E+20
  9
$PEXTMAX
 10
-1.0000000000000000E+20
 20
-1.0000000000000000E+20
 30
-1.0000000000000000E+20
  9
$PLIMMIN
 10
0.0
 20
0.0
  9
$PLIMMAX
 10
12.0
 20
9.0
  9
$UNITMODE
 70
     0
  9
$VISRETAIN
 70
     1
  9
$PLINEGEN
 70
     0
  9
$PSLTSCALE
 70
     1
  0
ENDSEC
  0
SECTION
  2
TABLES
  0
TABLE
  2
VPORT
 70
     1
  0
VPORT
  2
*ACTIVE
 70
     0
 10
0.0
 20
0.0
 11
1.0
 21
1.0
 12
-11.6322791860356993
 22
-7.8586183169430219
 13
0.0
 23
0.0
 14
1.0
 24
1.0
 15
0.0
 25
0.0
 16
0.0
 26
0.0
 36
122.0237731519760018
 17
4265.00634765625
 27
104.3040122985839986
 37
0.0
 40
6.7053954193112979
 41
1.67063492063492
 42
50.0
 43
0.0
 44
0.0
 50
0.0
 51
0.0
 71
     0
 72
   100
 73
     1
 74
     1
 75
     0
 76
     0
 77
     0
 78
     0
  0
ENDTAB
  0
TABLE
  2
LTYPE
 70
     2
  0
LTYPE
  2
CONTINUOUS
 70
     0
  3
Solid line
 72
    65
 73
     0
 40
0.0
  0
LTYPE
  2
PHANTOM2
 70
     0
  3
___ _ _ ___ _ _ ___ _ _ ___ _ _
 72
    65
 73
     6
 40
1.25
 49
0.625
 49
-0.125
 49
0.125
 49
-0.125
 49
0.125
 49
-0.125
  0
ENDTAB
  0
TABLE
  2
LAYER
 70
     2
  0
LAYER
  2
0
 70
     0
 62
   255
  6
CONTINUOUS
  0
LAYER
  2
DEFPOINTS
 70
     0
 62
     7
  6
CONTINUOUS
  0
ENDTAB
  0
TABLE
  2
STYLE
 70
     1
  0
STYLE
  2
STANDARD
 70
     0
 40
0.0
 41
0.8
 50
0.0
 71
     0
 42
0.2
  3
txt
  4

  0
ENDTAB
  0
TABLE
  2
VIEW
 70
     0
  0
ENDTAB
  0
TABLE
  2
UCS
 70
     0
  0
ENDTAB
  0
TABLE
  2
APPID
 70
    10
  0
APPID
  2
ACAD
 70
     0
  0
APPID
  2
ACAD_MLEADERVER
 70
     0
  0
APPID
  2
ACAD_EXEMPT_FROM_CAD_STANDARDS
 70
     0
  0
APPID
  2
ACAD_NAV_VCDISPLAY
 70
     0
  0
APPID
  2
ACAECLAYERSTANDARD
 70
     0
  0
APPID
  2
ACCMTRANSPARENCY
 70
     0
  0
APPID
  2
ACAD_DSTYLE_DIMJAG
 70
     0
  0
APPID
  2
ACAD_DSTYLE_DIMTALN
 70
     0
  0
APPID
  2
ACDBATTR
 70
     0
  0
APPID
  2
DCO15
 70
     0
  0
ENDTAB
  0
TABLE
  2
DIMSTYLE
 70
     1
  0
DIMSTYLE
  2
STANDARD
 70
     0
  3

  4

  5

  6

  7

 40
1.0
 41
0.1875
 42
0.0625
 43
0.38
 44
0.125
 45
0.0
 46
0.0
 47
0.01
 48
0.01
140
0.15625
141
0.09
142
0.0
143
25.3999999999999986
144
1.0
145
0.0
146
1.0
147
0.09
 71
     1
 72
     0
 73
     1
 74
     1
 75
     0
 76
     0
 77
     0
 78
     4
170
     0
171
     2
172
     0
173
     0
174
     0
175
     0
176
     0
177
     0
178
     0
  0
ENDTAB
  0
ENDSEC
  0
SECTION
  2
BLOCKS
  0
BLOCK
  8
0
  2
$MODEL_SPACE
 70
     0
 10
0.0
 20
0.0
 30
0.0
  3
$MODEL_SPACE
  1

  0
ENDBLK
  5
21
  8
0
  0
BLOCK
 67
     1
  8
0
  2
$PAPER_SPACE
 70
     0
 10
0.0
 20
0.0
 30
0.0
  3
$PAPER_SPACE
  1

  0
ENDBLK
  5
1D
 67
     1
  8
0
  0
ENDSEC
  0
SECTION
  2
ENTITIES
  0
ATTDEF
  5
9852
  8
DEFPOINTS
 10
4258.0739693809973687
 20
98.5812875494647045
 30
0.0
 40
0.001
  1
P21501-00
  3

  2
MODELNUMBER
 70
     0
1001
ACDBATTR
1070
     0
1070
     1
  0
ATTDEF
  5
9853
  8
DEFPOINTS
 10
4258.0739693809973687
 20
98.5796208827980251
 30
0.0
 40
0.001
  1

  3

  2
TRADENAME
 70
     0
1001
ACDBATTR
1070
     0
1070
     1
  0
ATTDEF
  5
9854
  8
DEFPOINTS
 10
4258.0739693809973687
 20
98.57795421613136
 30
0.0
 40
0.001
  1
SHOWERHEAD
  3

  2
PRODUCT
 70
     0
1001
ACDBATTR
1070
     0
1070
     1
  0
LINE
  5
A8B1
  8
0
 10
4257.6032491634650796
 20
99.7656419215680046
 30
0.0
 11
4258.0432491634655889
 21
99.7656419215680046
 31
0.0
  0
LINE
  5
A8B2
  8
0
 10
4257.6032491634650796
 20
97.395641921568
 30
0.0
 11
4258.0432491634655889
 21
97.395641921568
 31
0.0
  0
LINE
  5
A8B3
  8
0
 10
4258.0732491634653343
 20
99.7356419215680035
 30
0.0
 11
4258.0732491634653343
 21
97.4256419215680012
 31
0.0
  0
LINE
  5
A8B4
  8
0
 10
4257.5732491634653343
 20
99.7356419215680035
 30
0.0
 11
4257.5732491634653343
 21
97.4256419215680012
 31
0.0
  0
LINE
  5
A8B5
  8
0
 10
4255.0576899607476662
 20
98.1654495333680046
 30
0.0
 11
4257.5732491634653343
 21
98.1654495333680046
 31
0.0
  0
LINE
  5
A8B6
  8
0
 10
4255.0568615336705989
 20
98.9774495333680022
 30
0.0
 11
4257.5732491634653343
 21
98.9774495333680022
 31
0.0
  0
LINE
  5
A8B7
  8
0
 10
4252.7425491993153628
 20
97.6241126637179946
 30
0.0
 11
4253.4163738013176044
 21
98.2979372657207762
 31
0.0
  0
LINE
  5
A8B8
  8
0
 10
4253.3167199056651953
 20
97.0499419573680058
 30
0.0
 11
4253.9899587210766185
 21
97.723180772880184
 31
0.0
  0
ARC
  5
A8B9
  8
0
 10
4257.6032491634650796
 20
99.7356419215680035
 30
0.0
 40
0.03
 50
90.0
 51
180.0000000000032117
  0
ARC
  5
A8BA
  8
0
 10
4258.0432491634655889
 20
99.7356419215680035
 30
0.0
 40
0.03
 50
0.0
 51
90.0
  0
ARC
  5
A8BB
  8
0
 10
4257.6032491634650796
 20
97.4256419215680012
 30
0.0
 40
0.03
 50
180.000000000013813
 51
270.0
  0
ARC
  5
A8BC
  8
0
 10
4258.0432491634655889
 20
97.4256419215680012
 30
0.0
 40
0.03
 50
270.0
 51
359.9999999999894271
  0
ARC
  5
A8BD
  8
0
 10
4255.0568615336705989
 20
96.6574495333679806
 30
0.0
 40
2.319999999999999
 50
90.0
 51
135.0000000000052012
  0
ARC
  5
A8BE
  8
0
 10
4255.0576899607476662
 20
96.6554495333680137
 30
0.0
 40
1.5099999999999989
 50
90.0
 51
135.0000000042753925
  0
LINE
  5
A8BF
  8
0
 10
4252.7026067550068547
 20
97.6640551080255932
 30
0.0
 11
4253.3566714385733576
 21
97.0099904244602556
 31
0.0
  0
LINE
  5
A8C0
  8
0
 10
4252.5883999210645925
 20
97.5392598499680048
 30
0.0
 11
4252.1275136556650978
 21
97.0783735845680553
 31
0.0
  0
LINE
  5
A8C1
  8
0
 10
4252.5883999217658129
 20
97.5958283932680075
 30
0.0
 11
4252.656647875379349
 21
97.6640581687660614
 31
0.0
  0
LINE
  5
A8C2
  8
0
 10
4252.5883999217658129
 20
97.5958283932680075
 30
0.0
 11
4252.5883999210645925
 21
97.5392598499680048
 31
0.0
  0
ARC
  5
A8C3
  8
0
 10
4252.6796257846190201
 20
97.6410741376370339
 30
0.0
 40
0.0325
 50
44.9999999999982734
 51
134.992368503701698
  0
LINE
  5
A8C4
  8
0
 10
4252.1409612935212863
 20
96.9478071415121718
 30
0.0
 11
4252.6404234720594104
 21
96.4483449629736498
 31
0.0
  0
ARC
  5
A8C5
  8
0
 10
4252.3535154576493369
 20
97.0356748099843145
 30
0.0
 40
0.2299999996758244
 50
169.3011527269883061
 51
202.4596895473148948
  0
LINE
  5
A8C6
  8
0
 10
4251.6818890275626472
 20
97.2139907306705453
 30
0.0
 11
4252.9066070612179828
 21
95.9892726970152808
 31
0.0
  0
LINE
  5
A8C7
  8
0
 10
4251.6253204850681868
 20
97.2139907306705453
 30
0.0
 11
4251.4117742371026907
 21
97.0004444827063992
 31
0.0
  0
ARC
  5
A8C8
  8
0
 10
4251.6536047563158718
 20
97.1857064594230735
 30
0.0
 40
0.04
 50
44.9999999999942375
 51
135.0000000000057128
  0
LINE
  5
A8C9
  8
0
 10
4252.959999378136672
 20
95.4239350697578175
 30
0.0
 11
4251.1165571560459284
 21
97.2673772926302149
 31
0.0
  0
ARC
  5
A8CA
  8
0
 10
4251.3976321014797577
 20
97.014586618330128
 30
0.0
 40
0.02
 50
224.9999999878450012
 51
315.0000000000085834
  0
LINE
  5
A8CB
  8
0
 10
4250.7242896691459464
 20
97.2212385751486465
 30
0.0
 11
4249.5603919072646022
 21
96.0573408133684552
 31
0.0
  0
LINE
  5
A8CC
  8
0
 10
4249.4786857187827991
 20
96.0304354002889511
 30
0.0
 11
4248.8250378959000955
 21
95.3767875773933156
 31
0.0
  0
LINE
  5
A8CD
  8
0
 10
4250.8091424828862728
 20
97.2212385751468133
 30
0.0
 11
4252.9138549056951888
 21
95.1165261523390058
 31
0.0
  0
ARC
  5
A8CE
  8
0
 10
4250.7667160760147453
 20
97.178812168275627
 30
0.0
 40
0.06
 50
44.9999999999948201
 51
134.9999999975219964
  0
LINE
  5
A8CF
  8
0
 10
4249.4982018659447931
 20
96.0304354002890648
 30
0.0
 11
4251.7230517308371418
 21
93.8055855353967303
 31
0.0
  0
LINE
  5
A8D0
  8
0
 10
4249.5603919072691497
 20
96.036127609929153
 30
0.0
 11
4251.7287476928140677
 21
93.8677718257109177
 31
0.0
  0
ARC
  5
A8D1
  8
0
 10
4249.5709985089833935
 20
96.0467342116502039
 30
0.0
 40
0.015
 50
134.9999999975651974
 51
225.0000000175307946
  0
ARC
  5
A8D2
  8
0
 10
4249.4884437923637961
 20
96.0206773267086646
 30
0.0
 40
0.0138
 50
44.9999999999844604
 51
135.0000000005366019
  0
LINE
  5
A8D3
  8
0
 10
4248.825037895899186
 20
95.3200776135443988
 30
0.0
 11
4251.0126939436731845
 21
93.1324215654636021
 31
0.0
  0
ARC
  5
A8D4
  8
0
 10
4248.853392877825172
 20
95.3484325954679974
 30
0.0
 40
0.0401
 50
135.0000000005429115
 51
224.9999999959962906
  0
LINE
  5
A8D5
  8
0
 10
4251.031704342311059
 20
97.2673772926562634
 30
0.0
 11
4250.9114961894138105
 21
97.1471691398556203
 31
0.0
  0
ARC
  5
A8D6
  8
0
 10
4251.0741307491662155
 20
97.2249508857679956
 30
0.0
 40
0.06
 50
44.9999999878892609
 51
134.9999999769414956
  0
ARC
  5
A8D7
  8
0
 10
4250.897354053797244
 20
97.1613112754850334
 30
0.0
 40
0.02
 50
224.9999999999953957
 51
314.9999999769369197
  0
LINE
  5
A8D8
  8
0
 10
4249.6185514400649481
 20
95.9779680771680006
 30
0.0
 11
4249.5846103145659072
 21
95.9440269516680075
 31
0.0
  0
ARC
  5
A8D9
  8
0
 10
4252.0184718556438384
 20
96.3258646180150748
 30
0.0
 40
0.5279999954449253
 50
84.4534797816474452
 51
87.3807489762370722
  0
ARC
  5
A8DA
  8
0
 10
4252.0762708956872302
 20
96.9210648074770091
 30
0.0
 40
0.0700000000110899
 50
264.4534797816473883
 51
22.4596896185662516
  0
LINE
  5
A8DB
  8
0
 10
4251.8862639513654358
 20
96.5259547684679973
 30
0.0
 11
4252.0998102001649386
 21
96.7395010171675978
 31
0.0
  0
ARC
  5
A8DC
  8
0
 10
4252.1110964376093762
 20
96.7250457873582548
 30
0.0
 40
0.0183393789268202
 50
69.0375661759807571
 51
127.9817218571509017
  0
ARC
  5
A8DD
  8
0
 10
4251.5238874119831962
 20
95.8148743144175654
 30
0.0
 40
1.101109762700254
 50
45.6033138186396911
 51
57.3676121101376424
  0
LINE
  5
A8DE
  8
0
 10
4253.2318761805163376
 20
96.8957835905178655
 30
0.0
 11
4252.7709899151159334
 21
96.4348973251178734
 31
0.0
  0
LINE
  5
A8DF
  8
0
 10
4253.2884447238157009
 20
96.8957835912178496
 30
0.0
 11
4253.3566744993140674
 21
96.9640315448312862
 31
0.0
  0
LINE
  5
A8E0
  8
0
 10
4253.2884447238157009
 20
96.8957835912178496
 30
0.0
 11
4253.2318761805163376
 21
96.8957835905178655
 31
0.0
  0
ARC
  5
A8E1
  8
0
 10
4253.3336904681837041
 20
96.9870094540716963
 30
0.0
 40
0.0325
 50
315.0076314963087043
 51
44.999999999992518
  0
ARC
  5
A8E2
  8
0
 10
4252.7282911405318373
 20
96.6608991271016436
 30
0.0
 40
0.2299999996758244
 50
247.5403104526731966
 51
280.6988472729939872
  0
LINE
  5
A8E3
  8
0
 10
4252.9066070612179828
 20
95.9327041545203656
 30
0.0
 11
4252.6930608132543057
 21
95.7191579065562337
 31
0.0
  0
ARC
  5
A8E4
  8
0
 10
4252.8783227899712074
 20
95.9609884257678374
 30
0.0
 40
0.04
 50
315.0000000000046043
 51
44.9999999999965397
  0
ARC
  5
A8E5
  8
0
 10
4252.7072029488790577
 20
95.7050157709325049
 30
0.0
 40
0.02
 50
135.0000000000023022
 51
225.000000012146387
  0
LINE
  5
A8E6
  8
0
 10
4252.9138549056951888
 20
95.0316733385984662
 30
0.0
 11
4251.7499571439166175
 21
93.8677755767182447
 31
0.0
  0
LINE
  5
A8E7
  8
0
 10
4251.7230517308371418
 20
93.7860693882359158
 30
0.0
 11
4251.0694039079407958
 21
93.1324215653529279
 31
0.0
  0
ARC
  5
A8E8
  8
0
 10
4252.8714284988227519
 20
95.0740997454678336
 30
0.0
 40
0.06
 50
315.0000000024514861
 51
44.9999999999965397
  0
ARC
  5
A8E9
  8
0
 10
4251.7393505421969166
 20
93.8783821784356149
 30
0.0
 40
0.0150000000000019
 50
225.0202661407888911
 51
315.0000000024417091
  0
ARC
  5
A8EA
  8
0
 10
4251.7132936572561448
 20
93.795827461816387
 30
0.0
 40
0.0138
 50
314.9999999994369091
 51
45.000000000006338
  0
ARC
  5
A8EB
  8
0
 10
4251.0410489258629241
 20
93.160776547648922
 30
0.0
 40
0.0401000003701312
 50
224.9999999959979959
 51
314.9999997803896008
  0
LINE
  5
A8EC
  8
0
 10
4252.9599936232043547
 20
95.3390880117637067
 30
0.0
 11
4252.8397854704044221
 21
95.2188798588663161
 31
0.0
  0
ARC
  5
A8ED
  8
0
 10
4252.9175672163146373
 20
95.3815144186178259
 30
0.0
 40
0.06
 50
315.0000000230688215
 51
45.0000000121383721
  0
ARC
  5
A8EE
  8
0
 10
4252.8539276060319025
 20
95.2047377232482717
 30
0.0
 40
0.02
 50
135.0000000230733974
 51
224.9999999999959925
  0
LINE
  5
A8EF
  8
0
 10
4251.6705844077150687
 20
93.925935109517809
 30
0.0
 11
4251.6366432822160277
 21
93.8919939840178017
 31
0.0
  0
ARC
  5
A8F0
  8
0
 10
4252.0184809485626829
 20
96.3258555250971114
 30
0.0
 40
0.5279999954449253
 50
2.6192510237750151
 51
5.5465202183695563
  0
ARC
  5
A8F1
  8
0
 10
4252.6136811380247309
 20
96.3836545651397785
 30
0.0
 40
0.0700000000110899
 50
67.5403103814533381
 51
185.5465202183694942
  0
LINE
  5
A8F2
  8
0
 10
4252.2185710990170264
 20
96.1936476208178135
 30
0.0
 11
4252.4321173477146658
 21
96.40719386961743
 31
0.0
  0
ARC
  5
A8F3
  8
0
 10
4252.4176621179049107
 20
96.418480107061697
 30
0.0
 40
0.0183393789268202
 50
322.018278142867473
 51
20.9624338240102013
  0
ARC
  5
A8F4
  8
0
 10
4251.5074906449654009
 20
95.831271081435375
 30
0.0
 40
1.101109762700254
 50
32.6323878898322519
 51
44.3966861813622984
  0
ARC
  5
A8F5
  8
0
 10
4251.9481039527408939
 20
96.6837445533196416
 30
0.0
 40
0.1753018927825472
 50
224.9175231896383025
 51
243.4244139936170086
  0
ARC
  5
A8F6
  8
0
 10
4251.8792233265157847
 20
96.5470395215064343
 30
0.0
 40
0.0222291972182195
 50
244.5694428145739039
 51
288.4652057290051061
  0
ARC
  5
A8F7
  8
0
 10
4252.3763608838671644
 20
96.2554876221931011
 30
0.0
 40
0.1753018927825472
 50
206.5755860064352873
 51
225.0824768103917108
  0
ARC
  5
A8F8
  8
0
 10
4252.2396558520531471
 20
96.1866069959683045
 30
0.0
 40
0.0222291972182195
 50
161.5347942710567111
 51
205.4305571854395112
  0
ARC
  5
A8F9
  8
0
 10
4250.8302107406689174
 20
95.054446016465775
 30
0.0
 40
1.6650685482038861
 50
222.9764232924237035
 51
246.1656453321847948
  0
LINE
  5
A8FA
  8
0
 10
4250.1658520886658152
 20
93.5398638955681889
 30
0.0
 11
4250.157366804679441
 21
93.5313786154558073
 31
0.0
  0
ARC
  5
A8FB
  8
0
 10
4251.1218604568657611
 20
95.4292532149679289
 30
0.0
 40
2.1190490791999128
 50
243.2895934785821908
 51
248.922377741179389
  0
LINE
  5
A8FC
  8
0
 10
4249.2239949437116593
 20
94.4647504793202444
 30
0.0
 11
4250.157366804679441
 21
93.5313786154558073
 31
0.0
  0
LINE
  5
A8FD
  8
0
 10
4250.1693876225999702
 20
93.5363283617197965
 30
0.0
 11
4249.2289446922668503
 21
94.4767712920522342
 31
0.0
  0
ARC
  5
A8FE
  8
0
 10
4249.7929448580489407
 20
93.7868422089038773
 30
0.0
 40
0.0034846610924246
 50
88.4251352642398558
 51
203.7460512734132863
  0
ARC
  5
A8FF
  8
0
 10
4249.8998860098381556
 20
93.8499062247526439
 30
0.0
 40
0.127611977549904
 50
210.3434126688713093
 51
232.6674545488154138
  0
ARC
  5
A900
  8
0
 10
4249.7900266401538829
 20
93.7366413382767263
 30
0.0
 40
0.053768755868516
 50
61.4905411934842192
 51
86.7866224895375353
  0
ARC
  5
A901
  8
0
 10
4249.4001475345658037
 20
93.0188559614359747
 30
0.0
 40
0.8706050700595417
 50
55.1855062480180507
 51
61.4905411934842192
  0
ARC
  5
A902
  8
0
 10
4249.7409348575720287
 20
93.5089200857588736
 30
0.0
 40
0.273697333913757
 50
38.6791793534662318
 51
55.1855062480180507
  0
ARC
  5
A903
  8
0
 10
4249.9482239436892996
 20
93.6748663206513186
 30
0.0
 40
0.0081659457542175
 50
337.478635446336682
 51
38.6791793534655994
  0
ARC
  5
A904
  8
0
 10
4249.9513025756186835
 20
93.6787392169064361
 30
0.0
 40
0.0083031179534141
 50
256.266047667908424
 51
302.5269258147391156
  0
ARC
  5
A905
  8
0
 10
4250.0445363228127462
 20
93.948898312813597
 30
0.0
 40
0.2940629942000823
 50
233.2972628060809939
 51
251.1097005020816937
  0
ARC
  5
A906
  8
0
 10
4250.2159707877181063
 20
94.2163407258842511
 30
0.0
 40
0.61135455100081
 50
229.9384740896273911
 51
235.3964350079932046
  0
ARC
  5
A907
  8
0
 10
4249.8204662709122204
 20
94.1156375155705831
 30
0.0
 40
0.259146020853074
 50
223.0903868383580004
 51
242.5174584170717083
  0
ARC
  5
A908
  8
0
 10
4249.7130311611008437
 20
93.9091029613949644
 30
0.0
 40
0.0263396100978854
 50
242.5174584170717083
 51
272.5855589050476055
  0
ARC
  5
A909
  8
0
 10
4249.4767050198470315
 20
93.7768648625930297
 30
0.0
 40
0.2715512952812891
 50
26.8802780980979215
 51
46.0778260843984029
  0
ARC
  5
A90A
  8
0
 10
4249.6931454802534063
 20
93.890095256415762
 30
0.0
 40
0.0274816160268323
 50
357.6047348487987847
 51
20.3247532229905303
  0
ARC
  5
A90B
  8
0
 10
4249.7141367865324355
 20
93.8892637026561943
 30
0.0
 40
0.0064740636603408
 50
270.730910194567798
 51
357.1935201985994013
  0
ARC
  5
A90C
  8
0
 10
4250.142043783121153
 20
93.2618663905299741
 30
0.0
 40
0.3067779793568632
 50
58.5963116498885128
 51
72.818264117341073
  0
ARC
  5
A90D
  8
0
 10
4250.3037445864565598
 20
93.7848273628504501
 30
0.0
 40
0.2406115787915338
 50
231.0369117760417055
 51
252.8182641173411014
  0
ARC
  5
A90E
  8
0
 10
4249.9466536762611213
 20
93.3432754825996085
 30
0.0
 40
0.3272633908081821
 50
51.0369117760417765
 51
61.097214112072983
  0
ARC
  5
A90F
  8
0
 10
4250.180248264245165
 20
93.7828978039507746
 30
0.0
 40
0.1706888606033811
 50
223.9672639060688084
 51
243.7775905234123002
  0
ARC
  5
A910
  8
0
 10
4250.0667332193443144
 20
93.6742865008583436
 30
0.0
 40
0.0135997097958499
 50
186.4083093486883058
 51
226.6476403173859921
  0
ARC
  5
A911
  8
0
 10
4250.058169895318315
 20
93.6727756553614057
 30
0.0
 40
0.0049514163200954
 50
88.9541169053416638
 51
180.0816911934452094
  0
ARC
  5
A912
  8
0
 10
4250.0575386775435618
 20
93.6848286750585402
 30
0.0
 40
0.0071389907562503
 50
275.8012620922937117
 51
311.1740878615868269
  0
ARC
  5
A913
  8
0
 10
4250.0571363674298482
 20
93.6831149528187836
 30
0.0
 40
0.0062791569988339
 50
324.3478512038063855
 51
13.2285858902251405
  0
ARC
  5
A914
  8
0
 10
4249.9972166348898099
 20
93.650025222554504
 30
0.0
 40
0.0745140865249966
 50
27.6039481210063506
 51
56.3257559113120791
  0
ARC
  5
A915
  8
0
 10
4249.9114748638621677
 20
93.5447765569370375
 30
0.0
 40
0.2100461755257248
 50
52.7781160292206408
 51
64.6592578200020824
  0
ARC
  5
A916
  8
0
 10
4250.081222787470324
 20
93.9014284291367431
 30
0.0
 40
0.1849419055039692
 50
228.6623652705077063
 51
244.4215491215122995
  0
ARC
  5
A917
  8
0
 10
4249.9949753820255864
 20
93.8098181248322476
 30
0.0
 40
0.0593444297418693
 50
197.9689861005446119
 51
232.7682270339585102
  0
ARC
  5
A918
  8
0
 10
4249.9460390815020219
 20
93.7920869971380569
 30
0.0
 40
0.0075356284077129
 50
144.8746948702683142
 51
184.3895544496052992
  0
ARC
  5
A919
  8
0
 10
4249.8318147977543049
 20
93.747537710015564
 30
0.0
 40
0.1226885632141268
 50
27.6013393607983701
 51
70.4782081250269101
  0
ARC
  5
A91A
  8
0
 10
4249.932280878916572
 20
93.8010642281585945
 30
0.0
 40
0.0089008441095381
 50
328.5693982517107088
 51
21.8808686866670286
  0
ARC
  5
A91B
  8
0
 10
4249.9209824778927214
 20
93.9813120008967218
 30
0.0
 40
0.1275813789202083
 50
203.3430365929162917
 51
247.8174782454393039
  0
ARC
  5
A91C
  8
0
 10
4249.7199981083485909
 20
93.9073916256539718
 30
0.0
 40
0.0870411571886052
 50
15.5733760773920604
 51
49.0121387861919118
  0
ARC
  5
A91D
  8
0
 10
4249.8427009070055647
 20
94.0426000026965738
 30
0.0
 40
0.0955825462560565
 50
198.5234267305648928
 51
226.6502999395488018
  0
ARC
  5
A91E
  8
0
 10
4249.7646608070381262
 20
94.0171720611234178
 30
0.0
 40
0.0135243543398055
 50
117.3854026336440057
 51
201.4144775048301028
  0
ARC
  5
A91F
  8
0
 10
4249.7495689322804537
 20
94.0463054031958308
 30
0.0
 40
0.0192859535529488
 50
297.3854026336435936
 51
309.621847149110522
  0
LINE
  5
A920
  8
0
 10
4249.7271625803514326
 20
94.0803767804172679
 30
0.0
 11
4249.7729931109497556
 21
94.0345462498468692
 31
0.0
  0
LINE
  5
A921
  8
0
 10
4249.7618679270653956
 20
94.0314500091679832
 30
0.0
 11
4249.7689786393648319
 21
94.0385607214679879
 31
0.0
  0
LINE
  5
A922
  8
0
 10
4250.3018949206652906
 20
93.5237066891679945
 30
0.0
 11
4250.3075400958650789
 21
93.5293518642679942
 31
0.0
  0
LINE
  5
A923
  8
0
 10
4250.3111664568650667
 20
93.5925589040679853
 30
0.0
 11
4250.2649036160219111
 21
93.560165314111515
 31
0.0
  0
LINE
  5
A924
  8
0
 10
4250.2426263902652863
 20
93.5649129705680025
 30
0.0
 11
4250.2326670786651448
 21
93.5549536589680031
 31
0.0
  0
LINE
  5
A925
  8
0
 10
4250.1957978680648012
 20
93.6410940920680019
 30
0.0
 11
4250.152443310165836
 21
93.5977395341679994
 31
0.0
  0
LINE
  5
A926
  8
0
 10
4250.1098377600646927
 20
93.7270542001679843
 30
0.0
 11
4250.0622408034796536
 21
93.6794578170366634
 31
0.0
  0
LINE
  5
A927
  8
0
 10
4249.9398757235658195
 20
93.7964227455680657
 30
0.0
 11
4249.9759922863659085
 21
93.8325393084680002
 31
0.0
  0
LINE
  5
A928
  8
0
 10
4249.8733394983601102
 20
93.8629854591628856
 30
0.0
 11
4249.9236229996986367
 21
93.9132689605020659
 31
0.0
  0
LINE
  5
A929
  8
0
 10
4249.7770883267003228
 20
93.9730945176331858
 30
0.0
 11
4249.820442884671138
 21
94.0164490754738438
 31
0.0
  0
LINE
  5
A92A
  8
0
 10
4249.7991572338150945
 20
94.0377347263187602
 30
0.0
 11
4249.9818605167956775
 21
93.8550314434368147
 31
0.0
  0
LINE
  5
A92B
  8
0
 10
4250.050675787036198
 20
93.7862161732338677
 30
0.0
 11
4250.2030367959860087
 21
93.6338551643674464
 31
0.0
  0
LINE
  5
A92C
  8
0
 10
4250.2718574907603397
 20
93.5650344696319252
 30
0.0
 11
4250.3672093014884013
 21
93.4696826589558754
 31
0.0
  0
LINE
  5
A92D
  8
0
 10
4250.4360245671177836
 20
93.4008673933637397
 30
0.0
 11
4250.45456077833569
 21
93.3823311821566051
 31
0.0
  0
LINE
  5
A92E
  8
0
 10
4250.6732152244649114
 20
93.2593821954680067
 30
0.0
 11
4250.7686692556653725
 21
93.3467982025679959
 31
0.0
  0
LINE
  5
A92F
  8
0
 10
4250.6228230441656706
 20
93.3638193367680032
 30
0.0
 11
4250.5983602791648082
 21
93.3168497746680004
 31
0.0
  0
ARC
  5
A930
  8
0
 10
4251.1187909282471082
 20
93.9157884257236333
 30
0.0
 40
0.8051433202289057
 50
230.0102338634787031
 51
234.7565592775438006
  0
ARC
  5
A931
  8
0
 10
4250.6629750120564495
 20
93.2706671387782364
 30
0.0
 40
0.0152385004416809
 50
234.7565592775420953
 51
312.2213099962872889
  0
ARC
  5
A932
  8
0
 10
4250.6118178559390799
 20
93.309888609786185
 30
0.0
 40
0.0151513758165408
 50
152.6489509446668933
 51
226.3779611128358056
  0
ARC
  5
A933
  8
0
 10
4250.4226093191209657
 20
93.0104221019656308
 30
0.0
 40
0.3380525429109111
 50
49.8598058723731725
 51
55.1152834643573613
  0
ARC
  5
A934
  8
0
 10
4250.8332319189839836
 20
93.5453113547155084
 30
0.0
 40
0.3369868007484146
 50
229.8511027031960907
 51
235.1232123927406974
  0
LINE
  5
A935
  8
0
 10
4250.7614082579657406
 20
93.3401208083674163
 30
0.0
 11
4250.8132099265676516
 21
93.3318417507704936
 31
0.0
  0
LINE
  5
A936
  8
0
 10
4250.5591426387200045
 20
93.312722535311579
 30
0.0
 11
4250.6585067904652533
 21
93.3924181134679969
 31
0.0
  0
LINE
  5
A937
  8
0
 10
4250.488198120893685
 20
93.374915277490544
 30
0.0
 11
4250.5022577701265618
 21
93.398127776397871
 31
0.0
  0
LINE
  5
A938
  8
0
 10
4250.5298226041659291
 20
93.474283493268004
 30
0.0
 11
4250.4989849617286382
 21
93.4172197391864785
 31
0.0
  0
LINE
  5
A939
  8
0
 10
4250.5729522722358524
 20
93.3586168590295955
 30
0.0
 11
4250.6631708293652991
 21
93.4385559986679937
 31
0.0
  0
LINE
  5
A93A
  8
0
 10
4250.6254119488030483
 20
93.2800360941420337
 30
0.0
 11
4250.6069895741657092
 21
93.2651179492679887
 31
0.0
  0
LINE
  5
A93B
  8
0
 10
4250.5387833165650591
 20
93.3079848408680022
 30
0.0
 11
4250.5877088828647175
 21
93.2654544949679973
 31
0.0
  0
LINE
  5
A93C
  8
0
 10
4250.451372301752599
 20
93.3561670590795671
 30
0.0
 11
4250.4972119208478034
 21
93.3103274399501998
 31
0.0
  0
LINE
  5
A93D
  8
0
 10
4250.5164221691720741
 20
93.3086467609730903
 30
0.0
 11
4250.5319360760522613
 21
93.3195097155684152
 31
0.0
  0
LINE
  5
A93E
  8
0
 10
4250.4496916227708425
 20
93.375377307375814
 30
0.0
 11
4250.4751520180907391
 21
93.4116837082282245
 31
0.0
  0
LINE
  5
A93F
  8
0
 10
4250.4290706923184189
 20
93.3959982378043065
 30
0.0
 11
4250.5230953658274302
 21
93.4618350230279304
 31
0.0
  0
LINE
  5
A940
  8
0
 10
4250.3625595229132159
 20
93.4630420869202112
 30
0.0
 11
4250.3715416657587411
 21
93.4758699163830755
 31
0.0
  0
ARC
  5
A941
  8
0
 10
4250.5975497682884452
 20
93.2767751386248136
 30
0.0
 40
0.0149999999568179
 50
228.9999999188943036
 51
309.000000191051015
  0
ARC
  5
A942
  8
0
 10
4250.5486242017896075
 20
93.3193054845157661
 30
0.0
 40
0.0149999998198309
 50
184.6476028626373136
 51
229.0000004681112102
  0
ARC
  5
A943
  8
0
 10
4250.5496991945619811
 20
93.3242088430852164
 30
0.0
 40
0.0148288833124366
 50
228.4292889808587006
 51
309.4995944503775149
  0
ARC
  5
A944
  8
0
 10
4250.5010410192562631
 20
93.3670803624859502
 30
0.0
 40
0.0150441327924442
 50
148.61438018005299
 51
228.8131846132932026
  0
ARC
  5
A945
  8
0
 10
4250.512723452586215
 20
93.4097483381431459
 30
0.0
 40
0.0156386688885032
 50
151.4613336797094121
 51
227.993243221277794
  0
ARC
  5
A946
  8
0
 10
4250.5625633841709714
 20
93.3705936668376921
 30
0.0
 40
0.0158547444150417
 50
239.1715121691196089
 51
310.9389284909321987
  0
ARC
  5
A947
  8
0
 10
4250.4204670457684188
 20
93.4082855184757648
 30
0.0
 40
0.0150000000077689
 50
225.0000000122961126
 51
304.9999999949495191
  0
ARC
  5
A948
  8
0
 10
4250.3746410035382723
 20
93.4541299001520684
 30
0.0
 40
0.0150129692221082
 50
143.5847913447553026
 51
224.9762136244715975
  0
ARC
  5
A949
  8
0
 10
4250.7264365978753631
 20
93.6287491543254049
 30
0.0
 40
0.3216245742595612
 50
225.8115788916605879
 51
237.6710276888103976
  0
ARC
  5
A94A
  8
0
 10
4250.4564586003425575
 20
93.287637993986408
 30
0.0
 40
0.1166592728703631
 50
43.9552274966347696
 51
59.2254762023254884
  0
ARC
  5
A94B
  8
0
 10
4250.6003221500677682
 20
93.4690858448727653
 30
0.0
 40
0.1169665451330643
 50
223.9754041422785917
 51
239.2052995567077005
  0
ARC
  5
A94C
  8
0
 10
4250.54698659920723
 20
93.4571995900878534
 30
0.0
 40
0.0242169872951084
 50
86.8069873307326532
 51
135.1339912081473074
  0
ARC
  5
A94D
  8
0
 10
4250.5592097628123156
 20
93.2779992899545363
 30
0.0
 40
0.2036701971536153
 50
76.6546477623207636
 51
93.0605703002721043
  0
ARC
  5
A94E
  8
0
 10
4250.5813899540416969
 20
93.3331845551096393
 30
0.0
 40
0.145125189498145
 50
55.1605977238059282
 51
80.1482025074206206
  0
ARC
  5
A94F
  8
0
 10
4250.6592865474422069
 20
93.4457909211255071
 30
0.0
 40
0.008211683689956
 50
298.2304416606245923
 51
52.4005694993240567
  0
LINE
  5
A950
  8
0
 10
4250.3640208249662464
 20
93.4435185358661471
 30
0.0
 11
4250.4098604440468989
 21
93.3976789167502091
 31
0.0
  0
LINE
  5
A951
  8
0
 10
4250.3511660923531963
 20
93.5127692961509212
 30
0.0
 11
4250.3694881582878224
 21
93.5422079221589655
 31
0.0
  0
LINE
  5
A952
  8
0
 10
4250.5125367812652257
 20
93.521021701568003
 30
0.0
 11
4250.4213268938174224
 21
93.4496713403728165
 31
0.0
  0
LINE
  5
A953
  8
0
 10
4250.3123936516731192
 20
93.6059979667823541
 30
0.0
 11
4250.3445267669658278
 21
93.6617226691680003
 31
0.0
  0
LINE
  5
A954
  8
0
 10
4250.4669257028481297
 20
93.6138498325729955
 30
0.0
 11
4250.3844250471938722
 21
93.5450656148672692
 31
0.0
  0
LINE
  5
A955
  8
0
 10
4250.2269521506450474
 20
93.6680746516329492
 30
0.0
 11
4250.1981730696652448
 21
93.6268958604679966
 31
0.0
  0
LINE
  5
A956
  8
0
 10
4250.2102530283918895
 20
93.6596344854189056
 30
0.0
 11
4250.2995044095187041
 21
93.7269431624058029
 31
0.0
  0
LINE
  5
A957
  8
0
 10
4250.1811292707652683
 20
93.7854777296680027
 30
0.0
 11
4250.1411745065652212
 21
93.7239035661680049
 31
0.0
  0
LINE
  5
A958
  8
0
 10
4250.1998537485469569
 20
93.6076856122501937
 30
0.0
 11
4250.2456933677467532
 21
93.5618459930501984
 31
0.0
  0
LINE
  5
A959
  8
0
 10
4250.1033758664652851
 20
93.9274013352680015
 30
0.0
 11
4250.060726922764843
 21
93.8599586443680067
 31
0.0
  0
LINE
  5
A95A
  8
0
 10
4250.1305101192047005
 20
93.7964451867166531
 30
0.0
 11
4250.2120957228653424
 21
93.8591094838679965
 31
0.0
  0
LINE
  5
A95B
  8
0
 10
4249.9312041989605859
 20
94.0526914642672835
 30
0.0
 11
4249.8836536741646341
 21
93.9829339293420247
 31
0.0
  0
LINE
  5
A95C
  8
0
 10
4249.9512370434322293
 20
93.9170769362233386
 30
0.0
 11
4250.0298856546642128
 21
93.973517130267993
 31
0.0
  0
LINE
  5
A95D
  8
0
 10
4249.7922033592230946
 20
94.0328655709115253
 30
0.0
 11
4249.8558761736212546
 21
94.0774497555115943
 31
0.0
  0
LINE
  5
A95E
  8
0
 10
4249.8415107850651111
 20
94.0821914677679842
 30
0.0
 11
4249.915988602165271
 21
94.1341681165680058
 31
0.0
  0
ARC
  5
A95F
  8
0
 10
4249.7835997126812799
 20
94.0451528515127109
 30
0.0
 40
0.0149999999462089
 50
224.9999992704267981
 51
305.0000001270811936
  0
ARC
  5
A960
  8
0
 10
4249.897572418522941
 20
93.9741074109671359
 30
0.0
 40
0.016481470539402
 50
147.6193294433903986
 51
221.3819344670023099
  0
ARC
  5
A961
  8
0
 10
4249.9420815432413292
 20
93.9299586558485657
 30
0.0
 40
0.0158038566263254
 50
233.4457889115863907
 51
305.4027736131200186
  0
ARC
  5
A962
  8
0
 10
4249.989229439558585
 20
93.839489432509211
 30
0.0
 40
0.0149508009432779
 50
144.9405422616673036
 51
207.7015718300822869
  0
ARC
  5
A963
  8
0
 10
4250.0351182658250764
 20
93.7936342986128437
 30
0.0
 40
0.0150000001448469
 50
225.0000002291752139
 51
304.9999995880207848
  0
ARC
  5
A964
  8
0
 10
4250.074187806698319
 20
93.851520129309435
 30
0.0
 40
0.0158872254543137
 50
147.9167463834874923
 51
190.5265725757801079
  0
ARC
  5
A965
  8
0
 10
4250.1207464101462392
 20
93.8090327947738132
 30
0.0
 40
0.0159304077532253
 50
261.6229448200210186
 51
307.799316227767406
  0
ARC
  5
A966
  8
0
 10
4250.201021987756576
 20
93.6715854991875858
 30
0.0
 40
0.0151009549803092
 50
251.3692457721924995
 51
307.6827308067374815
  0
ARC
  5
A967
  8
0
 10
4250.1540884636851843
 20
93.7155972901099972
 30
0.0
 40
0.0153546250507728
 50
147.250816859039702
 51
226.9829470534920119
  0
ARC
  5
A968
  8
0
 10
4250.2104603502157261
 20
93.6182922139833806
 30
0.0
 40
0.0149999999512019
 50
144.999999888932507
 51
225.0000001733824035
  0
ARC
  5
A969
  8
0
 10
4250.2562999693900565
 20
93.5724525946058634
 30
0.0
 40
0.0149999998318867
 50
224.9999997662943088
 51
305.0000005911452945
  0
ARC
  5
A96A
  8
0
 10
4250.4119556825316977
 20
93.4617000370536459
 30
0.0
 40
0.0152442446749266
 50
242.5204427209187088
 51
308.0227730846335135
  0
ARC
  5
A96B
  8
0
 10
4250.3646911754258326
 20
93.5046498003253248
 30
0.0
 40
0.0157751096536652
 50
149.0223966974324981
 51
223.0749923140145086
  0
ARC
  5
A96C
  8
0
 10
4250.3269603387370807
 20
93.5977823914349187
 30
0.0
 40
0.0167744158306005
 50
151.2925032839985988
 51
223.4172694620187087
  0
ARC
  5
A96D
  8
0
 10
4250.3743183704564217
 20
93.5572706030267369
 30
0.0
 40
0.0158181953624903
 50
252.2202979215066989
 51
310.2225352530290934
  0
ARC
  5
A96E
  8
0
 10
4250.4619789034104542
 20
93.366773660782826
 30
0.0
 40
0.0149999999462041
 50
144.9999998728991955
 51
225.0000001893776016
  0
ARC
  5
A96F
  8
0
 10
4250.5078185225966081
 20
93.3209340418931959
 30
0.0
 40
0.0150000002270826
 50
224.9997852578576101
 51
304.9999995354017983
  0
ARC
  5
A970
  8
0
 10
4250.1327663153224421
 20
94.1714444960581858
 30
0.0
 40
0.3234917188999312
 50
220.0684977348282132
 51
231.7893416166726865
  0
ARC
  5
A971
  8
0
 10
4249.8815757753964135
 20
94.1829244155707954
 30
0.0
 40
0.1165063402763973
 50
222.9008928248564132
 51
241.3789784642852112
  0
ARC
  5
A972
  8
0
 10
4249.8322233680346471
 20
94.095923374450166
 30
0.0
 40
0.0165777373673754
 50
247.081386978256802
 51
304.0720024490026958
  0
ARC
  5
A973
  8
0
 10
4249.8310660272736641
 20
93.8620189945227708
 30
0.0
 40
0.112022440520534
 50
37.4451960690088512
 51
53.5894672253164117
  0
ARC
  5
A974
  8
0
 10
4249.9900802209158428
 20
94.0239309542690052
 30
0.0
 40
0.1170872312903462
 50
217.7965469970733068
 51
233.2381163022986073
  0
LINE
  5
A975
  8
0
 10
4250.0144609537655924
 20
93.9015897682679963
 30
0.0
 11
4249.9769913660029488
 21
93.8480775641224056
 31
0.0
  0
LINE
  5
A976
  8
0
 10
4250.0437219123650721
 20
93.7813470177679847
 30
0.0
 11
4250.088407207014825
 21
93.8126359979339952
 31
0.0
  0
LINE
  5
A977
  8
0
 10
4249.9759922863659085
 20
93.8325393084680002
 30
0.0
 11
4250.0245116640471679
 21
93.7830276967501959
 31
0.0
  0
ARC
  5
A978
  8
0
 10
4249.9575787109106386
 20
94.0313788344703028
 30
0.0
 40
0.0339093360213584
 50
83.7994703881410032
 51
141.0591285181463945
  0
ARC
  5
A979
  8
0
 10
4249.9505400221096352
 20
93.9665921805793261
 30
0.0
 40
0.099077224297853
 50
45.6421388367099183
 51
83.7994703881410032
  0
ARC
  5
A97A
  8
0
 10
4249.9720230461962274
 20
93.9885622225551884
 30
0.0
 40
0.0683493368286909
 50
2.1089222177864109
 51
45.6421388367099183
  0
ARC
  5
A97B
  8
0
 10
4250.0151310687369914
 20
93.9941729194690936
 30
0.0
 40
0.0253844648364862
 50
305.393244919363724
 51
352.9956807459391257
  0
ARC
  5
A97C
  8
0
 10
4250.038458089937194
 20
93.8804706806725733
 30
0.0
 40
0.0319668328943907
 50
84.5646721531239081
 51
138.6500594656880025
  0
ARC
  5
A97D
  8
0
 10
4250.0291794339791522
 20
93.7829545541328571
 30
0.0
 40
0.1299233966953753
 50
64.0965780002325261
 51
84.5646721531239081
  0
ARC
  5
A97E
  8
0
 10
4250.1439214453675959
 20
93.8892620553862685
 30
0.0
 40
0.0945366802442608
 50
205.4632739123777867
 51
233.6916760866303093
  0
ARC
  5
A97F
  8
0
 10
4250.1543616234357614
 20
93.881931667757442
 30
0.0
 40
0.0956654321154515
 50
226.0304537288376139
 51
247.9359310233118094
  0
ARC
  5
A980
  8
0
 10
4250.207962525275434
 20
93.7611667220377996
 30
0.0
 40
0.0362084056478763
 50
87.3333369819938383
 51
137.8233296978432065
  0
ARC
  5
A981
  8
0
 10
4250.2094361268509601
 20
93.6751265009916096
 30
0.0
 40
0.1222095992857737
 50
47.4349523744191472
 51
89.9010747446727549
  0
ARC
  5
A982
  8
0
 10
4250.2698576684442742
 20
93.7386228166554361
 30
0.0
 40
0.0346079341902016
 50
351.3787666423745009
 51
50.0026901371213768
  0
ARC
  5
A983
  8
0
 10
4250.2876788665944332
 20
93.7401227149583605
 30
0.0
 40
0.0177071756911984
 50
311.9004979104619792
 51
337.8098015530188718
  0
ARC
  5
A984
  8
0
 10
4250.1320164721746551
 20
93.9052745947121252
 30
0.0
 40
0.0361922221351122
 50
85.684310103925867
 51
142.3115676915232086
  0
ARC
  5
A985
  8
0
 10
4250.1257492333843402
 20
93.8222271596574728
 30
0.0
 40
0.1194758024569281
 50
48.6851240436175274
 51
85.684310103925867
  0
ARC
  5
A986
  8
0
 10
4250.1709820984251564
 20
93.8736876970451561
 30
0.0
 40
0.0509615777439347
 50
7.226310056243876
 51
48.6851240436175274
  0
ARC
  5
A987
  8
0
 10
4250.1996586878176458
 20
93.8773237718960019
 30
0.0
 40
0.0220553877573418
 50
304.3259461138483744
 51
7.2263100562406466
  0
ARC
  5
A988
  8
0
 10
4250.2447399406228215
 20
93.6591483915902501
 30
0.0
 40
0.0199018489262178
 50
106.587724363065206
 51
153.3516093632647141
  0
ARC
  5
A989
  8
0
 10
4250.2577653083326368
 20
93.615421447604092
 30
0.0
 40
0.0655275635435296
 50
76.9017142790597461
 51
106.587724363065206
  0
ARC
  5
A98A
  8
0
 10
4250.2470207659926018
 20
93.5185626555032599
 30
0.0
 40
0.162707183913255
 50
55.4638215730110389
 51
80.9495369875531168
  0
ARC
  5
A98B
  8
0
 10
4250.3697880305180661
 20
93.6509482603541983
 30
0.0
 40
0.0274630537550981
 50
94.4467447940118916
 51
156.9008312932679132
  0
ARC
  5
A98C
  8
0
 10
4250.3789777537404007
 20
93.5327776007564751
 30
0.0
 40
0.1459905012205262
 50
52.1949641031330387
 51
94.4467447940118916
  0
ARC
  5
A98D
  8
0
 10
4250.4535404746338827
 20
93.6288858376578332
 30
0.0
 40
0.0243500780573246
 50
355.2357964064568137
 51
52.1949641031330387
  0
ARC
  5
A98E
  8
0
 10
4250.4538817736647616
 20
93.6358114122980538
 30
0.0
 40
0.0255432001234171
 50
300.7079027396043216
 51
339.4938709758441746
  0
ARC
  5
A98F
  8
0
 10
4250.4142727566613758
 20
93.4106259789587199
 30
0.0
 40
0.1659097632748005
 50
53.0177558908796982
 51
87.3452972579656262
  0
ARC
  5
A990
  8
0
 10
4250.5048357704063164
 20
93.5308846790834423
 30
0.0
 40
0.0153647055200089
 50
352.8505338391524901
 51
53.0177558908796982
  0
ARC
  5
A991
  8
0
 10
4250.5015921375688777
 20
93.5389614196920434
 30
0.0
 40
0.0210147260746724
 50
301.3864860821026923
 51
331.6189328100006719
  0
ARC
  5
A992
  8
0
 10
4250.4459203026726755
 20
93.3759923873182345
 30
0.0
 40
0.1213198127248607
 50
51.7828956889686793
 51
75.1372931475980579
  0
ARC
  5
A993
  8
0
 10
4250.5153540543933559
 20
93.4641727670138636
 30
0.0
 40
0.0090842335119466
 50
0.9236910895582624
 51
51.7828956889686793
  0
ARC
  5
A994
  8
0
 10
4250.6026867317368669
 20
92.8103515511245831
 30
0.0
 40
0.5635223925924928
 50
73.1779311103485242
 51
86.78600094825876
  0
ARC
  5
A995
  8
0
 10
4250.7639318286783237
 20
93.3436785733706955
 30
0.0
 40
0.0063530341877537
 50
44.0854515280522605
 51
73.177931110347572
  0
ARC
  5
A996
  8
0
 10
4250.767702383554024
 20
93.3473306391896358
 30
0.0
 40
0.0011037800662064
 50
331.1593255646736225
 51
44.0854515280452404
  0
ARC
  5
A997
  8
0
 10
4250.6546225709589635
 20
93.7831040047424125
 30
0.0
 40
0.4177649864921935
 50
223.814198088297502
 51
233.2941478088548877
  0
ARC
  5
A998
  8
0
 10
4250.4715618367963543
 20
93.7250057052403491
 30
0.0
 40
0.2093658648132359
 50
221.5082068869637908
 51
240.8211532557733108
  0
ARC
  5
A999
  8
0
 10
4250.3440537535589101
 20
93.8752709416037447
 30
0.0
 40
0.2634070146428673
 50
220.4516810981376977
 51
235.8527579173081108
  0
ARC
  5
A99A
  8
0
 10
4250.956561275115746
 20
93.8374217048951067
 30
0.0
 40
0.6697308327742403
 50
225.9757015179889095
 51
231.5234900223173042
  0
ARC
  5
A99B
  8
0
 10
4249.373616379941268
 20
93.2188003857531555
 30
0.0
 40
0.9442443092354038
 50
56.2629709556184281
 51
61.8688844937729172
  0
ARC
  5
A99C
  8
0
 10
4250.2416786200637944
 20
94.029262311636657
 30
0.0
 40
0.2987898412871121
 50
200.4950168693463866
 51
212.798968121693008
  0
ARC
  5
A99D
  8
0
 10
4249.8656828267221499
 20
93.4186983293465261
 30
0.0
 40
0.4412226014370716
 50
48.5528254723277826
 51
61.2207019360978606
  0
ARC
  5
A99E
  8
0
 10
4250.4703752002460533
 20
93.4143032094049204
 30
0.0
 40
0.0054479147502666
 50
331.2606113039211095
 51
66.5112986980969367
  0
ARC
  5
A99F
  8
0
 10
4250.4721613556830562
 20
93.314035788364194
 30
0.0
 40
0.1052646192666383
 50
75.5995534076870683
 51
89.7903286967559922
  0
ARC
  5
A9A0
  8
0
 10
4250.9053971264065694
 20
94.5446236660145729
 30
0.0
 40
1.211884400914496
 50
248.4324128612796869
 51
249.2052333497900065
  0
LINE
  5
A9A1
  8
0
 10
4250.307208986337173
 20
93.5897909947784967
 30
0.0
 11
4250.3166916188338291
 21
93.5841182290850639
 31
0.0
  0
ARC
  5
A9A2
  8
0
 10
4250.314076115086209
 20
93.5459245195257978
 30
0.0
 40
0.0354496668681859
 50
340.3162929676109911
 51
15.2163751401098395
  0
ARC
  5
A9A3
  8
0
 10
4250.3286210370197296
 20
93.5407213493577814
 30
0.0
 40
0.0200020866731826
 50
309.4905942718378924
 51
340.3162929676133217
  0
ARC
  5
A9A4
  8
0
 10
4250.3450520214546486
 20
93.5207823033155705
 30
0.0
 40
0.0058347631073433
 50
129.490594271835306
 51
223.3779505177749911
  0
ARC
  5
A9A5
  8
0
 10
4250.5243241775433489
 20
93.6901809157532455
 30
0.0
 40
0.2524810601481875
 50
223.3779505177749911
 51
226.0947929286037947
  0
ARC
  5
A9A6
  8
0
 10
4249.8398391018099574
 20
94.0987481674421957
 30
0.0
 40
0.0266610206674266
 50
306.9786615903541929
 51
1.7414124937444471
  0
ARC
  5
A9A7
  8
0
 10
4250.3222097411526192
 20
93.4099380547892792
 30
0.0
 40
0.0849029778151986
 50
37.3760886389953981
 51
58.7571477667438629
  0
ARC
  5
A9A8
  8
0
 10
4250.4948549732425818
 20
93.6021289255166238
 30
0.0
 40
0.1756263130530581
 50
222.9215214436223107
 51
233.211714962113291
  0
ARC
  5
A9A9
  8
0
 10
4250.2921616163066574
 20
93.5090369173380367
 30
0.0
 40
0.0763697784708656
 50
38.0452363816027699
 51
61.4467085721217074
  0
ARC
  5
A9AA
  8
0
 10
4250.3878831935262497
 20
93.6220916949879438
 30
0.0
 40
0.0749694905586367
 50
217.8235097368975062
 51
241.6684352168749967
  0
ARC
  5
A9AB
  8
0
 10
4250.0801245805969302
 20
93.5892421047149554
 30
0.0
 40
0.1287478648901969
 50
39.9762398980969635
 51
54.0294511026357327
  0
ARC
  5
A9AC
  8
0
 10
4250.2558270564368286
 20
93.7776786756941334
 30
0.0
 40
0.130813275146682
 50
220.0877207769783865
 51
233.9179617288068869
  0
ARC
  5
A9AD
  8
0
 10
4250.0466127044446694
 20
93.7747261864128063
 30
0.0
 40
0.0622936932244439
 50
33.0722341632257084
 51
61.8750326770071197
  0
ARC
  5
A9AE
  8
0
 10
4250.1279040509598417
 20
93.863358202445184
 30
0.0
 40
0.0619000874228863
 50
212.9786605619642899
 51
241.9686054245132993
  0
ARC
  5
A9AF
  8
0
 10
4249.8321594758008359
 20
94.1353814122064279
 30
0.0
 40
0.0452842773623848
 50
221.2658711331951906
 51
240.4502337412990016
  0
ARC
  5
A9B0
  8
0
 10
4249.7601650163851446
 20
94.0657583821074041
 30
0.0
 40
0.0590640642701503
 50
31.3533714387651585
 51
46.2281298303290669
  0
ARC
  5
A9B1
  8
0
 10
4249.8101644728858446
 20
94.0965785646999393
 30
0.0
 40
0.0006811312503448
 50
240.2229584350849905
 51
302.4781125886058817
  0
ARC
  5
A9B2
  8
0
 10
4249.8100766383386144
 20
94.0963217731493415
 30
0.0
 40
0.0005538438933948
 50
324.9827374638313131
 51
17.7141320568476708
  0
ARC
  5
A9B3
  8
0
 10
4249.8614446728533949
 20
94.1608641792111172
 30
0.0
 40
0.0669059472346098
 50
353.1167254399874196
 51
49.8283328389238775
  0
ARC
  5
A9B4
  8
0
 10
4249.9024170838038117
 20
94.1559181078284837
 30
0.0
 40
0.025636078308123
 50
301.9970389037580958
 51
353.1167254399881017
  0
ARC
  5
A9B5
  8
0
 10
4250.3045656070289624
 20
93.0938917698624238
 30
0.0
 40
0.3203406162715692
 50
45.941454091551627
 51
51.577751080194048
  0
ARC
  5
A9B6
  8
0
 10
4250.7325455335640072
 20
93.5820743425153836
 30
0.0
 40
0.3296451416603387
 50
226.0210574190226964
 51
231.4981447951280984
  0
ARC
  5
A9B7
  8
0
 10
4250.7121992292013601
 20
93.4122720715572115
 30
0.0
 40
0.0170513003671698
 50
305.763445790733897
 51
14.0055368318922699
  0
ARC
  5
A9B8
  8
0
 10
4250.7271355091515943
 20
93.3953321243604648
 30
0.0
 40
0.0058603045750822
 50
148.0183816733189985
 51
233.0391496019506121
  0
ARC
  5
A9B9
  8
0
 10
4251.0033242757435801
 20
93.8938650777934498
 30
0.0
 40
0.5757299446574887
 50
240.9325067804007858
 51
247.5350000030200022
  0
ARC
  5
A9BA
  8
0
 10
4250.4829179200423823
 20
93.5528735361416039
 30
0.0
 40
0.0793040567282041
 50
4.2170351686471008
 51
32.1343222630735568
  0
ARC
  5
A9BB
  8
0
 10
4250.6059394079547928
 20
93.5737797573921739
 30
0.0
 40
0.0464464918037907
 50
198.9388502743076117
 51
235.7326198540839073
  0
ARC
  5
A9BC
  8
0
 10
4248.845012409343326
 20
90.5044309343977176
 30
0.0
 40
3.4923044830732222
 50
58.8293652128859179
 51
60.2153007511813811
  0
ARC
  5
A9BD
  8
0
 10
4250.0413227602130064
 20
93.679178128461146
 30
0.0
 40
0.3059743674658204
 50
21.8406685799618892
 51
33.9090954704249867
  0
ARC
  5
A9BE
  8
0
 10
4250.4270746486854478
 20
93.8580778001942377
 30
0.0
 40
0.1207681795928761
 50
212.6014898730252867
 51
240.5739732353893885
  0
ARC
  5
A9BF
  8
0
 10
4250.0598960828710915
 20
93.1886698212475864
 30
0.0
 40
0.642738599498923
 50
54.4754105550927221
 51
61.3825867917643535
  0
ARC
  5
A9C0
  8
0
 10
4249.569399667981088
 20
93.8446967208269029
 30
0.0
 40
0.5238685099873454
 50
27.0769072398443811
 51
35.6595358029300513
  0
ARC
  5
A9C1
  8
0
 10
4250.1287984394366504
 20
94.130671090117275
 30
0.0
 40
0.1043896578049932
 50
207.0769072398450987
 51
244.8192663781480007
  0
ARC
  5
A9C2
  8
0
 10
4249.9505806372490042
 20
93.7516081787108675
 30
0.0
 40
0.3144781922628415
 50
50.1519124259494191
 51
64.8192663781480434
  0
ARC
  5
A9C3
  8
0
 10
4250.6173516185526751
 20
93.3457694009760814
 30
0.0
 40
0.0669961011344284
 50
51.6007777279926572
 51
77.2066814890266357
  0
ARC
  5
A9C4
  8
0
 10
4250.6568140247818519
 20
93.3952431557390241
 30
0.0
 40
0.0037170712874301
 50
345.2660555258746058
 51
54.6351354641492222
  0
ARC
  5
A9C5
  8
0
 10
4250.653427155015379
 20
93.3994604998137561
 30
0.0
 40
0.0086831965167755
 50
305.8027092251132899
 51
323.5184899241942844
  0
ARC
  5
A9C6
  8
0
 10
4250.7470623470126156
 20
95.1375944101218636
 30
0.0
 40
1.6650685482038861
 50
203.8343546678173936
 51
227.0235767076090099
  0
LINE
  5
A9C7
  8
0
 10
4249.2324802261146033
 20
94.4732357581178945
 30
0.0
 11
4249.2239949460026764
 21
94.4647504741317618
 31
0.0
  0
ARC
  5
A9C8
  8
0
 10
4251.1218695455154375
 20
95.4292441263177977
 30
0.0
 40
2.1190490791999128
 50
201.0776222588067128
 51
206.7104065214039963
  0
ARC
  5
A9C9
  8
0
 10
4249.4794585394520254
 20
94.1003285275019579
 30
0.0
 40
0.0034846610924246
 50
246.2539487266093943
 51
1.574864735771736
  0
ARC
  5
A9CA
  8
0
 10
4249.5425225553008204
 20
94.2072696792915991
 30
0.0
 40
0.127611977549904
 50
217.3325454511848989
 51
239.656587331133295
  0
ARC
  5
A9CB
  8
0
 10
4249.4292576688249028
 20
94.0974103096070138
 30
0.0
 40
0.053768755868516
 50
3.2133775104816729
 51
28.5094588065387704
  0
ARC
  5
A9CC
  8
0
 10
4248.711472291984137
 20
93.7075312040180393
 30
0.0
 40
0.8706050700595417
 50
28.5094588065387704
 51
34.8144937519774729
  0
ARC
  5
A9CD
  8
0
 10
4249.2015364163071354
 20
94.048318527025117
 30
0.0
 40
0.273697333913757
 50
34.8144937519774729
 51
51.3208206465263927
  0
ARC
  5
A9CE
  8
0
 10
4249.3674826511987703
 20
94.2556076131415068
 30
0.0
 40
0.0081659457542175
 50
51.3208206465268972
 51
112.5213645536631049
  0
ARC
  5
A9CF
  8
0
 10
4249.3713555474541863
 20
94.2586862450713738
 30
0.0
 40
0.0083031179534141
 50
147.4730741852459914
 51
193.7339523320922012
  0
ARC
  5
A9D0
  8
0
 10
4249.6415146433610062
 20
94.3519199922648255
 30
0.0
 40
0.2940629942000823
 50
198.8902994979297887
 51
216.7027371939580007
  0
ARC
  5
A9D1
  8
0
 10
4249.9089570564319729
 20
94.5233544571705551
 30
0.0
 40
0.61135455100081
 50
214.6035649919978141
 51
220.0615259103815049
  0
ARC
  5
A9D2
  8
0
 10
4249.8082474532966444
 20
94.1278458927935446
 30
0.0
 40
0.2591384815875962
 50
207.4823999322499049
 51
226.9100356045616138
  0
ARC
  5
A9D3
  8
0
 10
4249.601719291941663
 20
94.0204148305529657
 30
0.0
 40
0.0263396100978854
 50
177.4144410949409121
 51
207.4825415829324982
  0
ARC
  5
A9D4
  8
0
 10
4249.4694811931403819
 20
93.7840886892995655
 30
0.0
 40
0.2715512952812891
 50
43.9221739155921824
 51
63.1197219019036311
  0
ARC
  5
A9D5
  8
0
 10
4249.5827115869633417
 20
94.0005291497059261
 30
0.0
 40
0.0274816160268323
 50
69.6752467769937169
 51
92.3952651512182541
  0
ARC
  5
A9D6
  8
0
 10
4249.5818800332026512
 20
94.0215204559846143
 30
0.0
 40
0.0064740636603408
 50
92.806479801422185
 51
179.2690898054549962
  0
ARC
  5
A9D7
  8
0
 10
4248.9544827210766016
 20
94.4494274525732038
 30
0.0
 40
0.3067779793568632
 50
17.1817358826904787
 51
31.4036883501308708
  0
ARC
  5
A9D8
  8
0
 10
4249.4774436933994366
 20
94.6111282559092359
 30
0.0
 40
0.2406115787915338
 50
197.1817358826903899
 51
218.9630882239671053
  0
ARC
  5
A9D9
  8
0
 10
4249.0358918131469181
 20
94.2540373457128737
 30
0.0
 40
0.3272633908081821
 50
28.9027858879345487
 51
38.9630882239670768
  0
ARC
  5
A9DA
  8
0
 10
4249.4755141344976437
 20
94.487631933698438
 30
0.0
 40
0.1706888606033811
 50
206.22240947661939
 51
226.0327360939255925
  0
ARC
  5
A9DB
  8
0
 10
4249.3669028314061507
 20
94.3741168887955268
 30
0.0
 40
0.0135997097958499
 50
223.3523596825891957
 51
263.5916906513193112
  0
ARC
  5
A9DC
  8
0
 10
4249.3653919859089001
 20
94.3655535647707069
 30
0.0
 40
0.0049514163200954
 50
269.9183088065768175
 51
1.045883094646495
  0
ARC
  5
A9DD
  8
0
 10
4249.3774450056062051
 20
94.3649223469961953
 30
0.0
 40
0.0071389907562503
 50
138.8259121384303967
 51
174.1987379077187086
  0
ARC
  5
A9DE
  8
0
 10
4249.3757312833668038
 20
94.3645200368820838
 30
0.0
 40
0.0062791569988339
 50
76.7714141097713139
 51
125.6521487961997963
  0
ARC
  5
A9DF
  8
0
 10
4249.3426415531012026
 20
94.3046003043419887
 30
0.0
 40
0.0745140865249966
 50
33.6742440887028067
 51
62.3960518790078993
  0
ARC
  5
A9E0
  8
0
 10
4249.2373928874849298
 20
94.2188585333143749
 30
0.0
 40
0.2100461755257248
 50
25.3407421799956012
 51
37.2218839707971867
  0
ARC
  5
A9E1
  8
0
 10
4249.5940447596840386
 20
94.3886064569213232
 30
0.0
 40
0.1849419055039692
 50
205.5784508784786055
 51
221.3376347295111941
  0
ARC
  5
A9E2
  8
0
 10
4249.502434455380353
 20
94.3023590514785752
 30
0.0
 40
0.0593444297418693
 50
217.2317729660452983
 51
252.031013899450187
  0
ARC
  5
A9E3
  8
0
 10
4249.484703327684656
 20
94.2534227509540443
 30
0.0
 40
0.0075356284077129
 50
265.6104455504005841
 51
305.1253051297309185
  0
ARC
  5
A9E4
  8
0
 10
4249.4401540405633568
 20
94.1391984672072937
 30
0.0
 40
0.1226885632141268
 50
19.5217918749944808
 51
62.3986606392103909
  0
ARC
  5
A9E5
  8
0
 10
4249.4936805587058188
 20
94.2396645483699871
 30
0.0
 40
0.0089008441095381
 50
68.1191313133612653
 51
121.4306017482735029
  0
ARC
  5
A9E6
  8
0
 10
4249.6739283314445856
 20
94.2283661473445733
 30
0.0
 40
0.1275813789202083
 50
202.1825217545392945
 51
246.6569634070920927
  0
ARC
  5
A9E7
  8
0
 10
4249.6000079562008978
 20
94.0273817778010539
 30
0.0
 40
0.0870411571886052
 50
40.9878612138205369
 51
74.4266239226164004
  0
ARC
  5
A9E8
  8
0
 10
4249.7352163332443524
 20
94.1500845764583545
 30
0.0
 40
0.0955825462560565
 50
223.3497000604671996
 51
251.476573269433004
  0
ARC
  5
A9E9
  8
0
 10
4249.7097883916721912
 20
94.0720444764905466
 30
0.0
 40
0.0135243543398055
 50
248.585522495184307
 51
332.614597366371413
  0
ARC
  5
A9EA
  8
0
 10
4249.7389217337431546
 20
94.0569526017326325
 30
0.0
 40
0.0192859535529488
 50
140.3781528508905012
 51
152.6145973663720952
  0
LINE
  5
A9EB
  8
0
 10
4249.7240663397160461
 20
94.0692515965177449
 30
0.0
 11
4249.7311770520145728
 21
94.0763623088177638
 31
0.0
  0
LINE
  5
A9EC
  8
0
 10
4249.2163230197147641
 20
94.6092785901177109
 30
0.0
 11
4249.221968194816327
 21
94.6149237653176982
 31
0.0
  0
LINE
  5
A9ED
  8
0
 10
4249.2851752346159628
 20
94.6185501263177144
 30
0.0
 11
4249.2527816446590805
 21
94.5722872854741752
 31
0.0
  0
LINE
  5
A9EE
  8
0
 10
4249.2575293011150279
 20
94.5500100597177067
 30
0.0
 11
4249.2475699895157959
 21
94.5400507481177073
 31
0.0
  0
LINE
  5
A9EF
  8
0
 10
4249.3337104226147858
 20
94.5031815375177047
 30
0.0
 11
4249.2903558647149111
 21
94.4598269796177021
 31
0.0
  0
LINE
  5
A9F0
  8
0
 10
4249.4196705307149386
 20
94.4172214295177241
 30
0.0
 11
4249.3720741475854084
 21
94.3696244729331966
 31
0.0
  0
LINE
  5
A9F1
  8
0
 10
4249.4890390761156596
 20
94.2472593930177851
 30
0.0
 11
4249.5251556390148835
 21
94.283375955817732
 31
0.0
  0
LINE
  5
A9F2
  8
0
 10
4249.5556017897106358
 20
94.1807231678126158
 30
0.0
 11
4249.6058852910500718
 21
94.231006669151796
 31
0.0
  0
LINE
  5
A9F3
  8
0
 10
4249.6657108481813339
 20
94.0844719961525158
 30
0.0
 11
4249.7090654060220913
 21
94.1278265541235726
 31
0.0
  0
LINE
  5
A9F4
  8
0
 10
4249.7303510568663114
 20
94.1065409032669749
 30
0.0
 11
4249.5476477739848633
 21
94.2892441862489363
 31
0.0
  0
LINE
  5
A9F5
  8
0
 10
4249.4788325037816321
 20
94.3580594564895421
 30
0.0
 11
4249.3264714949145855
 21
94.5104204654393527
 31
0.0
  0
LINE
  5
A9F6
  8
0
 10
4249.2576508001802722
 20
94.5792411602125469
 30
0.0
 11
4249.1622989895040519
 21
94.674592970940779
 31
0.0
  0
LINE
  5
A9F7
  8
0
 10
4249.0934837239101398
 20
94.7434082365705592
 30
0.0
 11
4249.0749475127040569
 21
94.7619444477878687
 31
0.0
  0
LINE
  5
A9F8
  8
0
 10
4248.9519985260158137
 20
94.9805988939176871
 30
0.0
 11
4249.0394145331156324
 21
95.0760529251176933
 31
0.0
  0
LINE
  5
A9F9
  8
0
 10
4249.0564356673148723
 20
94.930206713617693
 30
0.0
 11
4249.0094661052153242
 21
94.9057439486176833
 31
0.0
  0
ARC
  5
A9FA
  8
0
 10
4249.6084047562717387
 20
95.4261745976989744
 30
0.0
 40
0.8051433202289057
 50
215.2434407224561994
 51
219.9897661365577903
  0
ARC
  5
A9FB
  8
0
 10
4248.9632834693256882
 20
94.9703586815079888
 30
0.0
 40
0.0152385004416809
 50
137.7786900037380065
 51
215.2434407224594963
  0
ARC
  5
A9FC
  8
0
 10
4249.0025049403338926
 20
94.919201525391486
 30
0.0
 40
0.0151513758165408
 50
223.6220388871365969
 51
297.3510490553192085
  0
ARC
  5
A9FD
  8
0
 10
4248.7030384325125851
 20
94.7299929885726755
 30
0.0
 40
0.3380525429109111
 50
34.8847165356804609
 51
40.1401941276359082
  0
ARC
  5
A9FE
  8
0
 10
4249.237927685262548
 20
95.1406155884369156
 30
0.0
 40
0.3369868007484146
 50
214.87678760726169
 51
220.1488972968118105
  0
LINE
  5
A9FF
  8
0
 10
4249.0327371389139444
 20
95.0687919274185447
 30
0.0
 11
4249.024458081317789
 21
95.1205935960202567
 31
0.0
  0
LINE
  5
AA00
  8
0
 10
4249.0053388658589029
 20
94.866526308172368
 30
0.0
 11
4249.0850344440159461
 21
94.9658904599176736
 31
0.0
  0
LINE
  5
AA01
  8
0
 10
4249.0675316080369157
 20
94.7955817903464037
 30
0.0
 11
4249.0907441069457491
 21
94.8096414395800338
 31
0.0
  0
LINE
  5
AA02
  8
0
 10
4249.1668998238146742
 20
94.8372062736176957
 30
0.0
 11
4249.1098360697342287
 21
94.8063686311808453
 31
0.0
  0
LINE
  5
AA03
  8
0
 10
4249.051233189577033
 20
94.8803359416877754
 30
0.0
 11
4249.131172329214678
 21
94.9705544988177053
 31
0.0
  0
LINE
  5
AA04
  8
0
 10
4248.9723906834178706
 20
94.9324723947040354
 30
0.0
 11
4248.9577342798147583
 21
94.9143732436176748
 31
0.0
  0
LINE
  5
AA05
  8
0
 10
4249.0006011714158376
 20
94.8461669860176926
 30
0.0
 11
4248.9580708255152786
 21
94.895092552317692
 31
0.0
  0
LINE
  5
AA06
  8
0
 10
4249.0487833896268057
 20
94.7587559712061136
 30
0.0
 11
4249.00294377049795
 21
94.8045955902998969
 31
0.0
  0
LINE
  5
AA07
  8
0
 10
4249.0012630915198315
 20
94.8238058386249634
 30
0.0
 11
4249.0121260461173733
 21
94.8393197455044259
 31
0.0
  0
LINE
  5
AA08
  8
0
 10
4249.0679936379237915
 20
94.7570752922231634
 30
0.0
 11
4249.1043000387762731
 21
94.7825356875425342
 31
0.0
  0
LINE
  5
AA09
  8
0
 10
4249.0886145683516588
 20
94.736454361769546
 30
0.0
 11
4249.1544513535745864
 21
94.8304790352800069
 31
0.0
  0
LINE
  5
AA0A
  8
0
 10
4249.1556584174677482
 20
94.6699431923654942
 30
0.0
 11
4249.1684862469310247
 21
94.678925335211531
 31
0.0
  0
ARC
  5
AA0B
  8
0
 10
4248.969391469173388
 20
94.9049334377402545
 30
0.0
 40
0.0149999999568179
 50
140.9999998089519977
 51
221.0000000811083112
  0
ARC
  5
AA0C
  8
0
 10
4249.0119218150630331
 20
94.8560078712418573
 30
0.0
 40
0.0149999998198309
 50
220.9999995318949004
 51
265.3523971373710992
  0
ARC
  5
AA0D
  8
0
 10
4249.0168251736331513
 20
94.8570828640137904
 30
0.0
 40
0.0148288833124366
 50
140.5004055496335127
 51
221.5707110191657137
  0
ARC
  5
AA0E
  8
0
 10
4249.059696693033402
 20
94.8084246887087971
 30
0.0
 40
0.0150441327924442
 50
221.1868153867245042
 51
301.3856198199662231
  0
ARC
  5
AA0F
  8
0
 10
4249.1023646686908251
 20
94.8201071220388059
 30
0.0
 40
0.0156386688885032
 50
222.0067567787137079
 51
298.5386663203008197
  0
ARC
  5
AA10
  8
0
 10
4249.063209997386366
 20
94.8699470536243155
 30
0.0
 40
0.0158547444150417
 50
139.0610715090776068
 51
210.8284878308772079
  0
ARC
  5
AA11
  8
0
 10
4249.1009018490231028
 20
94.7278507152209102
 30
0.0
 40
0.0150000000077689
 50
145.0000000050671929
 51
224.9999999876964125
  0
ARC
  5
AA12
  8
0
 10
4249.1467462306991365
 20
94.6820246729893995
 30
0.0
 40
0.0150129692221082
 50
225.0237863755461944
 51
306.4152086552306855
  0
ARC
  5
AA13
  8
0
 10
4249.3213654848732403
 20
95.0338202673279966
 30
0.0
 40
0.3216245742595612
 50
212.3289723111946046
 51
224.1884211083178968
  0
ARC
  5
AA14
  8
0
 10
4248.980254324534144
 20
94.7638422697955178
 30
0.0
 40
0.1166592728703631
 50
30.7745237976699713
 51
46.0447725033677671
  0
ARC
  5
AA15
  8
0
 10
4249.1617021754191228
 20
94.9077058195212544
 30
0.0
 40
0.1169665451330643
 50
210.7947004433173959
 51
226.024595857743094
  0
ARC
  5
AA16
  8
0
 10
4249.1498159206357741
 20
94.8543702686591388
 30
0.0
 40
0.0242169872951084
 50
314.8660087918435124
 51
3.1930126692658578
  0
ARC
  5
AA17
  8
0
 10
4248.9706156205020307
 20
94.8665934322647644
 30
0.0
 40
0.2036701971536153
 50
356.9394296997111269
 51
13.3453522376679103
  0
ARC
  5
AA18
  8
0
 10
4249.025800885656281
 20
94.8887736234950694
 30
0.0
 40
0.145125189498145
 50
9.8517974925712188
 51
34.8394022762089719
  0
ARC
  5
AA19
  8
0
 10
4249.1384072516730157
 20
94.9666702168946415
 30
0.0
 40
0.008211683689956
 50
37.5994305006723835
 51
151.7695583393654886
  0
LINE
  5
AA1A
  8
0
 10
4249.1361348664140678
 20
94.6714044944195336
 30
0.0
 11
4249.090295247297945
 21
94.7172441134999019
 31
0.0
  0
LINE
  5
AA1B
  8
0
 10
4249.205385626698444
 20
94.6585497618053751
 30
0.0
 11
4249.2348242527068578
 21
94.6768718277399159
 31
0.0
  0
LINE
  5
AA1C
  8
0
 10
4249.2136380321162505
 20
94.8199204507177029
 30
0.0
 11
4249.1422876709193588
 21
94.7287105632692459
 31
0.0
  0
LINE
  5
AA1D
  8
0
 10
4249.29861429732955
 20
94.6197773211249
 30
0.0
 11
4249.3543389997148552
 21
94.6519104364177082
 31
0.0
  0
LINE
  5
AA1E
  8
0
 10
4249.3064661631206036
 20
94.7743093723005643
 30
0.0
 11
4249.2376819454148063
 21
94.6918087166461646
 31
0.0
  0
LINE
  5
AA1F
  8
0
 10
4249.3606909821810405
 20
94.5343358200970556
 30
0.0
 11
4249.3195121910148373
 21
94.5055567391176936
 31
0.0
  0
LINE
  5
AA20
  8
0
 10
4249.3522508159667268
 20
94.5176366978448783
 30
0.0
 11
4249.4195594929533399
 21
94.6068880789714655
 31
0.0
  0
LINE
  5
AA21
  8
0
 10
4249.4780940602158807
 20
94.4885129402177313
 30
0.0
 11
4249.4165198967148172
 21
94.4485581760177269
 31
0.0
  0
LINE
  5
AA22
  8
0
 10
4249.300301942797887
 20
94.5072374179999173
 30
0.0
 11
4249.2544623235971812
 21
94.5530770371999125
 31
0.0
  0
LINE
  5
AA23
  8
0
 10
4249.6200176658148848
 20
94.4107595359177338
 30
0.0
 11
4249.5525749749158422
 21
94.3681105922177181
 31
0.0
  0
LINE
  5
AA24
  8
0
 10
4249.4890615172644175
 20
94.4378937886566945
 30
0.0
 11
4249.5517258144145671
 21
94.5194793923177201
 31
0.0
  0
LINE
  5
AA25
  8
0
 10
4249.7453077948148348
 20
94.2385878684139158
 30
0.0
 11
4249.6755502598889507
 21
94.1910373436170261
 31
0.0
  0
LINE
  5
AA26
  8
0
 10
4249.609664999812594
 20
94.2585973050374122
 30
0.0
 11
4249.6661334608161269
 21
94.3372693241177416
 31
0.0
  0
LINE
  5
AA27
  8
0
 10
4249.7254819014588065
 20
94.0995870286742218
 30
0.0
 11
4249.7700660860600692
 21
94.1632598430740444
 31
0.0
  0
LINE
  5
AA28
  8
0
 10
4249.7748077983160329
 20
94.1488944545177446
 30
0.0
 11
4249.8267844471147328
 21
94.223372271617734
 31
0.0
  0
ARC
  5
AA29
  8
0
 10
4249.7377691820602195
 20
94.0909833821325634
 30
0.0
 40
0.0149999999462089
 50
144.9999998729416859
 51
225.0000007295651869
  0
ARC
  5
AA2A
  8
0
 10
4249.666723741514943
 20
94.204956087975674
 30
0.0
 40
0.016481470539402
 50
228.6180655330082061
 51
302.3806705566342998
  0
ARC
  5
AA2B
  8
0
 10
4249.622600011835857
 20
94.2494736176514749
 30
0.0
 40
0.0158289673553676
 50
144.8028390529943863
 51
216.524699561146889
  0
ARC
  5
AA2C
  8
0
 10
4249.5321057630571886
 20
94.2966131090108206
 30
0.0
 40
0.0149508009432779
 50
242.2984281699069129
 51
305.059457738343724
  0
ARC
  5
AA2D
  8
0
 10
4249.4862506291601676
 20
94.3425019352777241
 30
0.0
 40
0.0150000001448469
 50
145.0000004119723087
 51
224.9999997708166859
  0
ARC
  5
AA2E
  8
0
 10
4249.5441364598573273
 20
94.3815714761501567
 30
0.0
 40
0.0158872254543137
 50
259.4734274242291008
 51
302.0832536165258944
  0
ARC
  5
AA2F
  8
0
 10
4249.5016491253209097
 20
94.4281300795979632
 30
0.0
 40
0.0159304077532286
 50
142.200683772269997
 51
188.3770551800118085
  0
ARC
  5
AA30
  8
0
 10
4249.364201829735066
 20
94.5084056572091811
 30
0.0
 40
0.0151009549803092
 50
142.3172691932541909
 51
198.6307542278254914
  0
ARC
  5
AA31
  8
0
 10
4249.4082136206570794
 20
94.4614721331377467
 30
0.0
 40
0.0153546250507647
 50
223.0170529464726883
 51
302.749183141006597
  0
ARC
  5
AA32
  8
0
 10
4249.3109085445312303
 20
94.5178440196689138
 30
0.0
 40
0.0149999999512019
 50
224.9999998266470129
 51
305.000000111105976
  0
ARC
  5
AA33
  8
0
 10
4249.265068925153173
 20
94.5636836388420932
 30
0.0
 40
0.0149999998318867
 50
144.9999994088840936
 51
225.0000002337351077
  0
ARC
  5
AA34
  8
0
 10
4249.1543293196982631
 20
94.7193418940184557
 30
0.0
 40
0.0152569088880855
 50
142.1162940270467061
 51
207.465582374935309
  0
ARC
  5
AA35
  8
0
 10
4249.1972661308727766
 20
94.672074844878054
 30
0.0
 40
0.0157751096536652
 50
226.9250076859754017
 51
300.9776033025664788
  0
ARC
  5
AA36
  8
0
 10
4249.2903410977023668
 20
94.6342225755941087
 30
0.0
 40
0.0166466575853432
 50
226.4395310104796124
 51
299.8009688693808812
  0
ARC
  5
AA37
  8
0
 10
4249.2500069480902312
 20
94.6817089160698657
 30
0.0
 40
0.015934605820166
 50
140.6668807221689121
 51
197.6714732314351011
  0
ARC
  5
AA38
  8
0
 10
4249.0593899913292262
 20
94.7693625728623772
 30
0.0
 40
0.0149999999462041
 50
224.9999998106517012
 51
305.000000127087219
  0
ARC
  5
AA39
  8
0
 10
4249.0135503724395676
 20
94.8152021920490853
 30
0.0
 40
0.0150000002270826
 50
145.000000464599708
 51
225.000214742137814
  0
ARC
  5
AA3A
  8
0
 10
4249.8640608266050549
 20
94.4401499847747061
 30
0.0
 40
0.3234917188999312
 50
218.210658383329104
 51
229.9315022651867935
  0
ARC
  5
AA3B
  8
0
 10
4249.8755407461194409
 20
94.188959444848706
 30
0.0
 40
0.116506340276334
 50
208.6210215357293123
 51
227.0991071751589061
  0
ARC
  5
AA3C
  8
0
 10
4249.7885397049967651
 20
94.1396070374874938
 30
0.0
 40
0.0165777373673754
 50
145.9279975510015959
 51
202.9186130217707955
  0
ARC
  5
AA3D
  8
0
 10
4249.5546353250701941
 20
94.1384496967269371
 30
0.0
 40
0.112022440520534
 50
36.4105327746637926
 51
52.5548039309971102
  0
ARC
  5
AA3E
  8
0
 10
4249.7165472848164427
 20
94.2974638903676521
 30
0.0
 40
0.1170872312903462
 50
216.7618836977032117
 51
232.2034530029139887
  0
LINE
  5
AA3F
  8
0
 10
4249.5942060988154481
 20
94.3218446232177286
 30
0.0
 11
4249.5406938946698574
 21
94.2843750354558381
 31
0.0
  0
LINE
  5
AA40
  8
0
 10
4249.4739633483150101
 20
94.3511055818177198
 30
0.0
 11
4249.5052523284812196
 21
94.3957908764666627
 31
0.0
  0
LINE
  5
AA41
  8
0
 10
4249.5251556390148835
 20
94.283375955817732
 30
0.0
 11
4249.4756440272976761
 21
94.3318953334999293
 31
0.0
  0
ARC
  5
AA42
  8
0
 10
4249.7239951650180956
 20
94.2649623803628742
 30
0.0
 40
0.0339093360213584
 50
308.9408714818353019
 51
6.2005296118626259
  0
ARC
  5
AA43
  8
0
 10
4249.6592085111260531
 20
94.2579236915624534
 30
0.0
 40
0.099077224297853
 50
6.2005296118626259
 51
44.3578611633217932
  0
ARC
  5
AA44
  8
0
 10
4249.6811785531017449
 20
94.2794067156488467
 30
0.0
 40
0.0683493368286909
 50
44.3578611633217932
 51
87.8910777821916298
  0
ARC
  5
AA45
  8
0
 10
4249.6867892500158632
 20
94.3225147381896249
 30
0.0
 40
0.0253844648364862
 50
97.0043192540546215
 51
144.6067550806199904
  0
ARC
  5
AA46
  8
0
 10
4249.5730870112201956
 20
94.3458417593892733
 30
0.0
 40
0.0319668328943907
 50
311.3499405343036983
 51
5.435327846888196
  0
ARC
  5
AA47
  8
0
 10
4249.4755708846796551
 20
94.3365631034316294
 30
0.0
 40
0.1299233966953753
 50
5.435327846887386
 51
25.9034219997892201
  0
ARC
  5
AA48
  8
0
 10
4249.5818783859340328
 20
94.4513051148203715
 30
0.0
 40
0.0945366802442608
 50
216.3083239133769098
 51
244.5367260875999023
  0
ARC
  5
AA49
  8
0
 10
4249.5745479983052064
 20
94.4617452928885939
 30
0.0
 40
0.0956654321154515
 50
202.0640689767135996
 51
223.9695462711655125
  0
ARC
  5
AA4A
  8
0
 10
4249.453783052585095
 20
94.5153461947271154
 30
0.0
 40
0.0362084056478763
 50
312.1766703021700096
 51
2.6666630180095932
  0
ARC
  5
AA4B
  8
0
 10
4249.3677428315386351
 20
94.5168197963043895
 30
0.0
 40
0.1222095992857737
 50
0.0989252553158886
 51
42.5650476255748487
  0
ARC
  5
AA4C
  8
0
 10
4249.4312391472021773
 20
94.5772413378958845
 30
0.0
 40
0.0346079341902016
 50
39.9973098629034709
 51
98.6212333576445417
  0
ARC
  5
AA4D
  8
0
 10
4249.4327390455064233
 20
94.5950625360463562
 30
0.0
 40
0.0177071756911984
 50
112.1901984469899958
 51
138.0995020895319101
  0
ARC
  5
AA4E
  8
0
 10
4249.5978909252598896
 20
94.4394001416279849
 30
0.0
 40
0.0361922221351122
 50
307.688432308488018
 51
4.3156898960572141
  0
ARC
  5
AA4F
  8
0
 10
4249.5148434902048393
 20
94.4331329028369169
 30
0.0
 40
0.1194758024569281
 50
4.3156898960580259
 51
41.3148759563942392
  0
ARC
  5
AA50
  8
0
 10
4249.5663040275931053
 20
94.4783657678776621
 30
0.0
 40
0.0509615777439347
 50
41.3148759563948573
 51
82.773689943758086
  0
ARC
  5
AA51
  8
0
 10
4249.5699401024439794
 20
94.5070423572707483
 30
0.0
 40
0.0220553877573418
 50
82.773689943758086
 51
145.6740538861525067
  0
ARC
  5
AA52
  8
0
 10
4249.3517647221369771
 20
94.5521236100759097
 30
0.0
 40
0.0199018489262178
 50
296.6483906367362806
 51
343.4122756369117724
  0
ARC
  5
AA53
  8
0
 10
4249.308037778151629
 20
94.5651489777855687
 30
0.0
 40
0.0655275635435296
 50
343.4122756369117724
 51
13.0982857209587902
  0
ARC
  5
AA54
  8
0
 10
4249.2111789860500721
 20
94.5544044354458038
 30
0.0
 40
0.162707183913255
 50
9.0504630124429504
 51
34.5361784269804915
  0
ARC
  5
AA55
  8
0
 10
4249.3435645909021332
 20
94.6771716999702164
 30
0.0
 40
0.0274630537550981
 50
293.0991687067560747
 51
355.5532552059922864
  0
ARC
  5
AA56
  8
0
 10
4249.2253939313040974
 20
94.6863614231930342
 30
0.0
 40
0.1459905012205262
 50
355.5532552059922864
 51
37.8050358968483806
  0
ARC
  5
AA57
  8
0
 10
4249.3215021682053703
 20
94.7609241440865162
 30
0.0
 40
0.0243500780573246
 50
37.8050358968477411
 51
94.764203593532244
  0
ARC
  5
AA58
  8
0
 10
4249.328427742844724
 20
94.7612654431177646
 30
0.0
 40
0.0255432001234171
 50
110.5061290241608987
 51
149.2920972603799896
  0
ARC
  5
AA59
  8
0
 10
4249.1032423095066406
 20
94.7216564261131992
 30
0.0
 40
0.1659097632748005
 50
2.65470274201921
 51
36.9822441091385414
  0
ARC
  5
AA5A
  8
0
 10
4249.2235010096301266
 20
94.8122194398589073
 30
0.0
 40
0.0153647055200089
 50
36.982244109139188
 51
97.1494661608680872
  0
ARC
  5
AA5B
  8
0
 10
4249.2315777502390119
 20
94.8089758070221222
 30
0.0
 40
0.0210147260746724
 50
118.3810671900019997
 51
148.6135139178801978
  0
ARC
  5
AA5C
  8
0
 10
4249.068608717864663
 20
94.7533039721248969
 30
0.0
 40
0.1213198127248607
 50
14.8627068524286408
 51
38.217104311026759
  0
ARC
  5
AA5D
  8
0
 10
4249.1567890975602495
 20
94.8227377238455063
 30
0.0
 40
0.0090842335119466
 50
38.217104311026759
 51
89.0763089104444958
  0
ARC
  5
AA5E
  8
0
 10
4248.5029678816717933
 20
94.9100704011889036
 30
0.0
 40
0.5635223925924928
 50
3.2139990517554189
 51
16.8220688896624289
  0
ARC
  5
AA5F
  8
0
 10
4249.0362949039181331
 20
95.0713154981291666
 30
0.0
 40
0.0063530341877537
 50
16.8220688896717796
 51
45.9145484719395185
  0
ARC
  5
AA60
  8
0
 10
4249.0399469697367749
 20
95.0750860530069843
 30
0.0
 40
0.0011037800662064
 50
45.91454847194575
 51
118.8406744353127067
  0
ARC
  5
AA61
  8
0
 10
4249.4757203352901342
 20
94.9620062404115259
 30
0.0
 40
0.4177649864921935
 50
216.70585219113741
 51
226.1858019117038907
  0
ARC
  5
AA62
  8
0
 10
4249.4176220357876446
 20
94.7789455062485757
 30
0.0
 40
0.2093658648132359
 50
209.1788467442337094
 51
228.4917931130503064
  0
ARC
  5
AA63
  8
0
 10
4249.5678872721518928
 20
94.651437423010961
 30
0.0
 40
0.2634070146428673
 50
214.1472420826893028
 51
229.5483189018841017
  0
ARC
  5
AA64
  8
0
 10
4249.5300380354428853
 20
95.2639449445684647
 30
0.0
 40
0.6697308327742403
 50
218.4765099776629995
 51
224.0242984820118863
  0
ARC
  5
AA65
  8
0
 10
4248.9114167163006641
 20
93.681000049393802
 30
0.0
 40
0.9442443092354038
 50
28.1311155062212208
 51
33.7370290444021066
  0
ARC
  5
AA66
  8
0
 10
4249.721878642183583
 20
94.5490622895169395
 30
0.0
 40
0.2987898412871121
 50
237.2010318783401033
 51
249.5049831306727128
  0
ARC
  5
AA67
  8
0
 10
4249.111314659893651
 20
94.1730664961748118
 30
0.0
 40
0.4412226014370716
 50
28.7792980638915417
 51
41.447174527655207
  0
ARC
  5
AA68
  8
0
 10
4249.1069195399522869
 20
94.7777588696988857
 30
0.0
 40
0.0054479147502711
 50
23.4887013019471702
 51
118.7393886960409048
  0
ARC
  5
AA69
  8
0
 10
4249.0066521189119157
 20
94.7795450251351923
 30
0.0
 40
0.1052646192666383
 50
0.2096713032700512
 51
14.4233549820226905
  0
ARC
  5
AA6A
  8
0
 10
4250.2372399965615841
 20
95.2127807958598851
 30
0.0
 40
1.211884400914496
 50
200.794766650208004
 51
201.5675871387248037
  0
LINE
  5
AA6B
  8
0
 10
4249.2824073253259485
 20
94.614592655790517
 30
0.0
 11
4249.2764469768153504
 21
94.6245560136177062
 31
0.0
  0
ARC
  5
AA6C
  8
0
 10
4249.2385408500731501
 20
94.6214597845380183
 30
0.0
 40
0.0354496668681859
 50
74.7836248598753031
 51
109.683707032380596
  0
ARC
  5
AA6D
  8
0
 10
4249.2333376799051621
 20
94.6360047064726189
 30
0.0
 40
0.0200020866731826
 50
109.6837070323802976
 51
140.5094057281764037
  0
ARC
  5
AA6E
  8
0
 10
4249.213398633862198
 20
94.6524356909077937
 30
0.0
 40
0.0058347631073433
 50
226.6220494822495084
 51
320.509405728180127
  0
ARC
  5
AA6F
  8
0
 10
4249.3827972463013793
 20
94.8317078469949877
 30
0.0
 40
0.2524810601481875
 50
223.9052070714120077
 51
226.6220494822495084
  0
ARC
  5
AA70
  8
0
 10
4249.7913644979898891
 20
94.147222771263273
 30
0.0
 40
0.0266610206674266
 50
88.2585875062760863
 51
143.0213384096485072
  0
ARC
  5
AA71
  8
0
 10
4249.1025543853365889
 20
94.629593410605807
 30
0.0
 40
0.0849029778151986
 50
31.2428522332800789
 51
52.6239113609988891
  0
ARC
  5
AA72
  8
0
 10
4249.2947452560638339
 20
94.8022386426952721
 30
0.0
 40
0.1756263130530581
 50
216.7882850379002093
 51
227.0784785563930939
  0
ARC
  5
AA73
  8
0
 10
4249.2016532478855879
 20
94.5995452857600441
 30
0.0
 40
0.0763697784708656
 50
28.5532914278673609
 51
51.9547636183997028
  0
ARC
  5
AA74
  8
0
 10
4249.314708025535765
 20
94.6952668629787979
 30
0.0
 40
0.0749694905586367
 50
208.3315647831377078
 51
232.176490263122389
  0
ARC
  5
AA75
  8
0
 10
4249.2818584352626203
 20
94.38750825004918
 30
0.0
 40
0.1287478648901969
 50
35.9705488973804819
 51
50.0237601019189668
  0
ARC
  5
AA76
  8
0
 10
4249.4702950062419404
 20
94.5632107258893342
 30
0.0
 40
0.130813275146682
 50
216.0820382711982006
 51
229.9122792230305095
  0
ARC
  5
AA77
  8
0
 10
4249.4673425169603433
 20
94.3539963738975018
 30
0.0
 40
0.0622936932244439
 50
28.1249673229940598
 51
56.927765836803303
  0
ARC
  5
AA78
  8
0
 10
4249.5559745329919679
 20
94.4352877204120063
 30
0.0
 40
0.0619000874228863
 50
208.0313945755052885
 51
237.0213394380438956
  0
ARC
  5
AA79
  8
0
 10
4249.8279977427537233
 20
94.1395431452529579
 30
0.0
 40
0.0452842773623848
 50
209.5497662587079901
 51
228.734128866812199
  0
ARC
  5
AA7A
  8
0
 10
4249.7583747126545859
 20
94.0675486858378065
 30
0.0
 40
0.0590640642701503
 50
43.7718701696773707
 51
58.6466285612219309
  0
ARC
  5
AA7B
  8
0
 10
4249.789194895248329
 20
94.1175481423384781
 30
0.0
 40
0.0006811312503448
 50
147.52188741139949
 51
209.7770415649038114
  0
ARC
  5
AA7C
  8
0
 10
4249.788938103696637
 20
94.1174603077915748
 30
0.0
 40
0.0005538438933948
 50
72.2858679431366795
 51
125.0172625362048962
  0
ARC
  5
AA7D
  8
0
 10
4249.853480509757901
 20
94.1688283423053605
 30
0.0
 40
0.0669059472346098
 50
40.1716671610915768
 51
96.8832745600175826
  0
ARC
  5
AA7E
  8
0
 10
4249.8485344383761912
 20
94.2098007532557489
 30
0.0
 40
0.025636078308123
 50
96.8832745600175826
 51
148.0029610962394031
  0
ARC
  5
AA7F
  8
0
 10
4248.7865081004101739
 20
94.6119492764813117
 30
0.0
 40
0.3203406162715692
 50
38.4222489198206532
 51
44.0585459084706912
  0
ARC
  5
AA80
  8
0
 10
4249.2746906730626506
 20
95.0399292030157881
 30
0.0
 40
0.3296451416603387
 50
218.5018552048767901
 51
223.9789425809588863
  0
ARC
  5
AA81
  8
0
 10
4249.1048884021038248
 20
95.0195828986525299
 30
0.0
 40
0.0170513003671698
 50
75.9944631681328104
 51
144.2365542092690873
  0
ARC
  5
AA82
  8
0
 10
4249.0879484549068366
 20
95.0345191786047252
 30
0.0
 40
0.0058603045750822
 50
216.9608503980757916
 51
301.9816183266859184
  0
ARC
  5
AA83
  8
0
 10
4249.5864814083415695
 20
95.3107079451964552
 30
0.0
 40
0.5757299446574887
 50
202.4649999969904002
 51
209.0674932195981057
  0
ARC
  5
AA84
  8
0
 10
4249.2454898666892404
 20
94.7903015894947032
 30
0.0
 40
0.0793040567282041
 50
57.8656777369404693
 51
85.7829648313584414
  0
ARC
  5
AA85
  8
0
 10
4249.2663960879390288
 20
94.9133230774070853
 30
0.0
 40
0.0464464918037907
 50
214.2673801459210949
 51
251.0611497257046949
  0
ARC
  5
AA86
  8
0
 10
4246.1970472649445583
 20
93.1523960787943963
 30
0.0
 40
3.4923044830732222
 50
29.7846992488034807
 51
31.1706347871090692
  0
ARC
  5
AA87
  8
0
 10
4249.3717944590080151
 20
94.3487064296650999
 30
0.0
 40
0.3059743674658204
 50
56.0909045296079682
 51
68.1593314200615481
  0
ARC
  5
AA88
  8
0
 10
4249.5506941307421584
 20
94.7344583181377971
 30
0.0
 40
0.1207681795928761
 50
209.4260267646378963
 51
237.39851012696559
  0
ARC
  5
AA89
  8
0
 10
4248.8812861517953934
 20
94.3672797523235403
 30
0.0
 40
0.642738599498923
 50
28.6174132082487098
 51
35.5245894449053807
  0
ARC
  5
AA8A
  8
0
 10
4249.5373130513753495
 20
93.8767833374331531
 30
0.0
 40
0.5238685099873454
 50
54.3404641970628006
 51
62.9230927601654386
  0
ARC
  5
AA8B
  8
0
 10
4249.8232874206651104
 20
94.4361821088894402
 30
0.0
 40
0.1043896578049932
 50
205.1807336218425064
 51
242.9230927601655026
  0
ARC
  5
AA8C
  8
0
 10
4249.444224509257765
 20
94.2579643067018651
 30
0.0
 40
0.3144781922628415
 50
25.1807336218425597
 51
39.8480875740650831
  0
ARC
  5
AA8D
  8
0
 10
4249.0383857315227942
 20
94.9247352880048538
 30
0.0
 40
0.0669961011344284
 50
12.7933185109726697
 51
38.3992222720129703
  0
ARC
  5
AA8E
  8
0
 10
4249.0878594862861064
 20
94.9641976942352102
 30
0.0
 40
0.0037170712874301
 50
35.3648645358454914
 51
104.7339444741261048
  0
ARC
  5
AA8F
  8
0
 10
4249.0920768303612931
 20
94.9608108244675861
 30
0.0
 40
0.0086831965167755
 50
126.481510075823806
 51
144.1972907749006936
  0
ENDSEC
  0
EOF
