  0
SECTION
  2
HEADER
  9
$ACADVER
  1
AC1009
  9
$INSBASE
 10
4213.9975942977107479
 20
99.9073128998427507
 30
0.0
  9
$EXTMIN
 10
4209.494926636013588
 20
92.6822560633870154
 30
-0.0000000000000058
  9
$EXTMAX
 10
4218.5063485020491498
 20
99.9168631708055841
 30
0.0000000000000104
  9
$LIMMIN
 10
0.0
 20
0.0
  9
$LIMMAX
 10
11.6929133858000007
 20
8.2677165353999982
  9
$ORTHOMODE
 70
     0
  9
$REGENMODE
 70
     1
  9
$FILLMODE
 70
     1
  9
$QTEXTMODE
 70
     0
  9
$MIRRTEXT
 70
     0
  9
$DRAGMODE
 70
     2
  9
$LTSCALE
 40
0.6431102362
  9
$OSMODE
 70
  4095
  9
$ATTMODE
 70
     1
  9
$TEXTSIZE
 40
0.2
  9
$TRACEWID
 40
0.05
  9
$TEXTSTYLE
  7
STANDARD
  9
$CLAYER
  8
0
  9
$CELTYPE
  6
BYLAYER
  9
$CECOLOR
 62
   256
  9
$DIMSCALE
 40
1.0
  9
$DIMASZ
 40
0.1875
  9
$DIMEXO
 40
0.0625
  9
$DIMDLI
 40
0.4443307087
  9
$DIMRND
 40
0.0
  9
$DIMDLE
 40
0.0
  9
$DIMEXE
 40
0.125
  9
$DIMTP
 40
0.01
  9
$DIMTM
 40
0.01
  9
$DIMTXT
 40
2.0
  9
$DIMCEN
 40
0.1052362205
  9
$DIMTSZ
 40
0.0
  9
$DIMTOL
 70
     1
  9
$DIMLIM
 70
     0
  9
$DIMTIH
 70
     1
  9
$DIMTOH
 70
     1
  9
$DIMSE1
 70
     0
  9
$DIMSE2
 70
     0
  9
$DIMTAD
 70
     0
  9
$DIMZIN
 70
     0
  9
$DIMBLK
  1

  9
$DIMASO
 70
     1
  9
$DIMSHO
 70
     1
  9
$DIMPOST
  1
\X
  9
$DIMAPOST
  1

  9
$DIMALT
 70
     1
  9
$DIMALTD
 70
     2
  9
$DIMALTF
 40
25.3999999999999986
  9
$DIMLFAC
 40
1.0
  9
$DIMTOFL
 70
     0
  9
$DIMTVP
 40
0.0
  9
$DIMTIX
 70
     0
  9
$DIMSOXD
 70
     0
  9
$DIMSAH
 70
     0
  9
$DIMBLK1
  1

  9
$DIMBLK2
  1

  9
$DIMSTYLE
  2
STANDARD
  9
$DIMCLRD
 70
     0
  9
$DIMCLRE
 70
     0
  9
$DIMCLRT
 70
     0
  9
$DIMTFAC
 40
1.0
  9
$DIMGAP
 40
0.09
  9
$LUNITS
 70
     2
  9
$LUPREC
 70
     4
  9
$SKETCHINC
 40
0.1
  9
$FILLETRAD
 40
0.0
  9
$AUNITS
 70
     0
  9
$AUPREC
 70
     0
  9
$MENU
  1
.
  9
$ELEVATION
 40
0.0
  9
$PELEVATION
 40
0.0
  9
$THICKNESS
 40
0.0
  9
$LIMCHECK
 70
     0
  9
$BLIPMODE
 70
     0
  9
$CHAMFERA
 40
0.0
  9
$CHAMFERB
 40
0.0
  9
$SKPOLY
 70
     0
  9
$TDCREATE
 40
2458060.468368056230247
  9
$TDUPDATE
 40
2459424.6852777781896293
  9
$TDINDWG
 40
0.3269746528
  9
$TDUSRTIMER
 40
0.3269746528
  9
$USRTIMER
 70
     1
  9
$ANGBASE
 50
0.0
  9
$ANGDIR
 70
     0
  9
$PDMODE
 70
     0
  9
$PDSIZE
 40
0.3125
  9
$PLINEWID
 40
0.0
  9
$COORDS
 70
     1
  9
$SPLFRAME
 70
     0
  9
$SPLINETYPE
 70
     6
  9
$SPLINESEGS
 70
     8
  9
$ATTDIA
 70
     1
  9
$ATTREQ
 70
     1
  9
$HANDLING
 70
     1
  9
$HANDSEED
  5
A1B5
  9
$SURFTAB1
 70
     6
  9
$SURFTAB2
 70
     6
  9
$SURFTYPE
 70
     6
  9
$SURFU
 70
     6
  9
$SURFV
 70
     6
  9
$UCSNAME
  2

  9
$UCSORG
 10
0.0
 20
0.0
 30
0.0
  9
$UCSXDIR
 10
1.0
 20
0.0
 30
0.0
  9
$UCSYDIR
 10
0.0
 20
1.0
 30
0.0
  9
$PUCSNAME
  2

  9
$PUCSORG
 10
0.0
 20
0.0
 30
0.0
  9
$PUCSXDIR
 10
1.0
 20
0.0
 30
0.0
  9
$PUCSYDIR
 10
0.0
 20
1.0
 30
0.0
  9
$USERI1
 70
     0
  9
$USERI2
 70
     0
  9
$USERI3
 70
     0
  9
$USERI4
 70
     0
  9
$USERI5
 70
     0
  9
$USERR1
 40
0.0
  9
$USERR2
 40
0.0
  9
$USERR3
 40
0.0
  9
$USERR4
 40
0.0
  9
$USERR5
 40
0.0
  9
$WORLDVIEW
 70
     1
  9
$SHADEDGE
 70
     3
  9
$SHADEDIF
 70
    70
  9
$TILEMODE
 70
     1
  9
$MAXACTVP
 70
    64
  9
$PLIMCHECK
 70
     0
  9
$PEXTMIN
 10
1.0000000000000000E+20
 20
1.0000000000000000E+20
 30
1.0000000000000000E+20
  9
$PEXTMAX
 10
-1.0000000000000000E+20
 20
-1.0000000000000000E+20
 30
-1.0000000000000000E+20
  9
$PLIMMIN
 10
0.0
 20
0.0
  9
$PLIMMAX
 10
12.0
 20
9.0
  9
$UNITMODE
 70
     0
  9
$VISRETAIN
 70
     1
  9
$PLINEGEN
 70
     0
  9
$PSLTSCALE
 70
     1
  0
ENDSEC
  0
SECTION
  2
TABLES
  0
TABLE
  2
VPORT
 70
     1
  0
VPORT
  2
*ACTIVE
 70
     0
 10
0.0
 20
0.0
 11
1.0
 21
1.0
 12
-51.0057100872181834
 22
-8.0044526814876917
 13
0.0
 23
0.0
 14
1.0
 24
1.0
 15
0.0
 25
0.0
 16
0.0
 26
0.0
 36
122.0237731519760018
 17
4265.00634765625
 27
104.3040122985839986
 37
0.0
 40
7.2995886083834201
 41
2.8440779610194888
 42
50.0
 43
0.0
 44
0.0
 50
0.0
 51
0.0
 71
     0
 72
   100
 73
     1
 74
     1
 75
     0
 76
     0
 77
     0
 78
     0
  0
ENDTAB
  0
TABLE
  2
LTYPE
 70
     2
  0
LTYPE
  2
CONTINUOUS
 70
     0
  3
Solid line
 72
    65
 73
     0
 40
0.0
  0
LTYPE
  2
PHANTOM2
 70
     0
  3
___ _ _ ___ _ _ ___ _ _ ___ _ _
 72
    65
 73
     6
 40
1.25
 49
0.625
 49
-0.125
 49
0.125
 49
-0.125
 49
0.125
 49
-0.125
  0
ENDTAB
  0
TABLE
  2
LAYER
 70
     2
  0
LAYER
  2
0
 70
     0
 62
   255
  6
CONTINUOUS
  0
LAYER
  2
DEFPOINTS
 70
     0
 62
     7
  6
CONTINUOUS
  0
ENDTAB
  0
TABLE
  2
STYLE
 70
     1
  0
STYLE
  2
STANDARD
 70
     0
 40
0.0
 41
0.8
 50
0.0
 71
     0
 42
0.2
  3
txt
  4

  0
ENDTAB
  0
TABLE
  2
VIEW
 70
     0
  0
ENDTAB
  0
TABLE
  2
UCS
 70
     0
  0
ENDTAB
  0
TABLE
  2
APPID
 70
    10
  0
APPID
  2
ACAD
 70
     0
  0
APPID
  2
ACAD_MLEADERVER
 70
     0
  0
APPID
  2
ACAD_EXEMPT_FROM_CAD_STANDARDS
 70
     0
  0
APPID
  2
ACAD_NAV_VCDISPLAY
 70
     0
  0
APPID
  2
ACAECLAYERSTANDARD
 70
     0
  0
APPID
  2
ACCMTRANSPARENCY
 70
     0
  0
APPID
  2
ACAD_DSTYLE_DIMJAG
 70
     0
  0
APPID
  2
ACAD_DSTYLE_DIMTALN
 70
     0
  0
APPID
  2
ACDBATTR
 70
     0
  0
APPID
  2
DCO15
 70
     0
  0
ENDTAB
  0
TABLE
  2
DIMSTYLE
 70
     1
  0
DIMSTYLE
  2
STANDARD
 70
     0
  3

  4

  5

  6

  7

 40
1.0
 41
0.1875
 42
0.0625
 43
0.38
 44
0.125
 45
0.0
 46
0.0
 47
0.01
 48
0.01
140
0.15625
141
0.09
142
0.0
143
25.3999999999999986
144
1.0
145
0.0
146
1.0
147
0.09
 71
     1
 72
     0
 73
     1
 74
     1
 75
     0
 76
     0
 77
     0
 78
     4
170
     0
171
     2
172
     0
173
     0
174
     0
175
     0
176
     0
177
     0
178
     0
  0
ENDTAB
  0
ENDSEC
  0
SECTION
  2
BLOCKS
  0
BLOCK
  8
0
  2
$MODEL_SPACE
 70
     0
 10
0.0
 20
0.0
 30
0.0
  3
$MODEL_SPACE
  1

  0
ENDBLK
  5
21
  8
0
  0
BLOCK
 67
     1
  8
0
  2
$PAPER_SPACE
 70
     0
 10
0.0
 20
0.0
 30
0.0
  3
$PAPER_SPACE
  1

  0
ENDBLK
  5
1D
 67
     1
  8
0
  0
ENDSEC
  0
SECTION
  2
ENTITIES
  0
ATTDEF
  5
9852
  8
DEFPOINTS
 10
4213.9948733613382501
 20
99.9131649611676664
 30
0.0
 40
0.001
  1
P21510-G
  3

  2
MODELNUMBER
 70
     0
1001
ACDBATTR
1070
     0
1070
     1
  0
ATTDEF
  5
9853
  8
DEFPOINTS
 10
4213.9948733613382501
 20
99.9114982945010155
 30
0.0
 40
0.001
  1

  3

  2
TRADENAME
 70
     0
1001
ACDBATTR
1070
     0
1070
     1
  0
ATTDEF
  5
9854
  8
DEFPOINTS
 10
4213.9948733613382501
 20
99.9098316278343361
 30
0.0
 40
0.001
  1
SHOWERHEAD
  3

  2
PRODUCT
 70
     0
1001
ACDBATTR
1070
     0
1070
     1
  0
LINE
  5
9F6F
  8
0
 10
4209.9865942976894075
 20
92.6841290763427423
 30
0.0
 11
4218.0085942977339073
 21
92.6841290763427423
 31
0.0
  0
LINE
  5
9F70
  8
0
 10
4209.9275942977119485
 20
93.2511290763199554
 30
0.0
 11
4209.9275942977119485
 21
93.4501290763456751
 31
0.0
  0
LINE
  5
9F71
  8
0
 10
4209.8775942977117666
 20
93.5623787979427277
 30
0.0
 11
4209.8775942977117666
 21
93.6971086660427375
 31
0.0
  0
LINE
  5
9F72
  8
0
 10
4209.9275942977119485
 20
93.7471086660427346
 30
0.0
 11
4218.0675942977122759
 21
93.7471086660427346
 31
0.0
  0
LINE
  5
9F73
  8
0
 10
4209.947594297712385
 20
93.7471086660427346
 30
0.0
 11
4209.947594297712385
 21
93.7560619263996955
 31
0.0
  0
ARC
  5
9F74
  8
0
 10
4209.8065942977264058
 20
93.4501290763456751
 30
0.0
 40
0.1209999999861777
 50
0.0
 51
48.0197674570804196
  0
ARC
  5
9F75
  8
0
 10
4210.0856950336874434
 20
92.9641077257219166
 30
0.0
 40
0.2969999999721107
 50
128.3522043699231858
 51
250.5081657198458061
  0
ARC
  5
9F76
  8
0
 10
4209.8585942977124432
 20
93.2511290763199838
 30
0.0
 40
0.069
 50
308.3522043751154911
 51
359.9999999999943157
  0
ARC
  5
9F77
  8
0
 10
4209.9075942977124214
 20
93.5623787979427135
 30
0.0
 40
0.03
 50
179.9999999999828901
 51
228.0197677702080057
  0
ARC
  5
9F78
  8
0
 10
4209.9275942977119485
 20
93.6971086660427375
 30
0.0
 40
0.05
 50
90.0
 51
180.0000000000015916
  0
ARC
  5
9F79
  8
0
 10
4212.5604441854266042
 20
95.0646328942268326
 30
0.0
 40
0.4915866715334554
 50
319.3534990593965972
 51
331.6288380254684967
  0
ARC
  5
9F7A
  8
0
 10
4212.381239868326702
 20
95.2184820324251859
 30
0.0
 40
0.7277724979318843
 50
302.9999740157056181
 51
319.3534990593965972
  0
ARC
  5
9F7B
  8
0
 10
4211.0374055229676742
 20
97.2878075125643988
 30
0.0
 40
3.1951595147007179
 50
299.1332948689665727
 51
302.9999740157056181
  0
ARC
  5
9F7C
  8
0
 10
4211.4588928655357449
 20
96.5315786798405924
 30
0.0
 40
2.3294034131411072
 50
290.4792451024399043
 51
299.1332948689665727
  0
ARC
  5
9F7D
  8
0
 10
4211.1585690068895929
 20
97.3357192153396653
 30
0.0
 40
3.1877951773750128
 50
282.9228533718275003
 51
290.4792451024399043
  0
ARC
  5
9F7E
  8
0
 10
4254.451624592371445
 20
-91.3458226954673762
 30
0.0
 40
190.3968450185016934
 50
102.9228533718275003
 51
103.0661511802019987
  0
ARC
  5
9F7F
  8
0
 10
4207.6534034738024275
 20
113.3288842151935967
 30
0.0
 40
19.5707261960581889
 50
277.1316110139966895
 51
281.0591126138617142
  0
ARC
  5
9F80
  8
0
 10
4210.102294297712433
 20
93.7560619263996955
 30
0.0
 40
0.1547
 50
97.1316110139967321
 51
180.0
  0
LINE
  5
9F81
  8
0
 10
4213.0025942977108571
 20
94.8690545611835461
 30
0.0
 11
4213.0025942977108571
 21
94.9532156908427254
 31
0.0
  0
LINE
  5
9F82
  8
0
 10
4213.0925942977110026
 20
95.0432156908427288
 30
0.0
 11
4214.9025942977123123
 21
95.0432156908427288
 31
0.0
  0
LINE
  5
9F83
  8
0
 10
4213.1406374726111608
 20
95.1732156908427243
 30
0.0
 11
4214.8545511228121541
 21
95.1732156908427243
 31
0.0
  0
LINE
  5
9F84
  8
0
 10
4213.1406374726111608
 20
95.0432156908427288
 30
0.0
 11
4213.1406374726111608
 21
95.1732156908427243
 31
0.0
  0
ARC
  5
9F85
  8
0
 10
4212.9225942977118393
 20
94.8690545611835176
 30
0.0
 40
0.08
 50
331.6288380254334243
 51
0.0000000000154702
  0
ARC
  5
9F86
  8
0
 10
4213.0925942977110026
 20
94.9532156908427254
 30
0.0
 40
0.09
 50
90.0
 51
179.9999999999974989
  0
LINE
  5
9F87
  8
0
 10
4213.5206257937115879
 20
96.3878613601427503
 30
0.0
 11
4214.4745628017108174
 21
96.3878613601427503
 31
0.0
  0
LINE
  5
9F88
  8
0
 10
4213.5006257937120608
 20
96.2620034956678552
 30
0.0
 11
4213.5006257937120608
 21
96.3678613601427401
 31
0.0
  0
LINE
  5
9F89
  8
0
 10
4213.5376968602713532
 20
96.2207903055852256
 30
0.0
 11
4213.5035547271527321
 21
96.2549324266029771
 31
0.0
  0
LINE
  5
9F8A
  8
0
 10
4213.5406257937120245
 20
95.509581551353449
 30
0.0
 11
4213.5406257937120245
 21
96.2137192365203759
 31
0.0
  0
ARC
  5
9F8B
  8
0
 10
4214.0024281784426421
 20
94.8925302531810928
 30
0.0
 40
0.5366201861549768
 50
129.1280755832333966
 51
148.4621543814683946
  0
ARC
  5
9F8C
  8
0
 10
4213.6156257937109331
 20
95.3596015467441163
 30
0.0
 40
0.0699999999999993
 50
313.4776330711789001
 51
67.4596895364923341
  0
ARC
  5
9F8D
  8
0
 10
4213.7306264707476657
 20
95.6366857447526684
 30
0.0
 40
0.2300013475047984
 50
215.0969443569308908
 51
247.4596462494891114
  0
ARC
  5
9F8E
  8
0
 10
4213.5544375648469213
 20
95.5115785372915838
 30
0.0
 40
0.0139553923183849
 50
188.2271424838251903
 51
210.7473435819871952
  0
ARC
  5
9F8F
  8
0
 10
4213.5306257937108967
 20
96.2137192365203759
 30
0.0
 40
0.01
 50
359.9999999999951115
 51
45.000010152857719
  0
ARC
  5
9F90
  8
0
 10
4213.5106257937122791
 20
96.2620034956678552
 30
0.0
 40
0.01
 50
180.0000000000098055
 51
225.0000101528117114
  0
ARC
  5
9F91
  8
0
 10
4213.5206257937115879
 20
96.3678613601427401
 30
0.0
 40
0.02
 50
90.0
 51
179.9999999999974989
  0
LINE
  5
9F92
  8
0
 10
4213.8072728712122625
 20
95.0432156908427288
 30
0.0
 11
4213.8072728712122625
 21
95.1732156908427243
 31
0.0
  0
LINE
  5
9F93
  8
0
 10
4213.3309588991132841
 20
95.0432156908427288
 30
0.0
 11
4213.3309588991132841
 21
95.1732156908427243
 31
0.0
  0
LINE
  5
9F94
  8
0
 10
4213.5453621387987369
 20
99.0548295195427357
 30
0.0
 11
4214.449826456624578
 21
99.0548295195427357
 31
0.0
  0
LINE
  5
9F95
  8
0
 10
4213.0884724069110234
 20
99.5765802636264539
 30
0.0
 11
4213.0884724069110234
 21
99.6380608860137471
 31
0.0
  0
LINE
  5
9F96
  8
0
 10
4212.9995942977120649
 20
99.7913446736427261
 30
0.0
 11
4212.9995942977120649
 21
99.8923128998427501
 31
0.0
  0
LINE
  5
9F97
  8
0
 10
4213.0145942977123923
 20
99.9073128998427507
 30
0.0
 11
4214.980594297711832
 21
99.9073128998427507
 31
0.0
  0
ARC
  5
9F98
  8
0
 10
4213.0984952490116484
 20
99.7913446736427261
 30
0.0
 40
0.0989009512999886
 50
179.9999999999959073
 51
219.0600951883969003
  0
ARC
  5
9F99
  8
0
 10
4213.0653854504762421
 20
99.7644753384692251
 30
0.0
 40
0.056260361109321
 50
219.0600951883969003
 51
248.4039090455985956
  0
ARC
  5
9F9A
  8
0
 10
4213.0183102526652874
 20
99.645553256863991
 30
0.0
 40
0.0716401304542427
 50
46.2682824209386823
 51
68.4039090455986809
  0
ARC
  5
9F9B
  8
0
 10
4213.0326207616972169
 20
99.6605117619724297
 30
0.0
 40
0.050938740553312
 50
11.2066827210741202
 51
46.2682824209386823
  0
ARC
  5
9F9C
  8
0
 10
4212.9795234628982143
 20
99.6349550050276065
 30
0.0
 40
0.1089932057444859
 50
1.63292715057531
 51
18.9843897934109798
  0
ARC
  5
9F9D
  8
0
 10
4213.6489172826477443
 20
99.9141987214193676
 30
0.0
 40
0.8655859824139266
 50
257.1970574380212042
 51
263.1289111383701993
  0
ARC
  5
9F9E
  8
0
 10
4213.4884799638466575
 20
99.2081990564484357
 30
0.0
 40
0.1415862170801519
 50
235.8521306522324039
 51
257.1970574380212042
  0
ARC
  5
9F9F
  8
0
 10
4213.4836702224811233
 20
99.2011078670683872
 30
0.0
 40
0.1330177528755378
 50
216.431551595677206
 51
235.8521306522324039
  0
ARC
  5
9FA0
  8
0
 10
4213.444155674551439
 20
99.1719416285882716
 30
0.0
 40
0.0839049341296818
 50
193.2461801243539981
 51
216.4315515956778881
  0
ARC
  5
9FA1
  8
0
 10
4213.4339928715562564
 20
99.1695493212406944
 30
0.0
 40
0.0734643546844763
 50
163.9923609353230916
 51
193.2461801243532022
  0
ARC
  5
9FA2
  8
0
 10
4213.4038844967963087
 20
99.178187103259873
 30
0.0
 40
0.0421414316261912
 50
130.3388584980802136
 51
163.9923609353230916
  0
ARC
  5
9FA3
  8
0
 10
4213.3566321019206953
 20
99.2390494756524646
 30
0.0
 40
0.0349999999893595
 50
304.797969426843224
 51
83.4998627259435011
  0
ARC
  5
9FA4
  8
0
 10
4213.4183468083783737
 20
99.8820340030815288
 30
0.0
 40
0.6109453127075067
 50
251.2022192750841896
 51
264.5757450485684217
  0
ARC
  5
9FA5
  8
0
 10
4213.3191448909974497
 20
99.5860636849911032
 30
0.0
 40
0.298799363281745
 50
224.5235252531350056
 51
250.922341116138
  0
ARC
  5
9FA6
  8
0
 10
4213.2456643091054502
 20
99.5119644564585286
 30
0.0
 40
0.1944563053893627
 50
196.0507968102442078
 51
224.1389376279400949
  0
ARC
  5
9FA7
  8
0
 10
4213.1483312262380423
 20
99.4863100157062519
 30
0.0
 40
0.0938515286118926
 50
152.3943076684267908
 51
197.4289489853294981
  0
ARC
  5
9FA8
  8
0
 10
4212.4584726532148125
 20
99.9198806624684863
 30
0.0
 40
0.7212751397137827
 50
327.2603979158694187
 51
330.231262578606902
  0
ARC
  5
9FA9
  8
0
 10
4213.0588672308686
 20
99.5764663549208962
 30
0.0
 40
0.0296053951795635
 50
330.2312625786075273
 51
0.2204498248358464
  0
ARC
  5
9FAA
  8
0
 10
4213.0145942977123923
 20
99.8923128998427501
 30
0.0
 40
0.015
 50
90.0
 51
180.0
  0
LINE
  5
9FAB
  8
0
 10
4213.5775942977134036
 20
96.3878613601427503
 30
0.0
 11
4213.5775942977134036
 21
99.0548295195427357
 31
0.0
  0
LINE
  5
9FAC
  8
0
 10
4218.0675942977122759
 20
93.2511290763199554
 30
0.0
 11
4218.0675942977122759
 21
93.4501290763456751
 31
0.0
  0
LINE
  5
9FAD
  8
0
 10
4218.1175942977115483
 20
93.5623787979427277
 30
0.0
 11
4218.1175942977115483
 21
93.6971086660427375
 31
0.0
  0
LINE
  5
9FAE
  8
0
 10
4218.0475942977109298
 20
93.7471086660427346
 30
0.0
 11
4218.0475942977109298
 21
93.7560619263996955
 31
0.0
  0
ARC
  5
9FAF
  8
0
 10
4218.1885942976969091
 20
93.4501290763456751
 30
0.0
 40
0.1209999999861777
 50
131.9802325429195093
 51
180.0
  0
ARC
  5
9FB0
  8
0
 10
4217.9094935617358715
 20
92.9641077257219166
 30
0.0
 40
0.2969999999721107
 50
289.4918342801541939
 51
51.6477956300767502
  0
ARC
  5
9FB1
  8
0
 10
4218.1365942977108716
 20
93.2511290763199838
 30
0.0
 40
0.069
 50
180.0000000000057128
 51
231.6477956248845089
  0
ARC
  5
9FB2
  8
0
 10
4218.0875942977118029
 20
93.5623787979427135
 30
0.0
 40
0.03
 50
311.9802322297915111
 51
0.0000000000170987
  0
ARC
  5
9FB3
  8
0
 10
4218.0675942977122759
 20
93.6971086660427375
 30
0.0
 40
0.05
 50
359.9999999999976126
 51
90.0
  0
ARC
  5
9FB4
  8
0
 10
4215.4347444099958011
 20
95.0646328942268326
 30
0.0
 40
0.4915866715334554
 50
208.3711619745315033
 51
220.6465009406034028
  0
ARC
  5
9FB5
  8
0
 10
4215.6139487270966129
 20
95.2184820324251859
 30
0.0
 40
0.7277724979318843
 50
220.6465009406034028
 51
237.0000259842944956
  0
ARC
  5
9FB6
  8
0
 10
4216.9577830724547312
 20
97.2878075125643988
 30
0.0
 40
3.1951595147007179
 50
237.0000259842944956
 51
240.8667051310333989
  0
ARC
  5
9FB7
  8
0
 10
4216.5362957298866604
 20
96.5315786798405924
 30
0.0
 40
2.3294034131411072
 50
240.8667051310333989
 51
249.5207548975600957
  0
ARC
  5
9FB8
  8
0
 10
4216.836619588533722
 20
97.3357192153396653
 30
0.0
 40
3.1877951773750128
 50
249.5207548975600957
 51
257.0771466281724997
  0
ARC
  5
9FB9
  8
0
 10
4173.5435640030527793
 20
-91.3458226954673762
 30
0.0
 40
190.3968450185016934
 50
76.9338488197979444
 51
77.0771466281724855
  0
ARC
  5
9FBA
  8
0
 10
4220.3417851216208874
 20
113.3288842151935967
 30
0.0
 40
19.5707261960581889
 50
258.9408873861382858
 51
262.8683889860034242
  0
ARC
  5
9FBB
  8
0
 10
4217.8928942977108818
 20
93.7560619263996955
 30
0.0
 40
0.1547
 50
0.0
 51
82.8683889860032536
  0
LINE
  5
9FBC
  8
0
 10
4214.9925942977115483
 20
94.8690545611835461
 30
0.0
 11
4214.9925942977115483
 21
94.9532156908427254
 31
0.0
  0
LINE
  5
9FBD
  8
0
 10
4214.8545511228121541
 20
95.0432156908427288
 30
0.0
 11
4214.8545511228121541
 21
95.1732156908427243
 31
0.0
  0
ARC
  5
9FBE
  8
0
 10
4215.072594297710566
 20
94.8690545611835176
 30
0.0
 40
0.08
 50
179.9999999999845102
 51
208.3711619745666042
  0
ARC
  5
9FBF
  8
0
 10
4214.9025942977123123
 20
94.9532156908427254
 30
0.0
 40
0.09
 50
0.0000000000024427
 51
90.0
  0
LINE
  5
9FC0
  8
0
 10
4214.4945628017121635
 20
96.2620034956678552
 30
0.0
 11
4214.4945628017121635
 21
96.3678613601427401
 31
0.0
  0
LINE
  5
9FC1
  8
0
 10
4214.4574917351519616
 20
96.2207903055852256
 30
0.0
 11
4214.4916338682696733
 21
96.2549324266029771
 31
0.0
  0
LINE
  5
9FC2
  8
0
 10
4214.4545628017112904
 20
95.509581551353449
 30
0.0
 11
4214.4545628017112904
 21
96.2137192365203759
 31
0.0
  0
ARC
  5
9FC3
  8
0
 10
4213.9927604169806727
 20
94.8925302531810928
 30
0.0
 40
0.5366201861549768
 50
31.5378456185315486
 51
50.8719244167666389
  0
ARC
  5
9FC4
  8
0
 10
4214.3795628017123818
 20
95.3596015467441163
 30
0.0
 40
0.0699999999999993
 50
112.5403104635075948
 51
226.5223669288210999
  0
ARC
  5
9FC5
  8
0
 10
4214.2645621246756491
 20
95.6366857447526684
 30
0.0
 40
0.2300013475047984
 50
292.5403537505109171
 51
324.9030556430691945
  0
ARC
  5
9FC6
  8
0
 10
4214.4407510305763935
 20
95.5115785372915838
 30
0.0
 40
0.0139553923183849
 50
329.2526564180128048
 51
351.7728575161747813
  0
ARC
  5
9FC7
  8
0
 10
4214.4645628017124181
 20
96.2137192365203759
 30
0.0
 40
0.01
 50
134.9999898471423023
 51
180.0000000000048885
  0
ARC
  5
9FC8
  8
0
 10
4214.4845628017119452
 20
96.2620034956678552
 30
0.0
 40
0.01
 50
314.9999898471878055
 51
359.9999999999894271
  0
ARC
  5
9FC9
  8
0
 10
4214.4745628017108174
 20
96.3678613601427401
 30
0.0
 40
0.02
 50
0.0000000000024427
 51
90.0
  0
LINE
  5
9FCA
  8
0
 10
4214.1879157242119618
 20
95.0432156908427288
 30
0.0
 11
4214.1879157242119618
 21
95.1732156908427243
 31
0.0
  0
LINE
  5
9FCB
  8
0
 10
4214.6642296963118497
 20
95.0432156908427288
 30
0.0
 11
4214.6642296963118497
 21
95.1732156908427243
 31
0.0
  0
LINE
  5
9FCC
  8
0
 10
4214.9067161885122914
 20
99.5765802636264539
 30
0.0
 11
4214.9067161885122914
 21
99.6380608860137471
 31
0.0
  0
LINE
  5
9FCD
  8
0
 10
4214.9955942977121595
 20
99.7913446736427261
 30
0.0
 11
4214.9955942977121595
 21
99.8923128998427501
 31
0.0
  0
ARC
  5
9FCE
  8
0
 10
4214.8966933464107569
 20
99.7913446736427261
 30
0.0
 40
0.0989009512999886
 50
320.9399048116031281
 51
0.0000000000040711
  0
ARC
  5
9FCF
  8
0
 10
4214.9298031449488917
 20
99.7644753384692251
 30
0.0
 40
0.056260361109321
 50
291.5960909544012907
 51
320.9399048116031281
  0
ARC
  5
9FD0
  8
0
 10
4214.9768783427589369
 20
99.645553256863991
 30
0.0
 40
0.0716401304542427
 50
111.5960909544013049
 51
133.7317175790612964
  0
ARC
  5
9FD1
  8
0
 10
4214.9625678337270074
 20
99.6605117619724297
 30
0.0
 40
0.050938740553312
 50
133.7317175790612964
 51
168.7933172789250875
  0
ARC
  5
9FD2
  8
0
 10
4215.01566513252601
 20
99.6349550050276065
 30
0.0
 40
0.1089932057444859
 50
161.0156102065890025
 51
178.3670728494246873
  0
ARC
  5
9FD3
  8
0
 10
4214.3462713127755706
 20
99.9141987214193676
 30
0.0
 40
0.8655859824139266
 50
276.8710888616298007
 51
282.8029425619786821
  0
ARC
  5
9FD4
  8
0
 10
4214.5067086315766574
 20
99.2081990564484357
 30
0.0
 40
0.1415862170801519
 50
282.8029425619786821
 51
304.1478693477675961
  0
ARC
  5
9FD5
  8
0
 10
4214.511518372943101
 20
99.2011078670683872
 30
0.0
 40
0.1330177528755378
 50
304.1478693477675961
 51
323.5684484043226803
  0
ARC
  5
9FD6
  8
0
 10
4214.5510329208718758
 20
99.1719416285882716
 30
0.0
 40
0.0839049341296818
 50
323.5684484043221119
 51
346.7538198756458883
  0
ARC
  5
9FD7
  8
0
 10
4214.5611957238670584
 20
99.1695493212406944
 30
0.0
 40
0.0734643546844763
 50
346.7538198756467978
 51
16.0076390646768694
  0
ARC
  5
9FD8
  8
0
 10
4214.5913040986279157
 20
99.178187103259873
 30
0.0
 40
0.0421414316261912
 50
16.0076390646768694
 51
49.6611415019197722
  0
ARC
  5
9FD9
  8
0
 10
4214.6385564935026196
 20
99.2390494756524646
 30
0.0
 40
0.0349999999893595
 50
96.5001372740565273
 51
235.2020305731562928
  0
ARC
  5
9FDA
  8
0
 10
4214.5768417870449412
 20
99.8820340030815288
 30
0.0
 40
0.6109453127075067
 50
275.4242549514315783
 51
288.7977807249156967
  0
ARC
  5
9FDB
  8
0
 10
4214.6760437044276841
 20
99.5860636849911032
 30
0.0
 40
0.298799363281745
 50
289.077658883862
 51
315.4764747468649944
  0
ARC
  5
9FDC
  8
0
 10
4214.7495242863196836
 20
99.5119644564585286
 30
0.0
 40
0.1944563053893627
 50
315.8610623720599051
 51
343.9492031897557922
  0
ARC
  5
9FDD
  8
0
 10
4214.8468573691843631
 20
99.4863100157062519
 30
0.0
 40
0.0938515286118926
 50
342.5710510146703882
 51
27.6056923315731417
  0
ARC
  5
9FDE
  8
0
 10
4215.5367159422094119
 20
99.9198806624684863
 30
0.0
 40
0.7212751397137827
 50
209.768737421393098
 51
212.7396020841306097
  0
ARC
  5
9FDF
  8
0
 10
4214.9363213645556243
 20
99.5764663549208962
 30
0.0
 40
0.0296053951795635
 50
179.7795501751641041
 51
209.7687374213923874
  0
ARC
  5
9FE0
  8
0
 10
4214.980594297711832
 20
99.8923128998427501
 30
0.0
 40
0.015
 50
0.0
 51
90.0
  0
LINE
  5
9FE1
  8
0
 10
4214.4175942977117302
 20
96.3878613601427503
 30
0.0
 11
4214.4175942977117302
 21
99.0548295195427357
 31
0.0
  0
LINE
  5
9FE2
  8
0
 10
4209.9014083709107581
 20
93.1970184938427337
 30
0.0
 11
4218.0937802245116472
 21
93.1970184938427337
 31
0.0
  0
LINE
  5
9FE3
  8
0
 10
4209.8875280730380837
 20
93.5400775283069947
 30
0.0
 11
4218.1076605223852312
 21
93.5400775283069947
 31
0.0
  0
LINE
  5
9FE4
  8
0
 10
4213.3766060582102
 20
99.2103085454419755
 30
0.0
 11
4214.6185825372122054
 21
99.2103085454419755
 31
0.0
  0
LINE
  5
9FE5
  8
0
 10
4213.3605942977183076
 20
99.2738244810977193
 30
0.0
 11
4214.6345942977050072
 21
99.2738244810977193
 31
0.0
  0
LINE
  5
9FE6
  8
0
 10
4213.0845657942008984
 20
99.5617672642557352
 30
0.0
 11
4214.910622801223326
 21
99.5617672642557352
 31
0.0
  0
LINE
  5
9FE7
  8
0
 10
4213.0446781991131502
 20
99.7121643647333968
 30
0.0
 11
4214.9505103963101647
 21
99.7121643647333968
 31
0.0
  0
ENDSEC
  0
EOF
